  0
SECTION
  2
HEADER
  9
$ACADVER
  1
AC1009
  9
$INSBASE
 10
4133.2398172295315817
 20
501.8153889131314145
 30
0.0
  9
$EXTMIN
 10
4129.4406046311323735
 20
501.8109064678405957
 30
0.0
  9
$EXTMAX
 10
4134.3055097393998949
 20
508.0557988586313058
 30
0.0
  9
$LIMMIN
 10
0.0
 20
0.0
  9
$LIMMAX
 10
11.6929133858000007
 20
8.2677165353999982
  9
$ORTHOMODE
 70
     0
  9
$REGENMODE
 70
     1
  9
$FILLMODE
 70
     1
  9
$QTEXTMODE
 70
     0
  9
$MIRRTEXT
 70
     0
  9
$DRAGMODE
 70
     2
  9
$LTSCALE
 40
0.6431102362
  9
$OSMODE
 70
  4095
  9
$ATTMODE
 70
     1
  9
$TEXTSIZE
 40
0.2
  9
$TRACEWID
 40
0.05
  9
$TEXTSTYLE
  7
STANDARD
  9
$CLAYER
  8
0
  9
$CELTYPE
  6
BYLAYER
  9
$CECOLOR
 62
   256
  9
$DIMSCALE
 40
1.0
  9
$DIMASZ
 40
0.1875
  9
$DIMEXO
 40
0.0625
  9
$DIMDLI
 40
0.4443307087
  9
$DIMRND
 40
0.0
  9
$DIMDLE
 40
0.0
  9
$DIMEXE
 40
0.125
  9
$DIMTP
 40
0.01
  9
$DIMTM
 40
0.01
  9
$DIMTXT
 40
2.0
  9
$DIMCEN
 40
0.1052362205
  9
$DIMTSZ
 40
0.0
  9
$DIMTOL
 70
     1
  9
$DIMLIM
 70
     0
  9
$DIMTIH
 70
     1
  9
$DIMTOH
 70
     1
  9
$DIMSE1
 70
     0
  9
$DIMSE2
 70
     0
  9
$DIMTAD
 70
     0
  9
$DIMZIN
 70
     0
  9
$DIMBLK
  1

  9
$DIMASO
 70
     1
  9
$DIMSHO
 70
     1
  9
$DIMPOST
  1
\X
  9
$DIMAPOST
  1

  9
$DIMALT
 70
     1
  9
$DIMALTD
 70
     2
  9
$DIMALTF
 40
25.3999999999999986
  9
$DIMLFAC
 40
1.0
  9
$DIMTOFL
 70
     0
  9
$DIMTVP
 40
0.0
  9
$DIMTIX
 70
     0
  9
$DIMSOXD
 70
     0
  9
$DIMSAH
 70
     0
  9
$DIMBLK1
  1

  9
$DIMBLK2
  1

  9
$DIMSTYLE
  2
STANDARD
  9
$DIMCLRD
 70
     0
  9
$DIMCLRE
 70
     0
  9
$DIMCLRT
 70
     0
  9
$DIMTFAC
 40
1.0
  9
$DIMGAP
 40
0.09
  9
$LUNITS
 70
     2
  9
$LUPREC
 70
     4
  9
$SKETCHINC
 40
0.1
  9
$FILLETRAD
 40
0.0
  9
$AUNITS
 70
     0
  9
$AUPREC
 70
     0
  9
$MENU
  1
.
  9
$ELEVATION
 40
0.0
  9
$PELEVATION
 40
0.0
  9
$THICKNESS
 40
0.0
  9
$LIMCHECK
 70
     0
  9
$BLIPMODE
 70
     0
  9
$CHAMFERA
 40
0.0
  9
$CHAMFERB
 40
0.0
  9
$SKPOLY
 70
     0
  9
$TDCREATE
 40
2458060.468368056230247
  9
$TDUPDATE
 40
2459857.4189814808778465
  9
$TDINDWG
 40
0.5146366898
  9
$TDUSRTIMER
 40
0.5146366898
  9
$USRTIMER
 70
     1
  9
$ANGBASE
 50
0.0
  9
$ANGDIR
 70
     0
  9
$PDMODE
 70
     0
  9
$PDSIZE
 40
0.3125
  9
$PLINEWID
 40
0.0
  9
$COORDS
 70
     1
  9
$SPLFRAME
 70
     0
  9
$SPLINETYPE
 70
     6
  9
$SPLINESEGS
 70
     8
  9
$ATTDIA
 70
     1
  9
$ATTREQ
 70
     1
  9
$HANDLING
 70
     1
  9
$HANDSEED
  5
E526
  9
$SURFTAB1
 70
     6
  9
$SURFTAB2
 70
     6
  9
$SURFTYPE
 70
     6
  9
$SURFU
 70
     6
  9
$SURFV
 70
     6
  9
$UCSNAME
  2

  9
$UCSORG
 10
0.0
 20
0.0
 30
0.0
  9
$UCSXDIR
 10
1.0
 20
0.0
 30
0.0
  9
$UCSYDIR
 10
0.0
 20
1.0
 30
0.0
  9
$PUCSNAME
  2

  9
$PUCSORG
 10
0.0
 20
0.0
 30
0.0
  9
$PUCSXDIR
 10
1.0
 20
0.0
 30
0.0
  9
$PUCSYDIR
 10
0.0
 20
1.0
 30
0.0
  9
$USERI1
 70
     0
  9
$USERI2
 70
     0
  9
$USERI3
 70
     0
  9
$USERI4
 70
     0
  9
$USERI5
 70
     0
  9
$USERR1
 40
0.0
  9
$USERR2
 40
0.0
  9
$USERR3
 40
0.0
  9
$USERR4
 40
0.0
  9
$USERR5
 40
0.0
  9
$WORLDVIEW
 70
     1
  9
$SHADEDGE
 70
     3
  9
$SHADEDIF
 70
    70
  9
$TILEMODE
 70
     1
  9
$MAXACTVP
 70
    64
  9
$PLIMCHECK
 70
     0
  9
$PEXTMIN
 10
1.0000000000000000E+20
 20
1.0000000000000000E+20
 30
1.0000000000000000E+20
  9
$PEXTMAX
 10
-1.0000000000000000E+20
 20
-1.0000000000000000E+20
 30
-1.0000000000000000E+20
  9
$PLIMMIN
 10
0.0
 20
0.0
  9
$PLIMMAX
 10
12.0
 20
9.0
  9
$UNITMODE
 70
     0
  9
$VISRETAIN
 70
     1
  9
$PLINEGEN
 70
     0
  9
$PSLTSCALE
 70
     1
  0
ENDSEC
  0
SECTION
  2
TABLES
  0
TABLE
  2
VPORT
 70
     1
  0
VPORT
  2
*ACTIVE
 70
     0
 10
0.0
 20
0.0
 11
1.0
 21
1.0
 12
-11.3732807053588605
 22
9.2278076057592386
 13
0.0
 23
0.0
 14
1.0
 24
1.0
 15
0.0
 25
0.0
 16
0.0
 26
0.0
 36
17.5184077848218287
 17
4143.246337890625
 27
495.7055450574767974
 37
0.0
 40
6.2896052241377172
 41
2.2831541218637992
 42
50.0
 43
0.0
 44
0.0
 50
0.0
 51
0.0
 71
     0
 72
   100
 73
     1
 74
     1
 75
     0
 76
     0
 77
     0
 78
     0
  0
ENDTAB
  0
TABLE
  2
LTYPE
 70
     2
  0
LTYPE
  2
CONTINUOUS
 70
     0
  3
Solid line
 72
    65
 73
     0
 40
0.0
  0
LTYPE
  2
PHANTOM2
 70
     0
  3
___ _ _ ___ _ _ ___ _ _ ___ _ _
 72
    65
 73
     6
 40
1.25
 49
0.625
 49
-0.125
 49
0.125
 49
-0.125
 49
0.125
 49
-0.125
  0
ENDTAB
  0
TABLE
  2
LAYER
 70
     2
  0
LAYER
  2
0
 70
     0
 62
   255
  6
CONTINUOUS
  0
LAYER
  2
DEFPOINTS
 70
     0
 62
     7
  6
CONTINUOUS
  0
ENDTAB
  0
TABLE
  2
STYLE
 70
     1
  0
STYLE
  2
STANDARD
 70
     0
 40
0.0
 41
0.8
 50
0.0
 71
     0
 42
0.2
  3
txt
  4

  0
ENDTAB
  0
TABLE
  2
VIEW
 70
     0
  0
ENDTAB
  0
TABLE
  2
UCS
 70
     0
  0
ENDTAB
  0
TABLE
  2
APPID
 70
     9
  0
APPID
  2
ACAD
 70
     0
  0
APPID
  2
ACAD_MLEADERVER
 70
     0
  0
APPID
  2
ACAD_EXEMPT_FROM_CAD_STANDARDS
 70
     0
  0
APPID
  2
ACAD_NAV_VCDISPLAY
 70
     0
  0
APPID
  2
ACAECLAYERSTANDARD
 70
     0
  0
APPID
  2
ACCMTRANSPARENCY
 70
     0
  0
APPID
  2
ACAD_DSTYLE_DIMJAG
 70
     0
  0
APPID
  2
ACAD_DSTYLE_DIMTALN
 70
     0
  0
APPID
  2
ACDBATTR
 70
     0
  0
ENDTAB
  0
TABLE
  2
DIMSTYLE
 70
     1
  0
DIMSTYLE
  2
STANDARD
 70
     0
  3

  4

  5

  6

  7

 40
1.0
 41
0.1875
 42
0.0625
 43
0.38
 44
0.125
 45
0.0
 46
0.0
 47
0.01
 48
0.01
140
0.15625
141
0.09
142
0.0
143
25.3999999999999986
144
1.0
145
0.0
146
1.0
147
0.09
 71
     1
 72
     0
 73
     1
 74
     1
 75
     0
 76
     0
 77
     0
 78
     4
170
     0
171
     2
172
     0
173
     0
174
     0
175
     0
176
     0
177
     0
178
     0
  0
ENDTAB
  0
ENDSEC
  0
SECTION
  2
BLOCKS
  0
BLOCK
  8
0
  2
$MODEL_SPACE
 70
     0
 10
0.0
 20
0.0
 30
0.0
  3
$MODEL_SPACE
  1

  0
ENDBLK
  5
21
  8
0
  0
BLOCK
 67
     1
  8
0
  2
$PAPER_SPACE
 70
     0
 10
0.0
 20
0.0
 30
0.0
  3
$PAPER_SPACE
  1

  0
ENDBLK
  5
1D
 67
     1
  8
0
  0
ENDSEC
  0
SECTION
  2
ENTITIES
  0
ATTDEF
  5
3930
  8
DEFPOINTS
 10
4133.2398524721102149
 20
501.8142398011739829
 30
0.0
 40
0.001
  1
K-74030BR-4
  3

  2
MODELNUMBER
 70
     0
1001
ACDBATTR
1070
     0
1070
     1
  0
ATTDEF
  5
3931
  8
DEFPOINTS
 10
4133.2398524721102149
 20
501.812573134507204
 30
0.0
 40
0.001
  1
TAUT
  3

  2
TRADENAME
 70
     0
1001
ACDBATTR
1070
     0
1070
     1
  0
ATTDEF
  5
3932
  8
DEFPOINTS
 10
4133.2398524721102149
 20
501.8109064678405957
 30
0.0
 40
0.001
  1
BIDET FAUCET
  3

  2
PRODUCT
 70
     0
1001
ACDBATTR
1070
     0
1070
     1
  0
LINE
  5
E1E7
  8
0
 10
4132.59659142763212
 20
501.8641604474312885
 30
0.0
 11
4132.8084305125321407
 21
501.864425273531424
 31
0.0
  0
LINE
  5
E1E8
  8
0
 10
4132.3146203791320659
 20
501.8153889131314145
 30
0.0
 11
4134.165014079932007
 21
501.8153889131314145
 31
0.0
  0
LINE
  5
E1E9
  8
0
 10
4132.3175589683223734
 20
501.8641476070313843
 30
0.0
 11
4134.1620755129315512
 21
501.8641475375313803
 31
0.0
  0
LINE
  5
E1EA
  8
0
 10
4129.4406046311323735
 20
506.2642078107314205
 30
0.0
 11
4129.4406046311323735
 21
505.4768062359314058
 31
0.0
  0
LINE
  5
E1EB
  8
0
 10
4130.0733188801323195
 20
508.0243027956312858
 30
0.0
 11
4130.0733188801323195
 21
507.9001733819313813
 31
0.0
  0
LINE
  5
E1EC
  8
0
 10
4130.3854865209323179
 20
505.5555465237313797
 30
0.0
 11
4130.3854865209323179
 21
506.1854484924314193
 31
0.0
  0
LINE
  5
E1ED
  8
0
 10
4130.5626518752333141
 20
506.416178049331279
 30
0.0
 11
4130.5626518752333141
 21
505.3251224367314194
 31
0.0
  0
LINE
  5
E1EE
  8
0
 10
4133.3035311372323122
 20
507.1278661584312886
 30
0.0
 11
4134.0552066179316171
 21
507.4783781715312898
 31
0.0
  0
LINE
  5
E1EF
  8
0
 10
4134.2322299217321415
 20
503.1545404800314145
 30
0.0
 11
4134.2180577355320565
 21
503.1572283918313815
 31
0.0
  0
LINE
  5
E1F0
  8
0
 10
4134.2610508197321906
 20
503.3066547834313837
 30
0.0
 11
4134.2752230058322311
 21
503.3039668716313031
 31
0.0
  0
LINE
  5
E1F1
  8
0
 10
4133.9121368041323876
 20
503.2764067611313976
 30
0.0
 11
4134.2180577355320565
 21
503.1572283918313815
 31
0.0
  0
LINE
  5
E1F2
  8
0
 10
4133.9693020745316971
 20
503.4231452409313761
 30
0.0
 11
4134.2752230058322311
 21
503.3039668716313031
 31
0.0
  0
LINE
  5
E1F3
  8
0
 10
4132.3146203791320659
 20
501.8153889131314145
 30
0.0
 11
4132.3146203791320659
 21
501.8449164721313878
 31
0.0
  0
LINE
  5
E1F4
  8
0
 10
4132.4130288220585498
 20
507.1106645035603719
 30
0.0
 11
4132.41302909343176
 21
507.3811642119313774
 31
0.0
  0
LINE
  5
E1F5
  8
0
 10
4132.41302909343176
 20
507.6667575482313737
 30
0.0
 11
4132.41302909343176
 21
507.707227838631411
 31
0.0
  0
LINE
  5
E1F6
  8
0
 10
4132.4130455760323457
 20
502.1872737450314048
 30
0.0
 11
4132.4130455760323457
 21
504.1197418344314087
 31
0.0
  0
LINE
  5
E1F7
  8
0
 10
4130.3067463634333762
 20
505.4768062359314058
 30
0.0
 11
4129.4406046311323735
 21
505.4768062359314058
 31
0.0
  0
LINE
  5
E1F8
  8
0
 10
4130.4839117177316439
 20
505.6834991493313964
 30
0.0
 11
4130.3854865209323179
 21
505.6834991493313964
 31
0.0
  0
LINE
  5
E1F9
  8
0
 10
4132.3175589683223734
 20
501.8641476070313843
 30
0.0
 11
4132.4076542139719095
 21
502.1519965100509921
 31
0.0
  0
LINE
  5
E1FA
  8
0
 10
4130.4839117177316439
 20
506.057514897331373
 30
0.0
 11
4130.3854865209323179
 21
506.057514897331373
 31
0.0
  0
LINE
  5
E1FB
  8
0
 10
4130.3067463634333762
 20
506.2642078107314205
 30
0.0
 11
4129.4406046311323735
 21
506.2642078107314205
 31
0.0
  0
LINE
  5
E1FC
  8
0
 10
4134.0719809692345734
 20
502.1519941998806189
 30
0.0
 11
4134.1620755128706151
 21
501.8641475379639019
 31
0.0
  0
LINE
  5
E1FD
  8
0
 10
4134.0665724005320953
 20
507.4962188761314223
 30
0.0
 11
4134.0665724005320953
 21
508.0243027955312982
 31
0.0
  0
LINE
  5
E1FE
  8
0
 10
4134.0665888831317716
 20
507.071294425631379
 30
0.0
 11
4134.0665888831317716
 21
503.3852449797295776
 31
0.0
  0
LINE
  5
E1FF
  8
0
 10
4134.0665888831317716
 20
503.2162364850212271
 30
0.0
 11
4134.0665888831317716
 21
502.1872737450314048
 31
0.0
  0
LINE
  5
E200
  8
0
 10
4134.165014079932007
 20
501.8449164721313878
 30
0.0
 11
4134.165014079932007
 21
501.8153889131314145
 31
0.0
  0
LINE
  5
E201
  8
0
 10
4133.8253045361161639
 20
502.9104014757757
 30
0.0
 11
4133.8846739723321662
 21
503.2237484245313794
 31
0.0
  0
LINE
  5
E202
  8
0
 10
4133.1371460021318853
 20
507.0909794642313955
 30
0.0
 11
4133.1423943015315672
 21
507.0909794642313955
 31
0.0
  0
LINE
  5
E203
  8
0
 10
4130.103035524131883
 20
507.8680171094313778
 30
0.0
 11
4132.3833884877321907
 21
507.738679346231379
 31
0.0
  0
LINE
  5
E204
  8
0
 10
4134.0350763374317467
 20
508.0557988586313058
 30
0.0
 11
4130.1048149431317142
 21
508.0557988586313058
 31
0.0
  0
ARC
  5
E205
  8
0
 10
4130.3067463634333762
 20
505.5555463934314844
 30
0.0
 40
0.0787401575001727
 50
270.0000000000521254
 51
0.0000948135038702
  0
ARC
  5
E206
  8
0
 10
4130.3067463617835529
 20
506.1854676492532121
 30
0.0
 40
0.0787401614781406
 50
359.9860604165430118
 51
89.9999988009441267
  0
ARC
  5
E207
  8
0
 10
4130.4839117177316439
 20
505.6047589918313747
 30
0.0
 40
0.0787401575
 50
0.0
 51
90.0
  0
ARC
  5
E208
  8
0
 10
4130.4839117177316439
 20
506.1362550548313948
 30
0.0
 40
0.0787401575
 50
270.0
 51
0.0
  0
ARC
  5
E209
  8
0
 10
4130.1048149431317142
 20
508.0243027956312858
 30
0.0
 40
0.031496063
 50
90.0
 51
180.0
  0
ARC
  5
E20A
  8
0
 10
4130.5823435049751424
 20
506.4161723294103012
 30
0.0
 40
0.0196916305749792
 50
95.7258201017321255
 51
179.983357023643805
  0
ARC
  5
E20B
  8
0
 10
4130.5823430338950857
 20
505.3251279744968087
 30
0.0
 40
0.0196911594426062
 50
180.016113352676399
 51
264.2722089901845948
  0
ARC
  5
E20C
  8
0
 10
4132.2949353398325911
 20
502.1872737450314048
 30
0.0
 40
0.1181102362000548
 50
342.6216264959854243
 51
359.999999998397584
  0
ARC
  5
E20D
  8
0
 10
4134.1846991181319027
 20
502.1872737447313852
 30
0.0
 40
0.118110234
 50
179.9999998507009877
 51
197.3795479647970126
  0
ARC
  5
E20E
  8
0
 10
4134.2096908886842357
 20
503.24498355022439
 30
0.0
 40
0.0950134266738145
 50
331.5311028868845824
 51
347.1918966492700065
  0
ARC
  5
E20F
  8
0
 10
4134.2119817888324178
 20
503.2438043569313777
 30
0.0
 40
0.0924374681
 50
330.1788099970991084
 51
331.4967458768026063
  0
ARC
  5
E210
  8
0
 10
4132.379017245832074
 20
501.8449164720314002
 30
0.0
 40
0.0643968666000043
 50
162.6243851830421931
 51
179.9999999028046886
  0
ARC
  5
E211
  8
0
 10
4134.100617449332276
 20
501.8449165104312897
 30
0.0
 40
0.0643966303
 50
359.9999658625994812
 51
17.3755804159057483
  0
ARC
  5
E212
  8
0
 10
4133.1339413246323602
 20
506.9713781660313998
 30
0.0
 40
0.8661417323
 50
7.9370563895853534
 51
29.6458516127200085
  0
ARC
  5
E213
  8
0
 10
4133.1338385324388582
 20
507.4940020982538726
 30
0.0
 40
0.4035481465635549
 50
272.9243451839706722
 51
294.8662540089205208
  0
ARC
  5
E214
  8
0
 10
4134.0350630763496156
 20
508.0242895344500198
 30
0.0
 40
0.0315093269719449
 50
0.0241136225896226
 51
89.9758863773908359
  0
ARC
  5
E215
  8
0
 10
4132.432721751223653
 20
507.1106722004109884
 30
0.0
 40
0.0196929306707942
 50
180.0223936736163921
 51
269.745356364065799
  0
ARC
  5
E216
  8
0
 10
4132.4327143271320892
 20
507.0712872942314107
 30
0.0
 40
0.0196923329000002
 50
90.2330504194350738
 51
173.2415332497006943
  0
ARC
  5
E217
  8
0
 10
4134.0469037211078103
 20
507.0712943022065247
 30
0.0
 40
0.0196851620252027
 50
0.0003592429530784
 51
90.0
  0
LINE
  5
E218
  8
0
 10
4134.0719809693318894
 20
502.1519941998312788
 30
0.0
 11
4132.4076542139719095
 21
502.1519965100509921
 31
0.0
  0
ARC
  5
E219
  8
0
 10
4132.3810154795501148
 20
507.7067502307530162
 30
0.0
 40
0.0320171763755902
 50
0.8547265495267451
 51
85.7495270135616892
  0
ARC
  5
E21A
  8
0
 10
4131.6238946581406708
 20
507.523960880081404
 30
0.0
 40
0.8019501514412327
 50
349.7431159573715718
 51
10.2568840426284194
  0
ARC
  5
E21B
  8
0
 10
4131.9641501535597854
 20
507.1209221546906178
 30
0.0
 40
0.4514949952106501
 50
320.3809405464102156
 51
353.9842656195140762
  0
ARC
  5
E21C
  8
0
 10
4131.8590505684323944
 20
507.2213094405796028
 30
0.0
 40
0.5965573909900738
 50
297.3181851082474054
 51
319.3908202208003217
  0
ARC
  5
E21D
  8
0
 10
4131.6111815552885673
 20
507.6934434838972834
 30
0.0
 40
1.12979557228462
 50
286.290094104336788
 51
297.4980843776854726
  0
ARC
  5
E21E
  8
0
 10
4131.1542807395599084
 20
509.5022757485294278
 30
0.0
 40
2.994961943863264
 50
274.4513161461451887
 51
284.9733858473874193
  0
ARC
  5
E21F
  8
0
 10
8172.2062153243950888
 20
-39932.1821869578707265
 30
0.0
 40
40640.0856461160510662
 50
95.706313973049518
 51
95.7074564508380092
  0
LINE
  5
E220
  8
0
 10
4130.5803778092322318
 20
505.3055351275314138
 30
0.0
 11
4131.4704530331900969
 21
505.2165008479631183
 31
0.0
  0
ARC
  5
E221
  8
0
 10
4131.1475708755424421
 20
501.6639064072630276
 30
0.0
 40
3.5672370467661478
 50
80.0965151416299932
 51
84.8068663178042641
  0
ARC
  5
E222
  8
0
 10
4131.5544053444418751
 20
504.083400432349606
 30
0.0
 40
1.113930988164366
 50
66.6928403518152493
 51
79.3067354619113019
  0
ARC
  5
E223
  8
0
 10
4131.7611574545007898
 20
504.5313349588444112
 30
0.0
 40
0.6208745857481023
 50
31.2631959020427388
 51
67.8603496157243882
  0
ARC
  5
E224
  8
0
 10
4131.4748907537477862
 20
504.4061348580772233
 30
0.0
 40
0.9314751779189254
 50
5.6801719323524349
 51
28.7069570324075194
  0
ARC
  5
E225
  8
0
 10
4128.6754688946721217
 20
504.1981044179382252
 30
0.0
 40
3.7383980718391761
 50
358.7989042147398777
 51
4.606274206277976
  0
ARC
  5
E226
  8
0
 10
4134.2615591313060577
 20
503.254518536293574
 30
0.0
 40
0.0521387250157786
 50
90.5585976500798893
 51
118.0844527818275935
  0
ARC
  5
E227
  8
0
 10
4134.2757477016120902
 20
503.2286161646172218
 30
0.0
 40
0.081671443291457
 50
118.3116174755405012
 51
140.9575132760610074
  0
ARC
  5
E228
  8
0
 10
4134.2950057984553496
 20
503.2122292142847755
 30
0.0
 40
0.1069525520261289
 50
140.6378019099558117
 51
157.2201556266439866
  0
ARC
  5
E229
  8
0
 10
4134.2961972971861542
 20
503.2111126815228204
 30
0.0
 40
0.1084849124067635
 50
156.9201125439610109
 51
176.1053741959169088
  0
ARC
  5
E22A
  8
0
 10
4134.270955363160283
 20
503.2124597341173171
 30
0.0
 40
0.083210601611472
 50
175.8502374957568009
 51
196.7333592306227956
  0
ARC
  5
E22B
  8
0
 10
4134.2432533852470442
 20
503.2039329837459718
 30
0.0
 40
0.0542269892874486
 50
196.5328353906359098
 51
221.8419058472138943
  0
ARC
  5
E22C
  8
0
 10
4134.2330900293281957
 20
503.1951685287069722
 30
0.0
 40
0.0408096047874715
 50
222.1933656786835911
 51
248.3859919735803032
  0
ARC
  5
E22D
  8
0
 10
4134.2598290972609902
 20
503.2654314911861206
 30
0.0
 40
0.0414963608905312
 50
37.7399772915601233
 51
68.2245425556391751
  0
ARC
  5
E22E
  8
0
 10
4134.2446348655867041
 20
503.2544745485739099
 30
0.0
 40
0.0602217741688577
 50
12.5139919343032293
 51
37.1354802286475589
  0
ARC
  5
E22F
  8
0
 10
4134.2122959974367404
 20
503.2479240004706753
 30
0.0
 40
0.0932137419622359
 50
344.6578061932191872
 51
12.1376910397820108
  0
ARC
  5
E230
  8
0
 10
4134.2233083821220134
 20
503.242581636235002
 30
0.0
 40
0.0812051111563901
 50
346.7144584721875731
 51
7.6201701522734178
  0
ARC
  5
E231
  8
0
 10
4134.2553744994193039
 20
503.2483405222208148
 30
0.0
 40
0.048680289039118
 50
5.9063585681619291
 51
47.9396496757897523
  0
ARC
  5
E232
  8
0
 10
4134.2662913814883723
 20
503.2579944010714144
 30
0.0
 40
0.0342387033006256
 50
50.6815374912590784
 51
100.9814274313129943
  0
ARC
  5
E233
  8
0
 10
4134.2711505540610233
 20
503.2369749671324826
 30
0.0
 40
0.0558041377478167
 50
101.7681199418617979
 51
135.0647401785471118
  0
ARC
  5
E234
  8
0
 10
4134.2966299356139643
 20
503.2109150185012822
 30
0.0
 40
0.0922485663898545
 50
134.7841861421391911
 51
166.1874837565027008
  0
ARC
  5
E235
  8
0
 10
4134.2815971578820609
 20
503.2129595749054829
 30
0.0
 40
0.0771790362996975
 50
164.9969425830354055
 51
195.0158678780844923
  0
ARC
  5
E236
  8
0
 10
4134.247300324122989
 20
503.2027332981003269
 30
0.0
 40
0.0414156716367306
 50
193.644418861501606
 51
241.1520341501091877
  0
ARC
  5
E237
  8
0
 10
4134.2426607723109555
 20
503.1974968680684128
 30
0.0
 40
0.0346246860830661
 50
243.6967231300328933
 51
278.9339658655709968
  0
ARC
  5
E238
  8
0
 10
4134.2400701099595608
 20
503.2122954387721734
 30
0.0
 40
0.0496467262357222
 50
279.2352636574336202
 51
303.2882570093502181
  0
ARC
  5
E239
  8
0
 10
4134.2277823522308609
 20
503.2311714678953081
 30
0.0
 40
0.0721697826595519
 50
303.2179520213122146
 51
320.7992052385226884
  0
ARC
  5
E23A
  8
0
 10
4134.215723400531715
 20
503.2415136824528759
 30
0.0
 40
0.0880522651152951
 50
320.5436014846205808
 51
330.2612297316226204
  0
ARC
  5
E23B
  8
0
 10
4134.2308337120903161
 20
503.2106891520891168
 30
0.0
 40
0.0561660286579107
 50
271.4244404126682753
 51
305.6055392433261773
  0
ARC
  5
E23C
  8
0
 10
4134.2105645735728103
 20
503.2401759039905187
 30
0.0
 40
0.0919433644544816
 50
305.1770962309930155
 51
332.5804094182142876
  0
ARC
  5
E23D
  8
0
 10
4133.9945702995000829
 20
503.2045532563623169
 30
0.0
 40
0.1115601057992128
 50
150.4852485876319008
 51
170.0923154463185938
  0
ARC
  5
E23E
  8
0
 10
4133.9447829329956221
 20
503.2332993069933877
 30
0.0
 40
0.0540742298334373
 50
127.1373681410231029
 51
151.002345579219309
  0
ARC
  5
E23F
  8
0
 10
4133.9124787150949487
 20
503.2773737764696875
 30
0.0
 40
0.1564551502154732
 50
68.7036029142513485
 51
97.309533203317244
  0
ARC
  5
E240
  8
0
 10
4133.9168991389396979
 20
503.2644926117328055
 30
0.0
 40
0.1698162399021817
 50
98.2359470368460848
 51
136.1693265726555069
  0
ARC
  5
E241
  8
0
 10
4133.9617731461876247
 20
503.2202505507852948
 30
0.0
 40
0.2328283247448755
 50
135.962813388114597
 51
160.2018028699559125
  0
ARC
  5
E242
  8
0
 10
4131.8968692426360576
 20
503.3394801880460818
 30
0.0
 40
1.9978730675695311
 50
2.6702727073126602
 51
6.9310865211386528
  0
ARC
  5
E243
  8
0
 10
4133.1456274232086798
 20
503.4996828307827741
 30
0.0
 40
0.7389553034644142
 50
6.2846206972826009
 51
15.3970442004989998
  0
ARC
  5
E244
  8
0
 10
4133.7273404405532347
 20
503.6627011455346974
 30
0.0
 40
0.1348654954567197
 50
14.2418682597141899
 51
33.2416545555585969
  0
ARC
  5
E245
  8
0
 10
4133.8164799178093745
 20
503.7205963241896143
 30
0.0
 40
0.02857920520352
 50
34.1281227597659793
 51
60.729660425703031
  0
ARC
  5
E246
  8
0
 10
4133.8243910167493596
 20
503.7339948924372948
 30
0.0
 40
0.0130280553933913
 50
62.2693443879360515
 51
100.5035552616625978
  0
ARC
  5
E247
  8
0
 10
4133.8260520095063839
 20
503.7288519972149174
 30
0.0
 40
0.0184007210387118
 50
102.6701049931799048
 51
132.4725895192540861
  0
ARC
  5
E248
  8
0
 10
4133.8535977034944153
 20
503.6996739110796852
 30
0.0
 40
0.0585256113684089
 50
133.0752461064340935
 51
153.6053375779816008
  0
ARC
  5
E249
  8
0
 10
4134.0244832398111612
 20
503.6126090238037136
 30
0.0
 40
0.2503098806187
 50
153.1426838633132093
 51
166.3666352253642913
  0
ARC
  5
E24A
  8
0
 10
4134.851150603071801
 20
503.4039608177617993
 30
0.0
 40
1.1028934701974
 50
165.9553326545322136
 51
174.8766320008452055
  0
ARC
  5
E24B
  8
0
 10
4135.7589299253577337
 20
503.302299422351382
 30
0.0
 40
2.0162254742987948
 50
174.3028744124744946
 51
180.0905940344366911
  0
ARC
  5
E24C
  8
0
 10
4135.3812440654437523
 20
503.2936973168431791
 30
0.0
 40
1.638546038786546
 50
179.81068155930231
 51
187.0307286251315873
  0
ARC
  5
E24D
  8
0
 10
4134.5544460754363172
 20
503.1934606574387772
 30
0.0
 40
0.8056977343271832
 50
187.1529360055403117
 51
193.9974639676908907
  0
ARC
  5
E24E
  8
0
 10
4134.0564879532648774
 20
503.0665639095545885
 30
0.0
 40
0.2918444473204562
 50
193.470693630935699
 51
205.9467775631675011
  0
ARC
  5
E24F
  8
0
 10
4133.856850254436722
 20
502.9674972029765172
 30
0.0
 40
0.0690065429326199
 50
204.5084099284632941
 51
228.3105540087670136
  0
ARC
  5
E250
  8
0
 10
4133.8265115409094506
 20
502.9336402689656893
 30
0.0
 40
0.0235458576837839
 50
228.6457665746137025
 51
255.3241378514483984
  0
ARC
  5
E251
  8
0
 10
4133.8244626309133309
 20
502.9264949720244999
 30
0.0
 40
0.016115502656858
 50
255.9349513747195033
 51
272.9946061722603758
  0
ARC
  5
E252
  8
0
 10
4133.8240742277448589
 20
502.9285745782312915
 30
0.0
 40
0.0182147004245211
 50
273.8729809768939276
 51
299.5431365916974755
  0
ARC
  5
E253
  8
0
 10
4133.8100825623851051
 20
502.9487355346290087
 30
0.0
 40
0.0427117542769331
 50
302.5380811765144244
 51
330.252296413733518
  0
ARC
  5
E254
  8
0
 10
4133.6854481413656686
 20
503.0193060863957726
 30
0.0
 40
0.1859383819585253
 50
330.4281380140486135
 51
345.7109109409785788
  0
ARC
  5
E255
  8
0
 10
4133.2623234407974451
 20
503.1337564038590244
 30
0.0
 40
0.6242543575479481
 50
345.1164933827087111
 51
352.27582236871541
  0
ARC
  5
E256
  8
0
 10
4132.470026071949178
 20
503.243342206605007
 30
0.0
 40
1.4240932348749631
 50
352.191201018046911
 51
356.5778474732716177
  0
ARC
  5
E257
  8
0
 10
4131.6983302848002495
 20
503.292761194775494
 30
0.0
 40
2.1973653143704128
 50
356.4926728962547031
 51
359.0313644427076269
  0
ARC
  5
E258
  8
0
 10
4134.0468818188783189
 20
507.4962224069886929
 30
0.0
 40
0.0196905819707774
 50
295.0102728887626995
 51
359.9897258891649017
  0
ARC
  5
E259
  8
0
 10
4130.1047961627318728
 20
507.8994533608299093
 30
0.0
 40
0.031485516515816
 50
178.6896271236367113
 51
266.7944052051590802
  0
LINE
  5
E25B
  8
0
 10
4134.0469037211078103
 20
507.0909794642313955
 30
0.0
 11
4132.4326342288450178
 21
507.0909794642313955
 31
0.0
  0
ENDSEC
  0
EOF
