  0
SECTION
  2
HEADER
  9
$ACADVER
  1
AC1009
  9
$INSBASE
 10
4136.5418751655734013
 20
503.0795817556314091
 30
0.0
  9
$EXTMIN
 10
4135.6168423382241599
 20
499.2804565919498145
 30
0.0
  9
$EXTMAX
 10
4137.6280285170214484
 20
504.1453594596923153
 30
0.0
  9
$LIMMIN
 10
0.0
 20
0.0
  9
$LIMMAX
 10
11.6929133858000007
 20
8.2677165353999982
  9
$ORTHOMODE
 70
     0
  9
$REGENMODE
 70
     1
  9
$FILLMODE
 70
     1
  9
$QTEXTMODE
 70
     0
  9
$MIRRTEXT
 70
     0
  9
$DRAGMODE
 70
     2
  9
$LTSCALE
 40
0.6431102362
  9
$OSMODE
 70
  4095
  9
$ATTMODE
 70
     1
  9
$TEXTSIZE
 40
0.2
  9
$TRACEWID
 40
0.05
  9
$TEXTSTYLE
  7
STANDARD
  9
$CLAYER
  8
0
  9
$CELTYPE
  6
BYLAYER
  9
$CECOLOR
 62
   256
  9
$DIMSCALE
 40
1.0
  9
$DIMASZ
 40
0.1875
  9
$DIMEXO
 40
0.0625
  9
$DIMDLI
 40
0.4443307087
  9
$DIMRND
 40
0.0
  9
$DIMDLE
 40
0.0
  9
$DIMEXE
 40
0.125
  9
$DIMTP
 40
0.01
  9
$DIMTM
 40
0.01
  9
$DIMTXT
 40
2.0
  9
$DIMCEN
 40
0.1052362205
  9
$DIMTSZ
 40
0.0
  9
$DIMTOL
 70
     1
  9
$DIMLIM
 70
     0
  9
$DIMTIH
 70
     1
  9
$DIMTOH
 70
     1
  9
$DIMSE1
 70
     0
  9
$DIMSE2
 70
     0
  9
$DIMTAD
 70
     0
  9
$DIMZIN
 70
     0
  9
$DIMBLK
  1

  9
$DIMASO
 70
     1
  9
$DIMSHO
 70
     1
  9
$DIMPOST
  1
\X
  9
$DIMAPOST
  1

  9
$DIMALT
 70
     1
  9
$DIMALTD
 70
     2
  9
$DIMALTF
 40
25.3999999999999986
  9
$DIMLFAC
 40
1.0
  9
$DIMTOFL
 70
     0
  9
$DIMTVP
 40
0.0
  9
$DIMTIX
 70
     0
  9
$DIMSOXD
 70
     0
  9
$DIMSAH
 70
     0
  9
$DIMBLK1
  1

  9
$DIMBLK2
  1

  9
$DIMSTYLE
  2
STANDARD
  9
$DIMCLRD
 70
     0
  9
$DIMCLRE
 70
     0
  9
$DIMCLRT
 70
     0
  9
$DIMTFAC
 40
1.0
  9
$DIMGAP
 40
0.09
  9
$LUNITS
 70
     2
  9
$LUPREC
 70
     4
  9
$SKETCHINC
 40
0.1
  9
$FILLETRAD
 40
0.0
  9
$AUNITS
 70
     0
  9
$AUPREC
 70
     0
  9
$MENU
  1
.
  9
$ELEVATION
 40
0.0
  9
$PELEVATION
 40
0.0
  9
$THICKNESS
 40
0.0
  9
$LIMCHECK
 70
     0
  9
$BLIPMODE
 70
     0
  9
$CHAMFERA
 40
0.0
  9
$CHAMFERB
 40
0.0
  9
$SKPOLY
 70
     0
  9
$TDCREATE
 40
2458060.468368056230247
  9
$TDUPDATE
 40
2459857.4191782409325242
  9
$TDINDWG
 40
0.5161413194
  9
$TDUSRTIMER
 40
0.5161413194
  9
$USRTIMER
 70
     1
  9
$ANGBASE
 50
0.0
  9
$ANGDIR
 70
     0
  9
$PDMODE
 70
     0
  9
$PDSIZE
 40
0.3125
  9
$PLINEWID
 40
0.0
  9
$COORDS
 70
     1
  9
$SPLFRAME
 70
     0
  9
$SPLINETYPE
 70
     6
  9
$SPLINESEGS
 70
     8
  9
$ATTDIA
 70
     1
  9
$ATTREQ
 70
     1
  9
$HANDLING
 70
     1
  9
$HANDSEED
  5
E22C
  9
$SURFTAB1
 70
     6
  9
$SURFTAB2
 70
     6
  9
$SURFTYPE
 70
     6
  9
$SURFU
 70
     6
  9
$SURFV
 70
     6
  9
$UCSNAME
  2

  9
$UCSORG
 10
0.0
 20
0.0
 30
0.0
  9
$UCSXDIR
 10
1.0
 20
0.0
 30
0.0
  9
$UCSYDIR
 10
0.0
 20
1.0
 30
0.0
  9
$PUCSNAME
  2

  9
$PUCSORG
 10
0.0
 20
0.0
 30
0.0
  9
$PUCSXDIR
 10
1.0
 20
0.0
 30
0.0
  9
$PUCSYDIR
 10
0.0
 20
1.0
 30
0.0
  9
$USERI1
 70
     0
  9
$USERI2
 70
     0
  9
$USERI3
 70
     0
  9
$USERI4
 70
     0
  9
$USERI5
 70
     0
  9
$USERR1
 40
0.0
  9
$USERR2
 40
0.0
  9
$USERR3
 40
0.0
  9
$USERR4
 40
0.0
  9
$USERR5
 40
0.0
  9
$WORLDVIEW
 70
     1
  9
$SHADEDGE
 70
     3
  9
$SHADEDIF
 70
    70
  9
$TILEMODE
 70
     1
  9
$MAXACTVP
 70
    64
  9
$PLIMCHECK
 70
     0
  9
$PEXTMIN
 10
1.0000000000000000E+20
 20
1.0000000000000000E+20
 30
1.0000000000000000E+20
  9
$PEXTMAX
 10
-1.0000000000000000E+20
 20
-1.0000000000000000E+20
 30
-1.0000000000000000E+20
  9
$PLIMMIN
 10
0.0
 20
0.0
  9
$PLIMMAX
 10
12.0
 20
9.0
  9
$UNITMODE
 70
     0
  9
$VISRETAIN
 70
     1
  9
$PLINEGEN
 70
     0
  9
$PSLTSCALE
 70
     1
  0
ENDSEC
  0
SECTION
  2
TABLES
  0
TABLE
  2
VPORT
 70
     1
  0
VPORT
  2
*ACTIVE
 70
     0
 10
0.0
 20
0.0
 11
1.0
 21
1.0
 12
-6.623902463002195
 22
6.0073629683442666
 13
0.0
 23
0.0
 14
1.0
 24
1.0
 15
0.0
 25
0.0
 16
0.0
 26
0.0
 36
17.5184077848218287
 17
4143.246337890625
 27
495.7055450574767974
 37
0.0
 40
4.8997351078456681
 41
2.2831541218637992
 42
50.0
 43
0.0
 44
0.0
 50
0.0
 51
0.0
 71
     0
 72
   100
 73
     1
 74
     1
 75
     0
 76
     0
 77
     0
 78
     0
  0
ENDTAB
  0
TABLE
  2
LTYPE
 70
     2
  0
LTYPE
  2
CONTINUOUS
 70
     0
  3
Solid line
 72
    65
 73
     0
 40
0.0
  0
LTYPE
  2
PHANTOM2
 70
     0
  3
___ _ _ ___ _ _ ___ _ _ ___ _ _
 72
    65
 73
     6
 40
1.25
 49
0.625
 49
-0.125
 49
0.125
 49
-0.125
 49
0.125
 49
-0.125
  0
ENDTAB
  0
TABLE
  2
LAYER
 70
     2
  0
LAYER
  2
0
 70
     0
 62
   255
  6
CONTINUOUS
  0
LAYER
  2
DEFPOINTS
 70
     0
 62
     7
  6
CONTINUOUS
  0
ENDTAB
  0
TABLE
  2
STYLE
 70
     1
  0
STYLE
  2
STANDARD
 70
     0
 40
0.0
 41
0.8
 50
0.0
 71
     0
 42
0.2
  3
txt
  4

  0
ENDTAB
  0
TABLE
  2
VIEW
 70
     0
  0
ENDTAB
  0
TABLE
  2
UCS
 70
     0
  0
ENDTAB
  0
TABLE
  2
APPID
 70
     9
  0
APPID
  2
ACAD
 70
     0
  0
APPID
  2
ACAD_MLEADERVER
 70
     0
  0
APPID
  2
ACAD_EXEMPT_FROM_CAD_STANDARDS
 70
     0
  0
APPID
  2
ACAD_NAV_VCDISPLAY
 70
     0
  0
APPID
  2
ACAECLAYERSTANDARD
 70
     0
  0
APPID
  2
ACCMTRANSPARENCY
 70
     0
  0
APPID
  2
ACAD_DSTYLE_DIMJAG
 70
     0
  0
APPID
  2
ACAD_DSTYLE_DIMTALN
 70
     0
  0
APPID
  2
ACDBATTR
 70
     0
  0
ENDTAB
  0
TABLE
  2
DIMSTYLE
 70
     1
  0
DIMSTYLE
  2
STANDARD
 70
     0
  3

  4

  5

  6

  7

 40
1.0
 41
0.1875
 42
0.0625
 43
0.38
 44
0.125
 45
0.0
 46
0.0
 47
0.01
 48
0.01
140
0.15625
141
0.09
142
0.0
143
25.3999999999999986
144
1.0
145
0.0
146
1.0
147
0.09
 71
     1
 72
     0
 73
     1
 74
     1
 75
     0
 76
     0
 77
     0
 78
     4
170
     0
171
     2
172
     0
173
     0
174
     0
175
     0
176
     0
177
     0
178
     0
  0
ENDTAB
  0
ENDSEC
  0
SECTION
  2
BLOCKS
  0
BLOCK
  8
0
  2
$MODEL_SPACE
 70
     0
 10
0.0
 20
0.0
 30
0.0
  3
$MODEL_SPACE
  1

  0
ENDBLK
  5
21
  8
0
  0
BLOCK
 67
     1
  8
0
  2
$PAPER_SPACE
 70
     0
 10
0.0
 20
0.0
 30
0.0
  3
$PAPER_SPACE
  1

  0
ENDBLK
  5
1D
 67
     1
  8
0
  0
ENDSEC
  0
SECTION
  2
ENTITIES
  0
ATTDEF
  5
DD3E
  8
DEFPOINTS
 10
4136.5418570460933552
 20
503.0784945313412777
 30
0.0
 40
0.001
  1
K-74030BR-4
  3

  2
MODELNUMBER
 70
     0
1001
ACDBATTR
1070
     0
1070
     1
  0
ATTDEF
  5
DD3F
  8
DEFPOINTS
 10
4136.5418570460933552
 20
503.0768278646744989
 30
0.0
 40
0.001
  1
TAUT
  3

  2
TRADENAME
 70
     0
1001
ACDBATTR
1070
     0
1070
     1
  0
ATTDEF
  5
DD40
  8
DEFPOINTS
 10
4136.5418570460933552
 20
503.0751611980078906
 30
0.0
 40
0.001
  1
BIDET FAUCET
  3

  2
PRODUCT
 70
     0
1001
ACDBATTR
1070
     0
1070
     1
  0
LINE
  5
DF70
  8
0
 10
4136.1481743781732803
 20
499.2804565919498145
 30
0.0
 11
4136.9355759529744319
 21
499.2804565919498145
 31
0.0
  0
LINE
  5
DF71
  8
0
 10
4135.9785940377232691
 20
499.9131708409497037
 30
0.0
 11
4137.105156293422624
 21
499.9131708409497037
 31
0.0
  0
LINE
  5
DF72
  8
0
 10
4137.0674007890338544
 20
503.7172383567723841
 30
0.0
 11
4137.5177671090095828
 21
504.1436686945497172
 31
0.0
  0
LINE
  5
DF73
  8
0
 10
4137.1792136742087678
 20
503.6062353624935213
 30
0.0
 11
4137.6260422384111735
 21
504.02931596844968
 31
0.0
  0
LINE
  5
DF74
  8
0
 10
4135.7167030759092086
 20
503.0321226914496719
 30
0.0
 11
4135.9001604475097338
 21
499.9871754701497935
 31
0.0
  0
LINE
  5
DF75
  8
0
 10
4136.1481743781732803
 20
499.9131708409497037
 30
0.0
 11
4136.1481743781732803
 21
499.2804565919498145
 31
0.0
  0
LINE
  5
DF76
  8
0
 10
4136.5420392159103358
 20
504.0048660407497891
 30
0.0
 11
4136.5420392153100693
 21
504.0048660403497252
 31
0.0
  0
LINE
  5
DF77
  8
0
 10
4136.9355759529744319
 20
499.9131708409497037
 30
0.0
 11
4136.9355759529744319
 21
499.2804565919498145
 31
0.0
  0
LINE
  5
DF78
  8
0
 10
4137.1839179859098294
 20
499.9871754998497977
 30
0.0
 11
4137.3673753623106677
 21
503.0321227999497751
 31
0.0
  0
LINE
  5
DF79
  8
0
 10
4137.6278926019103892
 20
504.0507013449498004
 30
0.0
 11
4137.6280263098633441
 21
504.0351722058244945
 31
0.0
  0
LINE
  5
DF7A
  8
0
 10
4137.5392215863103047
 20
504.144349557749706
 30
0.0
 11
4137.5237075997110878
 21
504.1453312724497096
 31
0.0
  0
ARC
  5
DF7B
  8
0
 10
4135.9787380130801466
 20
499.9918895532176748
 30
0.0
 40
0.0787188439322052
 50
183.4332156013913959
 51
269.8952069861762766
  0
ARC
  5
DF7C
  8
0
 10
4136.5349209409232571
 20
503.0822344780311255
 30
0.0
 40
0.8251537497973908
 50
184.9135310968748058
 51
190.0083145887363116
  0
ARC
  5
DF7D
  8
0
 10
4136.526404596210341
 20
503.0784193435497968
 30
0.0
 40
0.8165450884
 50
171.8592347093010062
 51
175.7794629283012
  0
ARC
  5
DF7E
  8
0
 10
4136.5074113528226007
 20
503.0795801351429191
 30
0.0
 40
0.7975179585486443
 50
175.762208001380003
 51
184.8928166315440933
  0
ARC
  5
DF7F
  8
0
 10
4136.5615366731772156
 20
503.0808511852865763
 30
0.0
 40
0.8127006434402705
 50
349.9496094283231855
 51
356.6240526065910785
  0
ARC
  5
DF80
  8
0
 10
4137.1053402694451506
 20
499.9918896229145275
 30
0.0
 40
0.07871899695234
 50
269.8660925623124172
 51
356.566761916280484
  0
ARC
  5
DF81
  8
0
 10
4136.5545052436800688
 20
503.0739899765785026
 30
0.0
 40
0.8449898905280011
 50
135.3840292718928993
 51
171.8317375347579912
  0
ARC
  5
DF82
  8
0
 10
4136.5467583136342
 20
503.0683724970460275
 30
0.0
 40
0.8434736604857167
 50
97.1430378922254931
 51
134.7427884993915086
  0
ARC
  5
DF83
  8
0
 10
4136.5367750317946047
 20
503.0658178388150077
 30
0.0
 40
0.8460314408847169
 50
50.7834684320498724
 51
82.863878099827474
  0
ARC
  5
DF84
  8
0
 10
4136.53452078816008
 20
503.0793136145866811
 30
0.0
 40
0.9176784499360163
 50
152.8487524570595895
 51
210.2383729304604003
  0
ARC
  5
DF85
  8
0
 10
4136.5437761835883066
 20
503.0786410229707144
 30
0.0
 40
0.9262279722969523
 50
96.316862813542528
 51
153.0730015611509884
  0
ARC
  5
DF86
  8
0
 10
4136.536296406470683
 20
503.0646268948901252
 30
0.0
 40
0.9402551044398499
 50
50.076594933839182
 51
83.5533585280823985
  0
ARC
  5
DF87
  8
0
 10
4136.530430270882789
 20
503.0757263990279853
 30
0.0
 40
0.8434798940645871
 50
357.0959979375219859
 51
39.299556732165108
  0
ARC
  5
DF88
  8
0
 10
4136.5397119176795968
 20
503.0802883739804088
 30
0.0
 40
0.8244170586575986
 50
123.5173599621585936
 51
183.3493517401755923
  0
ARC
  5
DF89
  8
0
 10
4136.5462907158671442
 20
503.0688418829627153
 30
0.0
 40
0.8375933716174914
 50
97.1612320151783564
 51
123.4601890794166934
  0
ARC
  5
DF8A
  8
0
 10
4136.537371019299826
 20
503.069414061332111
 30
0.0
 40
0.8370232222392286
 50
50.7110323408134178
 51
82.8278128484879943
  0
ARC
  5
DF8B
  8
0
 10
4136.6055253153135709
 20
503.1401771455933272
 30
0.0
 40
0.7391404431312641
 50
39.0900341145272705
 51
51.3264813147089001
  0
ARC
  5
DF8C
  8
0
 10
4136.5640957621244524
 20
503.0927978994591854
 30
0.0
 40
0.8012415829300124
 50
15.1231702101878493
 51
39.8516723251903926
  0
ARC
  5
DF8D
  8
0
 10
4136.5614152095931786
 20
503.0796150893942809
 30
0.0
 40
0.8073582137596343
 50
356.6276685432039244
 51
15.9767153383044107
  0
ARC
  5
DF8E
  8
0
 10
4136.5432417034080572
 20
503.0803620638719167
 30
0.0
 40
0.9236662895148235
 50
329.9026844028575738
 51
39.9974848636592171
  0
ARC
  5
DF8F
  8
0
 10
4137.5814196556520983
 20
504.0443826600885018
 30
0.0
 40
0.0469005385071405
 50
7.742730372822443
 51
33.0303245437990896
  0
ARC
  5
DF90
  8
0
 10
4137.4518616677660248
 20
503.9683485939208936
 30
0.0
 40
0.1970844346477487
 50
31.031464628141471
 51
42.9987691418263225
  0
ARC
  5
DF91
  8
0
 10
4137.434326207840968
 20
503.9580651511461156
 30
0.0
 40
0.2169678360753694
 50
41.8267503755459416
 51
53.6595399391231922
  0
ARC
  5
DF92
  8
0
 10
4137.506826820286733
 20
504.0566284706475813
 30
0.0
 40
0.0946115258692606
 50
53.6553654222422409
 51
63.4586536804305013
  0
ARC
  5
DF93
  8
0
 10
4137.5358577566648819
 20
504.1161687533369218
 30
0.0
 40
0.0283808577607769
 50
62.1791000112615109
 51
83.1930396404642636
  0
ARC
  5
DF94
  8
0
 10
4137.6217664532850904
 20
504.0336678354811966
 30
0.0
 40
0.006100908546328
 50
314.494757195594616
 51
346.5652890644180957
  0
ARC
  5
DF95
  8
0
 10
4137.6167645574441849
 20
504.0349492309414927
 30
0.0
 40
0.0112639595770541
 50
346.1369688701420273
 51
1.1342684746049621
  0
ARC
  5
DF96
  8
0
 10
4137.5988709348512202
 20
504.0335836219692851
 30
0.0
 40
0.0292110421115709
 50
3.6050758402570242
 51
19.493088495464221
  0
ARC
  5
DF97
  8
0
 10
4137.5228752368029745
 20
504.0036635455606984
 30
0.0
 40
0.1108714543684621
 50
20.9639273328818199
 51
35.11952613968527
  0
ARC
  5
DF98
  8
0
 10
4137.3806647145001989
 20
503.9057653274022073
 30
0.0
 40
0.2835176714616819
 50
34.7688525832312294
 51
47.4086844877710618
  0
ARC
  5
DF99
  8
0
 10
4137.4455478897962166
 20
503.9815074240007107
 30
0.0
 40
0.1838789139576173
 50
46.3203476396778484
 51
58.9648796544054932
  0
ARC
  5
DF9A
  8
0
 10
4137.5127686211617402
 20
504.0936619154334153
 30
0.0
 40
0.0531231029551335
 50
58.7226699721711327
 51
73.3899535813128097
  0
ARC
  5
DF9B
  8
0
 10
4137.522089038685408
 20
504.1241225004695252
 30
0.0
 40
0.0212704430772869
 50
73.9937434541670171
 51
85.6358949359591435
  0
ARC
  5
DF9C
  8
0
 10
4137.5228804488397145
 20
504.1332090501472862
 30
0.0
 40
0.0121504095449869
 50
86.0965154722121753
 51
96.3050290981017696
  0
ARC
  5
DF9D
  8
0
 10
4137.5220471293741866
 20
504.1388915274096121
 30
0.0
 40
0.0064140393043002
 50
94.4804458684475321
 51
131.8582016284422878
  0
ARC
  5
DF9F
  8
0
 10
4136.5418232910933511
 20
503.1373255951493775
 30
0.0
 40
0.7690979178204573
 50
82.5252455194038674
 51
97.4670254549708659
  0
ARC
  5
DFA0
  8
0
 10
4136.5418596546296612
 20
503.143361773354286
 30
0.0
 40
0.7684702230325068
 50
82.5218164118587936
 51
97.4758706511528459
  0
ARC
  5
DFA1
  8
0
 10
4136.5405335944060425
 20
503.1362139298009879
 30
0.0
 40
0.8686534140987937
 50
83.300915326824736
 51
96.5221063869149418
  0
ENDSEC
  0
EOF
