  0
SECTION
  2
HEADER
  9
$ACADVER
  1
AC1009
  9
$INSBASE
 10
4139.4755254991550828
 20
499.8316074245033178
 30
0.0
  9
$EXTMIN
 10
4138.5504926718049319
 20
499.827111594461087
 30
0.0
  9
$EXTMAX
 10
4140.5616788506031298
 20
506.0718063966774025
 30
0.0
  9
$LIMMIN
 10
0.0
 20
0.0
  9
$LIMMAX
 10
11.6929133858000007
 20
8.2677165353999982
  9
$ORTHOMODE
 70
     0
  9
$REGENMODE
 70
     1
  9
$FILLMODE
 70
     1
  9
$QTEXTMODE
 70
     0
  9
$MIRRTEXT
 70
     0
  9
$DRAGMODE
 70
     2
  9
$LTSCALE
 40
0.6431102362
  9
$OSMODE
 70
  4095
  9
$ATTMODE
 70
     1
  9
$TEXTSIZE
 40
0.2
  9
$TRACEWID
 40
0.05
  9
$TEXTSTYLE
  7
STANDARD
  9
$CLAYER
  8
0
  9
$CELTYPE
  6
BYLAYER
  9
$CECOLOR
 62
   256
  9
$DIMSCALE
 40
1.0
  9
$DIMASZ
 40
0.1875
  9
$DIMEXO
 40
0.0625
  9
$DIMDLI
 40
0.4443307087
  9
$DIMRND
 40
0.0
  9
$DIMDLE
 40
0.0
  9
$DIMEXE
 40
0.125
  9
$DIMTP
 40
0.01
  9
$DIMTM
 40
0.01
  9
$DIMTXT
 40
2.0
  9
$DIMCEN
 40
0.1052362205
  9
$DIMTSZ
 40
0.0
  9
$DIMTOL
 70
     1
  9
$DIMLIM
 70
     0
  9
$DIMTIH
 70
     1
  9
$DIMTOH
 70
     1
  9
$DIMSE1
 70
     0
  9
$DIMSE2
 70
     0
  9
$DIMTAD
 70
     0
  9
$DIMZIN
 70
     0
  9
$DIMBLK
  1

  9
$DIMASO
 70
     1
  9
$DIMSHO
 70
     1
  9
$DIMPOST
  1
\X
  9
$DIMAPOST
  1

  9
$DIMALT
 70
     1
  9
$DIMALTD
 70
     2
  9
$DIMALTF
 40
25.3999999999999986
  9
$DIMLFAC
 40
1.0
  9
$DIMTOFL
 70
     0
  9
$DIMTVP
 40
0.0
  9
$DIMTIX
 70
     0
  9
$DIMSOXD
 70
     0
  9
$DIMSAH
 70
     0
  9
$DIMBLK1
  1

  9
$DIMBLK2
  1

  9
$DIMSTYLE
  2
STANDARD
  9
$DIMCLRD
 70
     0
  9
$DIMCLRE
 70
     0
  9
$DIMCLRT
 70
     0
  9
$DIMTFAC
 40
1.0
  9
$DIMGAP
 40
0.09
  9
$LUNITS
 70
     2
  9
$LUPREC
 70
     4
  9
$SKETCHINC
 40
0.1
  9
$FILLETRAD
 40
0.0
  9
$AUNITS
 70
     0
  9
$AUPREC
 70
     0
  9
$MENU
  1
.
  9
$ELEVATION
 40
0.0
  9
$PELEVATION
 40
0.0
  9
$THICKNESS
 40
0.0
  9
$LIMCHECK
 70
     0
  9
$BLIPMODE
 70
     0
  9
$CHAMFERA
 40
0.0
  9
$CHAMFERB
 40
0.0
  9
$SKPOLY
 70
     0
  9
$TDCREATE
 40
2458060.468368056230247
  9
$TDUPDATE
 40
2459857.4193634260445833
  9
$TDINDWG
 40
0.5160255787
  9
$TDUSRTIMER
 40
0.5160255787
  9
$USRTIMER
 70
     1
  9
$ANGBASE
 50
0.0
  9
$ANGDIR
 70
     0
  9
$PDMODE
 70
     0
  9
$PDSIZE
 40
0.3125
  9
$PLINEWID
 40
0.0
  9
$COORDS
 70
     1
  9
$SPLFRAME
 70
     0
  9
$SPLINETYPE
 70
     6
  9
$SPLINESEGS
 70
     8
  9
$ATTDIA
 70
     1
  9
$ATTREQ
 70
     1
  9
$HANDLING
 70
     1
  9
$HANDSEED
  5
F573
  9
$SURFTAB1
 70
     6
  9
$SURFTAB2
 70
     6
  9
$SURFTYPE
 70
     6
  9
$SURFU
 70
     6
  9
$SURFV
 70
     6
  9
$UCSNAME
  2

  9
$UCSORG
 10
0.0
 20
0.0
 30
0.0
  9
$UCSXDIR
 10
1.0
 20
0.0
 30
0.0
  9
$UCSYDIR
 10
0.0
 20
1.0
 30
0.0
  9
$PUCSNAME
  2

  9
$PUCSORG
 10
0.0
 20
0.0
 30
0.0
  9
$PUCSXDIR
 10
1.0
 20
0.0
 30
0.0
  9
$PUCSYDIR
 10
0.0
 20
1.0
 30
0.0
  9
$USERI1
 70
     0
  9
$USERI2
 70
     0
  9
$USERI3
 70
     0
  9
$USERI4
 70
     0
  9
$USERI5
 70
     0
  9
$USERR1
 40
0.0
  9
$USERR2
 40
0.0
  9
$USERR3
 40
0.0
  9
$USERR4
 40
0.0
  9
$USERR5
 40
0.0
  9
$WORLDVIEW
 70
     1
  9
$SHADEDGE
 70
     3
  9
$SHADEDIF
 70
    70
  9
$TILEMODE
 70
     1
  9
$MAXACTVP
 70
    64
  9
$PLIMCHECK
 70
     0
  9
$PEXTMIN
 10
1.0000000000000000E+20
 20
1.0000000000000000E+20
 30
1.0000000000000000E+20
  9
$PEXTMAX
 10
-1.0000000000000000E+20
 20
-1.0000000000000000E+20
 30
-1.0000000000000000E+20
  9
$PLIMMIN
 10
0.0
 20
0.0
  9
$PLIMMAX
 10
12.0
 20
9.0
  9
$UNITMODE
 70
     0
  9
$VISRETAIN
 70
     1
  9
$PLINEGEN
 70
     0
  9
$PSLTSCALE
 70
     1
  0
ENDSEC
  0
SECTION
  2
TABLES
  0
TABLE
  2
VPORT
 70
     1
  0
VPORT
  2
*ACTIVE
 70
     0
 10
0.0
 20
0.0
 11
1.0
 21
1.0
 12
-3.6902521294205139
 22
7.2439139380924749
 13
0.0
 23
0.0
 14
1.0
 24
1.0
 15
0.0
 25
0.0
 16
0.0
 26
0.0
 36
17.5184077848218287
 17
4143.246337890625
 27
495.7055450574767974
 37
0.0
 40
6.2894062208479928
 41
2.2831541218637992
 42
50.0
 43
0.0
 44
0.0
 50
0.0
 51
0.0
 71
     0
 72
   100
 73
     1
 74
     1
 75
     0
 76
     0
 77
     0
 78
     0
  0
ENDTAB
  0
TABLE
  2
LTYPE
 70
     2
  0
LTYPE
  2
CONTINUOUS
 70
     0
  3
Solid line
 72
    65
 73
     0
 40
0.0
  0
LTYPE
  2
PHANTOM2
 70
     0
  3
___ _ _ ___ _ _ ___ _ _ ___ _ _
 72
    65
 73
     6
 40
1.25
 49
0.625
 49
-0.125
 49
0.125
 49
-0.125
 49
0.125
 49
-0.125
  0
ENDTAB
  0
TABLE
  2
LAYER
 70
     2
  0
LAYER
  2
0
 70
     0
 62
   255
  6
CONTINUOUS
  0
LAYER
  2
DEFPOINTS
 70
     0
 62
     7
  6
CONTINUOUS
  0
ENDTAB
  0
TABLE
  2
STYLE
 70
     1
  0
STYLE
  2
STANDARD
 70
     0
 40
0.0
 41
0.8
 50
0.0
 71
     0
 42
0.2
  3
txt
  4

  0
ENDTAB
  0
TABLE
  2
VIEW
 70
     0
  0
ENDTAB
  0
TABLE
  2
UCS
 70
     0
  0
ENDTAB
  0
TABLE
  2
APPID
 70
     9
  0
APPID
  2
ACAD
 70
     0
  0
APPID
  2
ACAD_MLEADERVER
 70
     0
  0
APPID
  2
ACAD_EXEMPT_FROM_CAD_STANDARDS
 70
     0
  0
APPID
  2
ACAD_NAV_VCDISPLAY
 70
     0
  0
APPID
  2
ACAECLAYERSTANDARD
 70
     0
  0
APPID
  2
ACCMTRANSPARENCY
 70
     0
  0
APPID
  2
ACAD_DSTYLE_DIMJAG
 70
     0
  0
APPID
  2
ACAD_DSTYLE_DIMTALN
 70
     0
  0
APPID
  2
ACDBATTR
 70
     0
  0
ENDTAB
  0
TABLE
  2
DIMSTYLE
 70
     1
  0
DIMSTYLE
  2
STANDARD
 70
     0
  3

  4

  5

  6

  7

 40
1.0
 41
0.1875
 42
0.0625
 43
0.38
 44
0.125
 45
0.0
 46
0.0
 47
0.01
 48
0.01
140
0.15625
141
0.09
142
0.0
143
25.3999999999999986
144
1.0
145
0.0
146
1.0
147
0.09
 71
     1
 72
     0
 73
     1
 74
     1
 75
     0
 76
     0
 77
     0
 78
     4
170
     0
171
     2
172
     0
173
     0
174
     0
175
     0
176
     0
177
     0
178
     0
  0
ENDTAB
  0
ENDSEC
  0
SECTION
  2
BLOCKS
  0
BLOCK
  8
0
  2
$MODEL_SPACE
 70
     0
 10
0.0
 20
0.0
 30
0.0
  3
$MODEL_SPACE
  1

  0
ENDBLK
  5
21
  8
0
  0
BLOCK
 67
     1
  8
0
  2
$PAPER_SPACE
 70
     0
 10
0.0
 20
0.0
 30
0.0
  3
$PAPER_SPACE
  1

  0
ENDBLK
  5
1D
 67
     1
  8
0
  0
ENDSEC
  0
SECTION
  2
ENTITIES
  0
ATTDEF
  5
3930
  8
DEFPOINTS
 10
4139.4755607417328065
 20
499.8304449277944173
 30
0.0
 40
0.001
  1
K-74030BR-4
  3

  2
MODELNUMBER
 70
     0
1001
ACDBATTR
1070
     0
1070
     1
  0
ATTDEF
  5
3931
  8
DEFPOINTS
 10
4139.4755607417328065
 20
499.8287782611276953
 30
0.0
 40
0.001
  1
TAUT
  3

  2
TRADENAME
 70
     0
1001
ACDBATTR
1070
     0
1070
     1
  0
ATTDEF
  5
3932
  8
DEFPOINTS
 10
4139.4755607417328065
 20
499.827111594461087
 30
0.0
 40
0.001
  1
BIDET FAUCET
  3

  2
PRODUCT
 70
     0
1001
ACDBATTR
1070
     0
1070
     1
  0
LINE
  5
EE17
  8
0
 10
4138.5504926718049319
 20
499.8316074245033178
 30
0.0
 11
4140.4005583265043242
 21
499.8316074245033178
 31
0.0
  0
LINE
  5
EE18
  8
0
 10
4140.3977833765929972
 20
499.8803661539989207
 30
0.0
 11
4138.5532676217171684
 21
499.8803663191075088
 31
0.0
  0
LINE
  5
EE19
  8
0
 10
4140.4783050731921321
 20
501.1729415637033185
 30
0.0
 11
4140.4911445582920351
 21
501.1707589914033179
 31
0.0
  0
LINE
  5
EE1A
  8
0
 10
4140.302453599092587
 20
501.237807463703291
 30
0.0
 11
4140.4783050730920877
 21
501.1729415637033185
 31
0.0
  0
LINE
  5
EE1B
  8
0
 10
4140.3024552578917792
 20
501.4056592429033117
 30
0.0
 11
4140.5328049413919871
 21
501.320690722603274
 31
0.0
  0
LINE
  5
EE1C
  8
0
 10
4138.8338107810923248
 20
506.0325808246033148
 30
0.0
 11
4138.8338107785912143
 21
505.9152188004031814
 31
0.0
  0
LINE
  5
EE1D
  8
0
 10
4139.2234461887546786
 20
503.9678278969033158
 30
0.0
 11
4139.235265958054697
 21
503.9883003378033095
 31
0.0
  0
LINE
  5
EE1E
  8
0
 10
4139.26742936865503
 20
504.0440089993031734
 30
0.0
 11
4139.2792491379550484
 21
504.0644814402032807
 31
0.0
  0
LINE
  5
EE1F
  8
0
 10
4139.2877730100562985
 20
504.0694027001031827
 30
0.0
 11
4139.2849317193540628
 21
504.0644814402032807
 31
0.0
  0
LINE
  5
EE20
  8
0
 10
4139.2437898301550376
 20
503.9932215977033252
 30
0.0
 11
4139.2409485394546209
 21
503.9883003378033095
 31
0.0
  0
LINE
  5
EE21
  8
0
 10
4139.2234461887546786
 20
503.9579853772032152
 30
0.0
 11
4139.2262874794550953
 21
503.962906637103174
 31
0.0
  0
LINE
  5
EE22
  8
0
 10
4139.26742936865503
 20
504.0341664796033001
 30
0.0
 11
4139.2702706593554467
 21
504.0390877394032145
 31
0.0
  0
LINE
  5
EE23
  8
0
 10
4139.2877730100562985
 20
504.0595601804031958
 30
0.0
 11
4139.2759532407553706
 21
504.0390877394032145
 31
0.0
  0
LINE
  5
EE24
  8
0
 10
4139.2437898301550376
 20
503.9833790780032814
 30
0.0
 11
4139.2319700608550193
 21
503.962906637103174
 31
0.0
  0
LINE
  5
EE25
  8
0
 10
4139.2234461887546786
 20
503.9170404953032971
 30
0.0
 11
4139.235265958054697
 21
503.9375129363032215
 31
0.0
  0
LINE
  5
EE26
  8
0
 10
4139.26742936865503
 20
503.9932215977033252
 30
0.0
 11
4139.2792491379550484
 21
504.0136940386033189
 31
0.0
  0
LINE
  5
EE27
  8
0
 10
4139.3114125486554258
 20
504.0694027001031827
 30
0.0
 11
4139.3232323179554442
 21
504.0898751410032901
 31
0.0
  0
LINE
  5
EE28
  8
0
 10
4139.2877730100562985
 20
504.0186152985032209
 30
0.0
 11
4139.2849317193540628
 21
504.0136940386033189
 31
0.0
  0
LINE
  5
EE29
  8
0
 10
4139.2437898301550376
 20
503.9424341961033065
 30
0.0
 11
4139.2409485394546209
 21
503.9375129363032215
 31
0.0
  0
LINE
  5
EE2A
  8
0
 10
4139.2234461887546786
 20
503.9071979756033102
 30
0.0
 11
4139.2262874794550953
 21
503.9121192355032122
 31
0.0
  0
LINE
  5
EE2B
  8
0
 10
4139.26742936865503
 20
503.9833790780032814
 30
0.0
 11
4139.2702706593554467
 21
503.9883003378033095
 31
0.0
  0
LINE
  5
EE2C
  8
0
 10
4139.3114125486554258
 20
504.0595601804031958
 30
0.0
 11
4139.3142538393540235
 21
504.0644814402032807
 31
0.0
  0
LINE
  5
EE2D
  8
0
 10
4139.3317561900548753
 20
504.0947964008033182
 30
0.0
 11
4139.3289149218553575
 21
504.089875178203215
 31
0.0
  0
LINE
  5
EE2E
  8
0
 10
4139.3317561900548753
 20
504.0849538812032051
 30
0.0
 11
4139.3199364207539475
 21
504.0644814402032807
 31
0.0
  0
LINE
  5
EE2F
  8
0
 10
4139.2877730100562985
 20
504.0087727788032907
 30
0.0
 11
4139.2759532407553706
 21
503.9883003378033095
 31
0.0
  0
LINE
  5
EE30
  8
0
 10
4139.2437898301550376
 20
503.9325916764032058
 30
0.0
 11
4139.2319700608550193
 21
503.9121192355032122
 31
0.0
  0
LINE
  5
EE31
  8
0
 10
4139.2234461887546786
 20
503.8662530938032091
 30
0.0
 11
4139.235265958054697
 21
503.8867255347033165
 31
0.0
  0
LINE
  5
EE32
  8
0
 10
4139.26742936865503
 20
503.9424341961033065
 30
0.0
 11
4139.2792491379550484
 21
503.962906637103174
 31
0.0
  0
LINE
  5
EE33
  8
0
 10
4139.3114125486554258
 20
504.0186152985032209
 30
0.0
 11
4139.3232323179554442
 21
504.0390877394032145
 31
0.0
  0
LINE
  5
EE34
  8
0
 10
4139.3553957285539582
 20
504.0947964008033182
 30
0.0
 11
4139.3672154978548861
 21
504.1152688418032994
 31
0.0
  0
LINE
  5
EE35
  8
0
 10
4139.3757393699552267
 20
504.1201901016032139
 30
0.0
 11
4139.3728980568539555
 21
504.1152688049032804
 31
0.0
  0
LINE
  5
EE36
  8
0
 10
4139.3317561900548753
 20
504.0440089993031734
 30
0.0
 11
4139.3289148993553681
 21
504.0390877394032145
 31
0.0
  0
LINE
  5
EE37
  8
0
 10
4139.2877730100562985
 20
503.9678278969033158
 30
0.0
 11
4139.2849317193540628
 21
503.962906637103174
 31
0.0
  0
LINE
  5
EE38
  8
0
 10
4139.2437898301550376
 20
503.8916467945032878
 30
0.0
 11
4139.2409485394546209
 21
503.8867255347033165
 31
0.0
  0
LINE
  5
EE39
  8
0
 10
4139.2234461887546786
 20
503.8564105741032222
 30
0.0
 11
4139.2262874794550953
 21
503.8613318339033071
 31
0.0
  0
LINE
  5
EE3A
  8
0
 10
4139.26742936865503
 20
503.9325916764032058
 30
0.0
 11
4139.2702706593554467
 21
503.9375129363032215
 31
0.0
  0
LINE
  5
EE3B
  8
0
 10
4139.3114125486554258
 20
504.0087727788032907
 30
0.0
 11
4139.3142538393540235
 21
504.0136940386033189
 31
0.0
  0
LINE
  5
EE3C
  8
0
 10
4139.3553957285539582
 20
504.0849538812032051
 30
0.0
 11
4139.3582370192552844
 21
504.0898751410032901
 31
0.0
  0
LINE
  5
EE3D
  8
0
 10
4139.3757393699552267
 20
504.1103475819032269
 30
0.0
 11
4139.3639196006552083
 21
504.0898751410032901
 31
0.0
  0
LINE
  5
EE3E
  8
0
 10
4139.3317561900548753
 20
504.0341664796033001
 30
0.0
 11
4139.3199364207539475
 21
504.0136940386033189
 31
0.0
  0
LINE
  5
EE3F
  8
0
 10
4139.2877730100562985
 20
503.9579853772032152
 30
0.0
 11
4139.2759532407553706
 21
503.9375129363032215
 31
0.0
  0
LINE
  5
EE40
  8
0
 10
4139.2437898301550376
 20
503.8818042749031747
 30
0.0
 11
4139.2319700608550193
 21
503.8613318339033071
 31
0.0
  0
LINE
  5
EE41
  8
0
 10
4139.2234461887546786
 20
503.8154656922031904
 30
0.0
 11
4139.235265958054697
 21
503.8359381331032978
 31
0.0
  0
LINE
  5
EE42
  8
0
 10
4139.26742936865503
 20
503.8916467945032878
 30
0.0
 11
4139.2792491379550484
 21
503.9121192355032122
 31
0.0
  0
LINE
  5
EE43
  8
0
 10
4139.3114125486554258
 20
503.9678278969033158
 30
0.0
 11
4139.3232323179554442
 21
503.9883003378033095
 31
0.0
  0
LINE
  5
EE44
  8
0
 10
4139.3553957285539582
 20
504.0440089993031734
 30
0.0
 11
4139.3672154978548861
 21
504.0644814402032807
 31
0.0
  0
LINE
  5
EE45
  8
0
 10
4139.399378908556173
 20
504.1201901016032139
 30
0.0
 11
4139.4111986778552819
 21
504.1406625426033088
 31
0.0
  0
LINE
  5
EE46
  8
0
 10
4139.4197225499556225
 20
504.1455838024032801
 30
0.0
 11
4139.4168812592552058
 21
504.1406625426033088
 31
0.0
  0
LINE
  5
EE47
  8
0
 10
4139.3757393699552267
 20
504.0694027001031827
 30
0.0
 11
4139.37289807925481
 21
504.0644814402032807
 31
0.0
  0
LINE
  5
EE48
  8
0
 10
4139.3317561900548753
 20
503.9932215977033252
 30
0.0
 11
4139.3289148993553681
 21
503.9883003378033095
 31
0.0
  0
LINE
  5
EE49
  8
0
 10
4139.2877730100562985
 20
503.9170404953032971
 30
0.0
 11
4139.2849317193540628
 21
503.9121192355032122
 31
0.0
  0
LINE
  5
EE4A
  8
0
 10
4139.2437898301550376
 20
503.8408593930033135
 30
0.0
 11
4139.2409485394546209
 21
503.8359381331032978
 31
0.0
  0
LINE
  5
EE4B
  8
0
 10
4139.2234461887546786
 20
503.8056231725033172
 30
0.0
 11
4139.2262874794550953
 21
503.8105444323032884
 31
0.0
  0
LINE
  5
EE4C
  8
0
 10
4139.26742936865503
 20
503.8818042749031747
 30
0.0
 11
4139.2702706593554467
 21
503.8867255347033165
 31
0.0
  0
LINE
  5
EE4D
  8
0
 10
4139.3114125486554258
 20
503.9579853772032152
 30
0.0
 11
4139.3142538393540235
 21
503.962906637103174
 31
0.0
  0
LINE
  5
EE4E
  8
0
 10
4139.3553957285539582
 20
504.0341664796033001
 30
0.0
 11
4139.3582370192552844
 21
504.0390877394032145
 31
0.0
  0
LINE
  5
EE4F
  8
0
 10
4139.399378908556173
 20
504.1103475819032269
 30
0.0
 11
4139.4022201992547707
 21
504.1152688418032994
 31
0.0
  0
LINE
  5
EE50
  8
0
 10
4139.4197225499556225
 20
504.1357412827031794
 30
0.0
 11
4139.4079027806546947
 21
504.1152688418032994
 31
0.0
  0
LINE
  5
EE51
  8
0
 10
4139.3757393699552267
 20
504.0595601804031958
 30
0.0
 11
4139.3639196006552083
 21
504.0390877394032145
 31
0.0
  0
LINE
  5
EE52
  8
0
 10
4139.3317561900548753
 20
503.9833790780032814
 30
0.0
 11
4139.3199364207539475
 21
503.962906637103174
 31
0.0
  0
LINE
  5
EE53
  8
0
 10
4139.2877730100562985
 20
503.9071979756033102
 30
0.0
 11
4139.2759532407553706
 21
503.8867255347033165
 31
0.0
  0
LINE
  5
EE54
  8
0
 10
4139.2437898301550376
 20
503.8310168733032128
 30
0.0
 11
4139.2319700608550193
 21
503.8105444323032884
 31
0.0
  0
LINE
  5
EE55
  8
0
 10
4139.228569317561778
 20
503.7735518100137142
 30
0.0
 11
4139.235265958054697
 21
503.7851507315032222
 31
0.0
  0
LINE
  5
EE56
  8
0
 10
4139.26742936865503
 20
503.8408593930033135
 30
0.0
 11
4139.2792491379550484
 21
503.8613318339033071
 31
0.0
  0
LINE
  5
EE57
  8
0
 10
4139.3114125486554258
 20
503.9170404953032971
 30
0.0
 11
4139.3232323179554442
 21
503.9375129363032215
 31
0.0
  0
LINE
  5
EE58
  8
0
 10
4139.3553957285539582
 20
503.9932215977033252
 30
0.0
 11
4139.3672154978548861
 21
504.0136940386033189
 31
0.0
  0
LINE
  5
EE59
  8
0
 10
4139.399378908556173
 20
504.0694027001031827
 30
0.0
 11
4139.4111986778552819
 21
504.0898751410032901
 31
0.0
  0
LINE
  5
EE5A
  8
0
 10
4139.4433620885547498
 20
504.1455838024032801
 30
0.0
 11
4139.4500587289030591
 21
504.1571827239225172
 31
0.0
  0
LINE
  5
EE5B
  8
0
 10
4139.4197225499556225
 20
504.0947964008033182
 30
0.0
 11
4139.4168812592552058
 21
504.0898751410032901
 31
0.0
  0
LINE
  5
EE5C
  8
0
 10
4139.3757393699552267
 20
504.0186152985032209
 30
0.0
 11
4139.37289807925481
 21
504.0136940386033189
 31
0.0
  0
LINE
  5
EE5D
  8
0
 10
4139.3317561900548753
 20
503.9424341961033065
 30
0.0
 11
4139.3289148993553681
 21
503.9375129363032215
 31
0.0
  0
LINE
  5
EE5E
  8
0
 10
4139.2877730100562985
 20
503.8662530938032091
 30
0.0
 11
4139.2849317193540628
 21
503.8613318339033071
 31
0.0
  0
LINE
  5
EE5F
  8
0
 10
4139.2437898301550376
 20
503.7900719914031811
 30
0.0
 11
4139.2409485394546209
 21
503.7851507315032222
 31
0.0
  0
LINE
  5
EE60
  8
0
 10
4139.26742936865503
 20
503.8310168733032128
 30
0.0
 11
4139.2702706593554467
 21
503.8359381331032978
 31
0.0
  0
LINE
  5
EE61
  8
0
 10
4139.3114125486554258
 20
503.9071979756033102
 30
0.0
 11
4139.3142538393540235
 21
503.9121192355032122
 31
0.0
  0
LINE
  5
EE62
  8
0
 10
4139.3553957285539582
 20
503.9833790780032814
 30
0.0
 11
4139.3582370192552844
 21
503.9883003378033095
 31
0.0
  0
LINE
  5
EE63
  8
0
 10
4139.399378908556173
 20
504.0595601804031958
 30
0.0
 11
4139.4022201992547707
 21
504.0644814402032807
 31
0.0
  0
LINE
  5
EE64
  8
0
 10
4139.4433620885547498
 20
504.1357412827031794
 30
0.0
 11
4139.4462033792551665
 21
504.1406625426033088
 31
0.0
  0
LINE
  5
EE65
  8
0
 10
4139.4619177088088691
 20
504.1580380401823049
 30
0.0
 11
4139.451885960555046
 21
504.1406625426033088
 31
0.0
  0
LINE
  5
EE66
  8
0
 10
4139.4197225499556225
 20
504.0849538812032051
 30
0.0
 11
4139.4079027806546947
 21
504.0644814402032807
 31
0.0
  0
LINE
  5
EE67
  8
0
 10
4139.3757393699552267
 20
504.0087727788032907
 30
0.0
 11
4139.3639196006552083
 21
503.9883003378033095
 31
0.0
  0
LINE
  5
EE68
  8
0
 10
4139.3317561900548753
 20
503.9325916764032058
 30
0.0
 11
4139.3199364207539475
 21
503.9121192355032122
 31
0.0
  0
LINE
  5
EE69
  8
0
 10
4139.2877730100562985
 20
503.8564105741032222
 30
0.0
 11
4139.2759532407553706
 21
503.8359381331032978
 31
0.0
  0
LINE
  5
EE6A
  8
0
 10
4139.2437898301550376
 20
503.7802294717033078
 30
0.0
 11
4139.2337580818830247
 21
503.7628539740722999
 31
0.0
  0
LINE
  5
EE6B
  8
0
 10
4139.26742936865503
 20
503.7900719914031811
 30
0.0
 11
4139.2792491379550484
 21
503.8105444323032884
 31
0.0
  0
LINE
  5
EE6C
  8
0
 10
4139.3114125486554258
 20
503.8662530938032091
 30
0.0
 11
4139.3232323179554442
 21
503.8867255347033165
 31
0.0
  0
LINE
  5
EE6D
  8
0
 10
4139.3553957285539582
 20
503.9424341961033065
 30
0.0
 11
4139.3672154978548861
 21
503.962906637103174
 31
0.0
  0
LINE
  5
EE6E
  8
0
 10
4139.399378908556173
 20
504.0186152985032209
 30
0.0
 11
4139.4111986778552819
 21
504.0390877394032145
 31
0.0
  0
LINE
  5
EE6F
  8
0
 10
4139.4433620885547498
 20
504.0947964008033182
 30
0.0
 11
4139.4551818577547238
 21
504.1152688418032994
 31
0.0
  0
LINE
  5
EE70
  8
0
 10
4139.4637057298550644
 20
504.1201901016032139
 30
0.0
 11
4139.4608644391546477
 21
504.1152688418032994
 31
0.0
  0
LINE
  5
EE71
  8
0
 10
4139.4197225499556225
 20
504.0440089993031734
 30
0.0
 11
4139.4168812592552058
 21
504.0390877394032145
 31
0.0
  0
LINE
  5
EE72
  8
0
 10
4139.3757393699552267
 20
503.9678278969033158
 30
0.0
 11
4139.37289807925481
 21
503.962906637103174
 31
0.0
  0
LINE
  5
EE73
  8
0
 10
4139.3317561900548753
 20
503.8916467945032878
 30
0.0
 11
4139.3289148993553681
 21
503.8867255347033165
 31
0.0
  0
LINE
  5
EE74
  8
0
 10
4139.2877730100562985
 20
503.8154656922031904
 30
0.0
 11
4139.2849317193540628
 21
503.8105444323032884
 31
0.0
  0
LINE
  5
EE75
  8
0
 10
4139.26742936865503
 20
503.7802294717033078
 30
0.0
 11
4139.2702706593554467
 21
503.7851507315032222
 31
0.0
  0
LINE
  5
EE76
  8
0
 10
4139.3114125486554258
 20
503.8564105741032222
 30
0.0
 11
4139.3142538393540235
 21
503.8613318339033071
 31
0.0
  0
LINE
  5
EE77
  8
0
 10
4139.3553957285539582
 20
503.9325916764032058
 30
0.0
 11
4139.3582370192552844
 21
503.9375129363032215
 31
0.0
  0
LINE
  5
EE78
  8
0
 10
4139.399378908556173
 20
504.0087727788032907
 30
0.0
 11
4139.4022201992547707
 21
504.0136940386033189
 31
0.0
  0
LINE
  5
EE79
  8
0
 10
4139.4433620885547498
 20
504.0849538812032051
 30
0.0
 11
4139.4462033792551665
 21
504.0898751410032901
 31
0.0
  0
LINE
  5
EE7A
  8
0
 10
4139.4637057298550644
 20
504.1103475819032269
 30
0.0
 11
4139.451885960555046
 21
504.0898751410032901
 31
0.0
  0
LINE
  5
EE7B
  8
0
 10
4139.4197225499556225
 20
504.0341664796033001
 30
0.0
 11
4139.4079027806546947
 21
504.0136940386033189
 31
0.0
  0
LINE
  5
EE7C
  8
0
 10
4139.3757393699552267
 20
503.9579853772032152
 30
0.0
 11
4139.3639196006552083
 21
503.9375129363032215
 31
0.0
  0
LINE
  5
EE7D
  8
0
 10
4139.3317561900548753
 20
503.8818042749031747
 30
0.0
 11
4139.3199364207539475
 21
503.8613318339033071
 31
0.0
  0
LINE
  5
EE7E
  8
0
 10
4139.2877730100562985
 20
503.8056231725033172
 30
0.0
 11
4139.2759532407553706
 21
503.7851507315032222
 31
0.0
  0
LINE
  5
EE7F
  8
0
 10
4139.26742936865503
 20
503.739284589803276
 30
0.0
 11
4139.2792491379550484
 21
503.7597570308033141
 31
0.0
  0
LINE
  5
EE80
  8
0
 10
4139.3114125486554258
 20
503.8154656922031904
 30
0.0
 11
4139.3232323179554442
 21
503.8359381331032978
 31
0.0
  0
LINE
  5
EE81
  8
0
 10
4139.3553957285539582
 20
503.8916467945032878
 30
0.0
 11
4139.3672154978548861
 21
503.9121192355032122
 31
0.0
  0
LINE
  5
EE82
  8
0
 10
4139.399378908556173
 20
503.9678278969033158
 30
0.0
 11
4139.4111986778552819
 21
503.9883003378033095
 31
0.0
  0
LINE
  5
EE83
  8
0
 10
4139.4433620885547498
 20
504.0440089993031734
 30
0.0
 11
4139.4551818577547238
 21
504.0644814402032807
 31
0.0
  0
LINE
  5
EE84
  8
0
 10
4139.4637057298550644
 20
504.0694027001031827
 30
0.0
 11
4139.4608644391546477
 21
504.0644814402032807
 31
0.0
  0
LINE
  5
EE85
  8
0
 10
4139.4197225499556225
 20
503.9932215977033252
 30
0.0
 11
4139.4168812592552058
 21
503.9883003378033095
 31
0.0
  0
LINE
  5
EE86
  8
0
 10
4139.3757393699552267
 20
503.9170404953032971
 30
0.0
 11
4139.37289807925481
 21
503.9121192355032122
 31
0.0
  0
LINE
  5
EE87
  8
0
 10
4139.3317561900548753
 20
503.8408593930033135
 30
0.0
 11
4139.3289148993553681
 21
503.8359381331032978
 31
0.0
  0
LINE
  5
EE88
  8
0
 10
4139.2877730100562985
 20
503.7646782906031717
 30
0.0
 11
4139.2849317193540628
 21
503.7597570308033141
 31
0.0
  0
LINE
  5
EE89
  8
0
 10
4139.26742936865503
 20
503.7294420701032891
 30
0.0
 11
4139.2702706593554467
 21
503.7343633300031911
 31
0.0
  0
LINE
  5
EE8A
  8
0
 10
4139.3114125486554258
 20
503.8056231725033172
 30
0.0
 11
4139.3142538393540235
 21
503.8105444323032884
 31
0.0
  0
LINE
  5
EE8B
  8
0
 10
4139.3553957285539582
 20
503.8818042749031747
 30
0.0
 11
4139.3582370192552844
 21
503.8867255347033165
 31
0.0
  0
LINE
  5
EE8C
  8
0
 10
4139.399378908556173
 20
503.9579853772032152
 30
0.0
 11
4139.4022201992547707
 21
503.962906637103174
 31
0.0
  0
LINE
  5
EE8D
  8
0
 10
4139.4433620885547498
 20
504.0341664796033001
 30
0.0
 11
4139.4462033792551665
 21
504.0390877394032145
 31
0.0
  0
LINE
  5
EE8E
  8
0
 10
4139.4637057298550644
 20
504.0595601804031958
 30
0.0
 11
4139.451885960555046
 21
504.0390877394032145
 31
0.0
  0
LINE
  5
EE8F
  8
0
 10
4139.4197225499556225
 20
503.9833790780032814
 30
0.0
 11
4139.4079027806546947
 21
503.962906637103174
 31
0.0
  0
LINE
  5
EE90
  8
0
 10
4139.3757393699552267
 20
503.9071979756033102
 30
0.0
 11
4139.3639196006552083
 21
503.8867255347033165
 31
0.0
  0
LINE
  5
EE91
  8
0
 10
4139.3317561900548753
 20
503.8310168733032128
 30
0.0
 11
4139.3199364207539475
 21
503.8105444323032884
 31
0.0
  0
LINE
  5
EE92
  8
0
 10
4139.2877730100562985
 20
503.7548357709032985
 30
0.0
 11
4139.2759532407553706
 21
503.7343633300031911
 31
0.0
  0
LINE
  5
EE93
  8
0
 10
4139.1756537314204252
 20
503.6766381932296213
 30
0.0
 11
4139.209626385419142
 21
503.7004261016218152
 31
0.0
  0
LINE
  5
EE94
  8
0
 10
4139.7416987313263235
 20
504.0731020383656187
 30
0.0
 11
4139.7754512476685704
 21
504.0967358047133189
 31
0.0
  0
LINE
  5
EE95
  8
0
 10
4139.2756565688223418
 20
503.7027471167431258
 30
0.0
 11
4139.2792491379550484
 21
503.7089696292031817
 31
0.0
  0
LINE
  5
EE96
  8
0
 10
4139.3114125486554258
 20
503.7646782906031717
 30
0.0
 11
4139.3232323179554442
 21
503.7851507315032222
 31
0.0
  0
LINE
  5
EE97
  8
0
 10
4139.3553957285539582
 20
503.8408593930033135
 30
0.0
 11
4139.3672154978548861
 21
503.8613318339033071
 31
0.0
  0
LINE
  5
EE98
  8
0
 10
4139.399378908556173
 20
503.9170404953032971
 30
0.0
 11
4139.4111986778552819
 21
503.9375129363032215
 31
0.0
  0
LINE
  5
EE99
  8
0
 10
4139.4433620885547498
 20
503.9932215977033252
 30
0.0
 11
4139.4551818577547238
 21
504.0136940386033189
 31
0.0
  0
LINE
  5
EE9A
  8
0
 10
4139.4637057298550644
 20
504.0186152985032209
 30
0.0
 11
4139.4608644391546477
 21
504.0136940386033189
 31
0.0
  0
LINE
  5
EE9B
  8
0
 10
4139.4197225499556225
 20
503.9424341961033065
 30
0.0
 11
4139.4168812592552058
 21
503.9375129363032215
 31
0.0
  0
LINE
  5
EE9C
  8
0
 10
4139.3757393699552267
 20
503.8662530938032091
 30
0.0
 11
4139.37289807925481
 21
503.8613318339033071
 31
0.0
  0
LINE
  5
EE9D
  8
0
 10
4139.3317561900548753
 20
503.7900719914031811
 30
0.0
 11
4139.3289148993553681
 21
503.7851507315032222
 31
0.0
  0
LINE
  5
EE9E
  8
0
 10
4139.2877730100562985
 20
503.7138908890033235
 30
0.0
 11
4139.2849317193540628
 21
503.7089696292031817
 31
0.0
  0
LINE
  5
EE9F
  8
0
 10
4139.3114125486554258
 20
503.7548357709032985
 30
0.0
 11
4139.3142538393540235
 21
503.7597570308033141
 31
0.0
  0
LINE
  5
EEA0
  8
0
 10
4139.3553957285539582
 20
503.8310168733032128
 30
0.0
 11
4139.3582370192552844
 21
503.8359381331032978
 31
0.0
  0
LINE
  5
EEA1
  8
0
 10
4139.399378908556173
 20
503.9071979756033102
 30
0.0
 11
4139.4022201992547707
 21
503.9121192355032122
 31
0.0
  0
LINE
  5
EEA2
  8
0
 10
4139.4433620885547498
 20
503.9833790780032814
 30
0.0
 11
4139.4462033792551665
 21
503.9883003378033095
 31
0.0
  0
LINE
  5
EEA3
  8
0
 10
4139.4637057298550644
 20
504.0087727788032907
 30
0.0
 11
4139.451885960555046
 21
503.9883003378033095
 31
0.0
  0
LINE
  5
EEA4
  8
0
 10
4139.4197225499556225
 20
503.9325916764032058
 30
0.0
 11
4139.4079027806546947
 21
503.9121192355032122
 31
0.0
  0
LINE
  5
EEA5
  8
0
 10
4139.3757393699552267
 20
503.8564105741032222
 30
0.0
 11
4139.3639196006552083
 21
503.8359381331032978
 31
0.0
  0
LINE
  5
EEA6
  8
0
 10
4139.3317561900548753
 20
503.7802294717033078
 30
0.0
 11
4139.3199364207539475
 21
503.7597570308033141
 31
0.0
  0
LINE
  5
EEA7
  8
0
 10
4139.2877730100562985
 20
503.7040483693032229
 30
0.0
 11
4139.2827423764338164
 21
503.6953350564090215
 31
0.0
  0
LINE
  5
EEA8
  8
0
 10
4139.3114125486554258
 20
503.7138908890033235
 30
0.0
 11
4139.3232323179554442
 21
503.7343633300031911
 31
0.0
  0
LINE
  5
EEA9
  8
0
 10
4139.3553957285539582
 20
503.7900719914031811
 30
0.0
 11
4139.3672154978548861
 21
503.8105444323032884
 31
0.0
  0
LINE
  5
EEAA
  8
0
 10
4139.399378908556173
 20
503.8662530938032091
 30
0.0
 11
4139.4111986778552819
 21
503.8867255347033165
 31
0.0
  0
LINE
  5
EEAB
  8
0
 10
4139.4433620885547498
 20
503.9424341961033065
 30
0.0
 11
4139.4551818577547238
 21
503.962906637103174
 31
0.0
  0
LINE
  5
EEAC
  8
0
 10
4139.4637057298550644
 20
503.9678278969033158
 30
0.0
 11
4139.4608644391546477
 21
503.962906637103174
 31
0.0
  0
LINE
  5
EEAD
  8
0
 10
4139.4197225499556225
 20
503.8916467945032878
 30
0.0
 11
4139.4168812592552058
 21
503.8867255347033165
 31
0.0
  0
LINE
  5
EEAE
  8
0
 10
4139.3757393699552267
 20
503.8154656922031904
 30
0.0
 11
4139.37289807925481
 21
503.8105444323032884
 31
0.0
  0
LINE
  5
EEAF
  8
0
 10
4139.3317561900548753
 20
503.739284589803276
 30
0.0
 11
4139.3289148993553681
 21
503.7343633300031911
 31
0.0
  0
LINE
  5
EEB0
  8
0
 10
4139.3114125486554258
 20
503.7040483693032229
 30
0.0
 11
4139.3142538393540235
 21
503.7089696292031817
 31
0.0
  0
LINE
  5
EEB1
  8
0
 10
4139.3553957285539582
 20
503.7802294717033078
 30
0.0
 11
4139.3582370192552844
 21
503.7851507315032222
 31
0.0
  0
LINE
  5
EEB2
  8
0
 10
4139.399378908556173
 20
503.8564105741032222
 30
0.0
 11
4139.4022201992547707
 21
503.8613318339033071
 31
0.0
  0
LINE
  5
EEB3
  8
0
 10
4139.4433620885547498
 20
503.9325916764032058
 30
0.0
 11
4139.4462033792551665
 21
503.9375129363032215
 31
0.0
  0
LINE
  5
EEB4
  8
0
 10
4139.4637057298550644
 20
503.9579853772032152
 30
0.0
 11
4139.451885960555046
 21
503.9375129363032215
 31
0.0
  0
LINE
  5
EEB5
  8
0
 10
4139.4197225499556225
 20
503.8818042749031747
 30
0.0
 11
4139.4079027806546947
 21
503.8613318339033071
 31
0.0
  0
LINE
  5
EEB6
  8
0
 10
4139.3757393699552267
 20
503.8056231725033172
 30
0.0
 11
4139.3639196006552083
 21
503.7851507315032222
 31
0.0
  0
LINE
  5
EEB7
  8
0
 10
4139.3317561900548753
 20
503.7294420701032891
 30
0.0
 11
4139.3199364207539475
 21
503.7089696292031817
 31
0.0
  0
LINE
  5
EEB8
  8
0
 10
4139.3142935945834324
 20
503.6680936053439268
 30
0.0
 11
4139.3232323179554442
 21
503.6835759284031724
 31
0.0
  0
LINE
  5
EEB9
  8
0
 10
4139.3553957285539582
 20
503.739284589803276
 30
0.0
 11
4139.3672154978548861
 21
503.7597570308033141
 31
0.0
  0
LINE
  5
EEBA
  8
0
 10
4139.399378908556173
 20
503.8154656922031904
 30
0.0
 11
4139.4111986778552819
 21
503.8359381331032978
 31
0.0
  0
LINE
  5
EEBB
  8
0
 10
4139.4433620885547498
 20
503.8916467945032878
 30
0.0
 11
4139.4551818577547238
 21
503.9121192355032122
 31
0.0
  0
LINE
  5
EEBC
  8
0
 10
4139.4197225499556225
 20
503.8408593930033135
 30
0.0
 11
4139.4168812592552058
 21
503.8359381331032978
 31
0.0
  0
LINE
  5
EEBD
  8
0
 10
4139.3757393699552267
 20
503.7646782906031717
 30
0.0
 11
4139.37289807925481
 21
503.7597570308033141
 31
0.0
  0
LINE
  5
EEBE
  8
0
 10
4139.3317561900548753
 20
503.6884971882033142
 30
0.0
 11
4139.3289148993553681
 21
503.6835759284031724
 31
0.0
  0
LINE
  5
EEBF
  8
0
 10
4139.3553957285539582
 20
503.7294420701032891
 30
0.0
 11
4139.3582370192552844
 21
503.7343633300031911
 31
0.0
  0
LINE
  5
EEC0
  8
0
 10
4139.399378908556173
 20
503.8056231725033172
 30
0.0
 11
4139.4022201992547707
 21
503.8105444323032884
 31
0.0
  0
LINE
  5
EEC1
  8
0
 10
4139.4433620885547498
 20
503.8818042749031747
 30
0.0
 11
4139.4637057298550644
 21
503.9170404953032971
 31
0.0
  0
LINE
  5
EEC2
  8
0
 10
4139.4197225499556225
 20
503.8310168733032128
 30
0.0
 11
4139.4079027806546947
 21
503.8105444323032884
 31
0.0
  0
LINE
  5
EEC3
  8
0
 10
4139.3757393699552267
 20
503.7548357709032985
 30
0.0
 11
4139.3639196006552083
 21
503.7343633300031911
 31
0.0
  0
LINE
  5
EEC4
  8
0
 10
4139.3317561900548753
 20
503.6786546686033148
 30
0.0
 11
4139.3223553354473552
 21
503.6623719108476962
 31
0.0
  0
LINE
  5
EEC5
  8
0
 10
4139.3553957285539582
 20
503.6884971882033142
 30
0.0
 11
4139.3672154978548861
 21
503.7089696292031817
 31
0.0
  0
LINE
  5
EEC6
  8
0
 10
4139.399378908556173
 20
503.7646782906031717
 30
0.0
 11
4139.4111986778552819
 21
503.7851507315032222
 31
0.0
  0
LINE
  5
EEC7
  8
0
 10
4139.4433620885547498
 20
503.8408593930033135
 30
0.0
 11
4139.4551818577547238
 21
503.8613318339033071
 31
0.0
  0
LINE
  5
EEC8
  8
0
 10
4139.4197225499556225
 20
503.7900719914031811
 30
0.0
 11
4139.4168812592552058
 21
503.7851507315032222
 31
0.0
  0
LINE
  5
EEC9
  8
0
 10
4139.3757393699552267
 20
503.7138908890033235
 30
0.0
 11
4139.37289807925481
 21
503.7089696292031817
 31
0.0
  0
LINE
  5
EECA
  8
0
 10
4139.3553957285539582
 20
503.6786546686033148
 30
0.0
 11
4139.3582370192552844
 21
503.6835759284031724
 31
0.0
  0
LINE
  5
EECB
  8
0
 10
4139.399378908556173
 20
503.7548357709032985
 30
0.0
 11
4139.4022201992547707
 21
503.7597570308033141
 31
0.0
  0
LINE
  5
EECC
  8
0
 10
4139.4433620885547498
 20
503.8310168733032128
 30
0.0
 11
4139.4462033792551665
 21
503.8359381331032978
 31
0.0
  0
LINE
  5
EECD
  8
0
 10
4139.4637057298550644
 20
503.8564105741032222
 30
0.0
 11
4139.451885960555046
 21
503.8359381331032978
 31
0.0
  0
LINE
  5
EECE
  8
0
 10
4139.4197225499556225
 20
503.7802294717033078
 30
0.0
 11
4139.4079027806546947
 21
503.7597570308033141
 31
0.0
  0
LINE
  5
EECF
  8
0
 10
4139.3757393699552267
 20
503.7040483693032229
 30
0.0
 11
4139.3639196006552083
 21
503.6835759284031724
 31
0.0
  0
LINE
  5
EED0
  8
0
 10
4139.357814643315578
 20
503.6418994699038763
 30
0.0
 11
4139.3672154978548861
 21
503.6581822276032767
 31
0.0
  0
LINE
  5
EED1
  8
0
 10
4139.399378908556173
 20
503.7138908890033235
 30
0.0
 11
4139.4111986778552819
 21
503.7343633300031911
 31
0.0
  0
LINE
  5
EED2
  8
0
 10
4139.4433620885547498
 20
503.7900719914031811
 30
0.0
 11
4139.4551818577547238
 21
503.8105444323032884
 31
0.0
  0
LINE
  5
EED3
  8
0
 10
4139.4637057298550644
 20
503.8154656922031904
 30
0.0
 11
4139.4608644391546477
 21
503.8105444323032884
 31
0.0
  0
LINE
  5
EED4
  8
0
 10
4139.4197225499556225
 20
503.739284589803276
 30
0.0
 11
4139.4168812592552058
 21
503.7343633300031911
 31
0.0
  0
LINE
  5
EED5
  8
0
 10
4139.3757393699552267
 20
503.6631034875032924
 30
0.0
 11
4139.37289807925481
 21
503.6581822276032767
 31
0.0
  0
LINE
  5
EED6
  8
0
 10
4139.399378908556173
 20
503.7040483693032229
 30
0.0
 11
4139.4022201992547707
 21
503.7089696292031817
 31
0.0
  0
LINE
  5
EED7
  8
0
 10
4139.4433620885547498
 20
503.7802294717033078
 30
0.0
 11
4139.4462033792551665
 21
503.7851507315032222
 31
0.0
  0
LINE
  5
EED8
  8
0
 10
4139.4637057298550644
 20
503.8056231725033172
 30
0.0
 11
4139.451885960555046
 21
503.7851507315032222
 31
0.0
  0
LINE
  5
EED9
  8
0
 10
4139.4197225499556225
 20
503.7294420701032891
 30
0.0
 11
4139.4079027806546947
 21
503.7089696292031817
 31
0.0
  0
LINE
  5
EEDA
  8
0
 10
4139.3757393699552267
 20
503.6532609678031918
 30
0.0
 11
4139.3668006466514271
 21
503.6377786447137055
 31
0.0
  0
LINE
  5
EEDB
  8
0
 10
4139.399378908556173
 20
503.6631034875032924
 30
0.0
 11
4139.4111986778552819
 21
503.6835759284031724
 31
0.0
  0
LINE
  5
EEDC
  8
0
 10
4139.4433620885547498
 20
503.739284589803276
 30
0.0
 11
4139.4551818577547238
 21
503.7597570308033141
 31
0.0
  0
LINE
  5
EEDD
  8
0
 10
4139.4637057298550644
 20
503.7646782906031717
 30
0.0
 11
4139.4608644391546477
 21
503.7597570308033141
 31
0.0
  0
LINE
  5
EEDE
  8
0
 10
4139.4197225499556225
 20
503.6884971882033142
 30
0.0
 11
4139.4168812592552058
 21
503.6835759284031724
 31
0.0
  0
LINE
  5
EEDF
  8
0
 10
4139.399378908556173
 20
503.6532609678031918
 30
0.0
 11
4139.4022201992547707
 21
503.6581822276032767
 31
0.0
  0
LINE
  5
EEE0
  8
0
 10
4139.4433620885547498
 20
503.7294420701032891
 30
0.0
 11
4139.4462033792551665
 21
503.7343633300031911
 31
0.0
  0
LINE
  5
EEE1
  8
0
 10
4139.4637057298550644
 20
503.7548357709032985
 30
0.0
 11
4139.451885960555046
 21
503.7343633300031911
 31
0.0
  0
LINE
  5
EEE2
  8
0
 10
4139.4197225499556225
 20
503.6786546686033148
 30
0.0
 11
4139.4079027806546947
 21
503.6581822276032767
 31
0.0
  0
LINE
  5
EEE3
  8
0
 10
4139.4061680442337092
 20
503.6240752138688208
 30
0.0
 11
4139.4111986778552819
 21
503.6327885268033242
 31
0.0
  0
LINE
  5
EEE4
  8
0
 10
4139.4433620885547498
 20
503.6884971882033142
 30
0.0
 11
4139.4551818577547238
 21
503.7089696292031817
 31
0.0
  0
LINE
  5
EEE5
  8
0
 10
4139.4637057298550644
 20
503.7138908890033235
 30
0.0
 11
4139.4608644391546477
 21
503.7089696292031817
 31
0.0
  0
LINE
  5
EEE6
  8
0
 10
4139.4197225499556225
 20
503.6377097867032262
 30
0.0
 11
4139.4168812592552058
 21
503.6327885268033242
 31
0.0
  0
LINE
  5
EEE7
  8
0
 10
4139.4433620885547498
 20
503.6786546686033148
 30
0.0
 11
4139.4462033792551665
 21
503.6835759284031724
 31
0.0
  0
LINE
  5
EEE8
  8
0
 10
4139.4637057298550644
 20
503.7040483693032229
 30
0.0
 11
4139.451885960555046
 21
503.6835759284031724
 31
0.0
  0
LINE
  5
EEE9
  8
0
 10
4139.4197225499556225
 20
503.6278672670031824
 30
0.0
 11
4139.4161299807838077
 21
503.621644754591216
 31
0.0
  0
LINE
  5
EEEA
  8
0
 10
4139.4433620885547498
 20
503.6377097867032262
 30
0.0
 11
4139.4551818577547238
 21
503.6581822276032767
 31
0.0
  0
LINE
  5
EEEB
  8
0
 10
4139.4637057298550644
 20
503.6631034875032924
 30
0.0
 11
4139.4608644391546477
 21
503.6581822276032767
 31
0.0
  0
LINE
  5
EEEC
  8
0
 10
4139.4433620885547498
 20
503.6278672670031824
 30
0.0
 11
4139.4462033792551665
 21
503.6327885268033242
 31
0.0
  0
LINE
  5
EEED
  8
0
 10
4139.4637057298550644
 20
503.6532609678031918
 30
0.0
 11
4139.451885960555046
 21
503.6327885268033242
 31
0.0
  0
LINE
  5
EEEE
  8
0
 10
4139.2656253226514309
 20
503.5867227279910026
 30
0.0
 11
4139.2893901163779447
 21
503.6206623706827941
 31
0.0
  0
LINE
  5
EEEF
  8
0
 10
4139.6619889824733036
 20
504.1527886986767726
 30
0.0
 11
4139.6856458343818304
 21
504.1865741846182232
 31
0.0
  0
LINE
  5
EEF0
  8
0
 10
4139.4121047642665872
 20
503.5261182988941187
 30
0.0
 11
4139.4192880743858041
 21
503.5668568747703944
 31
0.0
  0
LINE
  5
EEF1
  8
0
 10
4139.532091024494548
 20
504.2065941946190151
 30
0.0
 11
4139.5392644410776484
 21
504.2472766620268203
 31
0.0
  0
LINE
  5
EEF2
  8
0
 10
4138.6435302558920739
 20
500.1682269351031778
 30
0.0
 11
4138.5532676217171684
 21
499.8803663191075088
 31
0.0
  0
LINE
  5
EEF3
  8
0
 10
4140.3078501443924324
 20
500.1682227771032103
 30
0.0
 11
4140.3977833765929972
 21
499.8803661539989207
 31
0.0
  0
LINE
  5
EEF4
  8
0
 10
4139.2792491379550484
 20
503.7089696292031817
 30
0.0
 11
4139.26742936865503
 21
503.7294420701032891
 31
0.0
  0
LINE
  5
EEF5
  8
0
 10
4139.235265958054697
 20
503.7851507315032222
 30
0.0
 11
4139.2234461887546786
 21
503.8056231725033172
 31
0.0
  0
LINE
  5
EEF6
  8
0
 10
4139.2234461887546786
 20
503.8154656922031904
 30
0.0
 11
4139.2262874794550953
 21
503.8105444323032884
 31
0.0
  0
LINE
  5
EEF7
  8
0
 10
4139.26742936865503
 20
503.739284589803276
 30
0.0
 11
4139.2702706593554467
 21
503.7343633300031911
 31
0.0
  0
LINE
  5
EEF8
  8
0
 10
4139.2877730100562985
 20
503.7040483693032229
 30
0.0
 11
4139.2849317193540628
 21
503.7089696292031817
 31
0.0
  0
LINE
  5
EEF9
  8
0
 10
4139.2437898301550376
 20
503.7802294717033078
 30
0.0
 11
4139.2409485394546209
 21
503.7851507315032222
 31
0.0
  0
LINE
  5
EEFA
  8
0
 10
4139.2319700608550193
 20
503.8105444323032884
 30
0.0
 11
4139.2437898301550376
 21
503.7900719914031811
 31
0.0
  0
LINE
  5
EEFB
  8
0
 10
4139.2759532407553706
 20
503.7343633300031911
 30
0.0
 11
4139.2877730100562985
 21
503.7138908890033235
 31
0.0
  0
LINE
  5
EEFC
  8
0
 10
4139.3232323179554442
 20
503.6835759284031724
 30
0.0
 11
4139.3114125486554258
 21
503.7040483693032229
 31
0.0
  0
LINE
  5
EEFD
  8
0
 10
4139.2792491379550484
 20
503.7597570308033141
 30
0.0
 11
4139.26742936865503
 21
503.7802294717033078
 31
0.0
  0
LINE
  5
EEFE
  8
0
 10
4139.235265958054697
 20
503.8359381331032978
 30
0.0
 11
4139.2234461887546786
 21
503.8564105741032222
 31
0.0
  0
LINE
  5
EEFF
  8
0
 10
4139.26742936865503
 20
503.7900719914031811
 30
0.0
 11
4139.2702706593554467
 21
503.7851507315032222
 31
0.0
  0
LINE
  5
EF00
  8
0
 10
4139.3114125486554258
 20
503.7138908890033235
 30
0.0
 11
4139.3142538393540235
 21
503.7089696292031817
 31
0.0
  0
LINE
  5
EF01
  8
0
 10
4139.3317561900548753
 20
503.6786546686033148
 30
0.0
 11
4139.3289148993553681
 21
503.6835759284031724
 31
0.0
  0
LINE
  5
EF02
  8
0
 10
4139.2877730100562985
 20
503.7548357709032985
 30
0.0
 11
4139.2849317193540628
 21
503.7597570308033141
 31
0.0
  0
LINE
  5
EF03
  8
0
 10
4139.2437898301550376
 20
503.8310168733032128
 30
0.0
 11
4139.2409485394546209
 21
503.8359381331032978
 31
0.0
  0
LINE
  5
EF04
  8
0
 10
4139.2234461887546786
 20
503.8662530938032091
 30
0.0
 11
4139.2262874584548626
 21
503.8613318721032215
 31
0.0
  0
LINE
  5
EF05
  8
0
 10
4139.2319700608550193
 20
503.8613318339033071
 30
0.0
 11
4139.2437898301550376
 21
503.8408593930033135
 31
0.0
  0
LINE
  5
EF06
  8
0
 10
4139.2759532407553706
 20
503.7851507315032222
 30
0.0
 11
4139.2877730100562985
 21
503.7646782906031717
 31
0.0
  0
LINE
  5
EF07
  8
0
 10
4139.3199364207539475
 20
503.7089696292031817
 30
0.0
 11
4139.3317561900548753
 21
503.6884971882033142
 31
0.0
  0
LINE
  5
EF08
  8
0
 10
4139.3672154978548861
 20
503.6581822276032767
 30
0.0
 11
4139.3553957285539582
 21
503.6786546686033148
 31
0.0
  0
LINE
  5
EF09
  8
0
 10
4139.3232323179554442
 20
503.7343633300031911
 30
0.0
 11
4139.3114125486554258
 21
503.7548357709032985
 31
0.0
  0
LINE
  5
EF0A
  8
0
 10
4139.2792491379550484
 20
503.8105444323032884
 30
0.0
 11
4139.26742936865503
 21
503.8310168733032128
 31
0.0
  0
LINE
  5
EF0B
  8
0
 10
4139.235265958054697
 20
503.8867255347033165
 30
0.0
 11
4139.2234461887546786
 21
503.9071979756033102
 31
0.0
  0
LINE
  5
EF0C
  8
0
 10
4139.2234461887546786
 20
503.9170404953032971
 30
0.0
 11
4139.2262875002552391
 21
503.9121191976033174
 31
0.0
  0
LINE
  5
EF0D
  8
0
 10
4139.26742936865503
 20
503.8408593930033135
 30
0.0
 11
4139.2702706593554467
 21
503.8359381331032978
 31
0.0
  0
LINE
  5
EF0E
  8
0
 10
4139.3114125486554258
 20
503.7646782906031717
 30
0.0
 11
4139.3142538393540235
 21
503.7597570308033141
 31
0.0
  0
LINE
  5
EF0F
  8
0
 10
4139.3553957285539582
 20
503.6884971882033142
 30
0.0
 11
4139.3582370192552844
 21
503.6835759284031724
 31
0.0
  0
LINE
  5
EF10
  8
0
 10
4139.3757393699552267
 20
503.6532609678031918
 30
0.0
 11
4139.37289807925481
 21
503.6581822276032767
 31
0.0
  0
LINE
  5
EF11
  8
0
 10
4139.3317561900548753
 20
503.7294420701032891
 30
0.0
 11
4139.3289148993553681
 21
503.7343633300031911
 31
0.0
  0
LINE
  5
EF12
  8
0
 10
4139.2877730100562985
 20
503.8056231725033172
 30
0.0
 11
4139.2849317193540628
 21
503.8105444323032884
 31
0.0
  0
LINE
  5
EF13
  8
0
 10
4139.2437898301550376
 20
503.8818042749031747
 30
0.0
 11
4139.2409485394546209
 21
503.8867255347033165
 31
0.0
  0
LINE
  5
EF14
  8
0
 10
4139.2319700608550193
 20
503.9121192355032122
 30
0.0
 11
4139.2437898301550376
 21
503.8916467945032878
 31
0.0
  0
LINE
  5
EF15
  8
0
 10
4139.2759532407553706
 20
503.8359381331032978
 30
0.0
 11
4139.2877730100562985
 21
503.8154656922031904
 31
0.0
  0
LINE
  5
EF16
  8
0
 10
4139.3199364207539475
 20
503.7597570308033141
 30
0.0
 11
4139.3317561900548753
 21
503.739284589803276
 31
0.0
  0
LINE
  5
EF17
  8
0
 10
4139.3639196006552083
 20
503.6835759284031724
 30
0.0
 11
4139.3757393699552267
 21
503.6631034875032924
 31
0.0
  0
LINE
  5
EF18
  8
0
 10
4139.4111986778552819
 20
503.6327885268033242
 30
0.0
 11
4139.399378908556173
 21
503.6532609678031918
 31
0.0
  0
LINE
  5
EF19
  8
0
 10
4139.3672154978548861
 20
503.7089696292031817
 30
0.0
 11
4139.3553957285539582
 21
503.7294420701032891
 31
0.0
  0
LINE
  5
EF1A
  8
0
 10
4139.3232323179554442
 20
503.7851507315032222
 30
0.0
 11
4139.3114125486554258
 21
503.8056231725033172
 31
0.0
  0
LINE
  5
EF1B
  8
0
 10
4139.2792491379550484
 20
503.8613318339033071
 30
0.0
 11
4139.26742936865503
 21
503.8818042749031747
 31
0.0
  0
LINE
  5
EF1C
  8
0
 10
4139.235265958054697
 20
503.9375129363032215
 30
0.0
 11
4139.2234461887546786
 21
503.9579853772032152
 31
0.0
  0
LINE
  5
EF1D
  8
0
 10
4139.2234461887546786
 20
503.9678278969033158
 30
0.0
 11
4139.2262874794550953
 21
503.962906637103174
 31
0.0
  0
LINE
  5
EF1E
  8
0
 10
4139.26742936865503
 20
503.8916467945032878
 30
0.0
 11
4139.2702706593554467
 21
503.8867255347033165
 31
0.0
  0
LINE
  5
EF1F
  8
0
 10
4139.3114125486554258
 20
503.8154656922031904
 30
0.0
 11
4139.3142538393540235
 21
503.8105444323032884
 31
0.0
  0
LINE
  5
EF20
  8
0
 10
4139.3553957285539582
 20
503.739284589803276
 30
0.0
 11
4139.3582370192552844
 21
503.7343633300031911
 31
0.0
  0
LINE
  5
EF21
  8
0
 10
4139.399378908556173
 20
503.6631034875032924
 30
0.0
 11
4139.4022201992547707
 21
503.6581822276032767
 31
0.0
  0
LINE
  5
EF22
  8
0
 10
4139.4197225499556225
 20
503.6278672670031824
 30
0.0
 11
4139.4168812592552058
 21
503.6327885268033242
 31
0.0
  0
LINE
  5
EF23
  8
0
 10
4139.3757393699552267
 20
503.7040483693032229
 30
0.0
 11
4139.37289807925481
 21
503.7089696292031817
 31
0.0
  0
LINE
  5
EF24
  8
0
 10
4139.3317561900548753
 20
503.7802294717033078
 30
0.0
 11
4139.3289148993553681
 21
503.7851507315032222
 31
0.0
  0
LINE
  5
EF25
  8
0
 10
4139.2877730100562985
 20
503.8564105741032222
 30
0.0
 11
4139.2849317193540628
 21
503.8613318339033071
 31
0.0
  0
LINE
  5
EF26
  8
0
 10
4139.2437898301550376
 20
503.9325916764032058
 30
0.0
 11
4139.2409485394546209
 21
503.9375129363032215
 31
0.0
  0
LINE
  5
EF27
  8
0
 10
4139.2319700608550193
 20
503.962906637103174
 30
0.0
 11
4139.2437898301550376
 21
503.9424341961033065
 31
0.0
  0
LINE
  5
EF28
  8
0
 10
4139.2759532407553706
 20
503.8867255347033165
 30
0.0
 11
4139.2877730100562985
 21
503.8662530938032091
 31
0.0
  0
LINE
  5
EF29
  8
0
 10
4139.3199364207539475
 20
503.8105444323032884
 30
0.0
 11
4139.3317561900548753
 21
503.7900719914031811
 31
0.0
  0
LINE
  5
EF2A
  8
0
 10
4139.3639196006552083
 20
503.7343633300031911
 30
0.0
 11
4139.3757393699552267
 21
503.7138908890033235
 31
0.0
  0
LINE
  5
EF2B
  8
0
 10
4139.4079027806546947
 20
503.6581822276032767
 30
0.0
 11
4139.4197225499556225
 21
503.6377097867032262
 31
0.0
  0
LINE
  5
EF2C
  8
0
 10
4139.4500587289476243
 20
503.6162683454799094
 30
0.0
 11
4139.4433620885547498
 21
503.6278672670031824
 31
0.0
  0
LINE
  5
EF2D
  8
0
 10
4139.4111986778552819
 20
503.6835759284031724
 30
0.0
 11
4139.399378908556173
 21
503.7040483693032229
 31
0.0
  0
LINE
  5
EF2E
  8
0
 10
4139.3672154978548861
 20
503.7597570308033141
 30
0.0
 11
4139.3553957285539582
 21
503.7802294717033078
 31
0.0
  0
LINE
  5
EF2F
  8
0
 10
4139.3232323179554442
 20
503.8359381331032978
 30
0.0
 11
4139.3114125486554258
 21
503.8564105741032222
 31
0.0
  0
LINE
  5
EF30
  8
0
 10
4139.2792491379550484
 20
503.9121192355032122
 30
0.0
 11
4139.26742936865503
 21
503.9325916764032058
 31
0.0
  0
LINE
  5
EF31
  8
0
 10
4139.235265958054697
 20
503.9883003378033095
 30
0.0
 11
4139.2285693175608685
 21
503.9998992593908724
 31
0.0
  0
LINE
  5
EF32
  8
0
 10
4139.26742936865503
 20
503.9424341961033065
 30
0.0
 11
4139.2702706593554467
 21
503.9375129363032215
 31
0.0
  0
LINE
  5
EF33
  8
0
 10
4139.3114125486554258
 20
503.8662530938032091
 30
0.0
 11
4139.3142538393540235
 21
503.8613318339033071
 31
0.0
  0
LINE
  5
EF34
  8
0
 10
4139.3553957285539582
 20
503.7900719914031811
 30
0.0
 11
4139.3582370192552844
 21
503.7851507315032222
 31
0.0
  0
LINE
  5
EF35
  8
0
 10
4139.399378908556173
 20
503.7138908890033235
 30
0.0
 11
4139.4022201992547707
 21
503.7089696292031817
 31
0.0
  0
LINE
  5
EF36
  8
0
 10
4139.4433620885547498
 20
503.6377097867032262
 30
0.0
 11
4139.4462033792551665
 21
503.6327885268033242
 31
0.0
  0
LINE
  5
EF37
  8
0
 10
4139.4197225499556225
 20
503.6786546686033148
 30
0.0
 11
4139.4168812592552058
 21
503.6835759284031724
 31
0.0
  0
LINE
  5
EF38
  8
0
 10
4139.3757393699552267
 20
503.7548357709032985
 30
0.0
 11
4139.37289807925481
 21
503.7597570308033141
 31
0.0
  0
LINE
  5
EF39
  8
0
 10
4139.3317561900548753
 20
503.8310168733032128
 30
0.0
 11
4139.3289148993553681
 21
503.8359381331032978
 31
0.0
  0
LINE
  5
EF3A
  8
0
 10
4139.2877730100562985
 20
503.9071979756033102
 30
0.0
 11
4139.2849317193540628
 21
503.9121192355032122
 31
0.0
  0
LINE
  5
EF3B
  8
0
 10
4139.2437898301550376
 20
503.9833790780032814
 30
0.0
 11
4139.2409485394546209
 21
503.9883003378033095
 31
0.0
  0
LINE
  5
EF3C
  8
0
 10
4139.5392644410776484
 20
503.526174407379699
 30
0.0
 11
4139.532091024494548
 21
503.5668568747873906
 31
0.0
  0
LINE
  5
EF3D
  8
0
 10
4139.4192880743858041
 20
504.2065941946361249
 30
0.0
 11
4139.4121047642665872
 21
504.2473327705124007
 31
0.0
  0
LINE
  5
EF3E
  8
0
 10
4139.2337580818812057
 20
504.0105970953305814
 30
0.0
 11
4139.2437898301550376
 21
503.9932215977033252
 31
0.0
  0
LINE
  5
EF3F
  8
0
 10
4139.2759532407553706
 20
503.9375129363032215
 30
0.0
 11
4139.2877730100562985
 21
503.9170404953032971
 31
0.0
  0
LINE
  5
EF40
  8
0
 10
4139.3199364207539475
 20
503.8613318339033071
 30
0.0
 11
4139.3317561900548753
 21
503.8408593930033135
 31
0.0
  0
LINE
  5
EF41
  8
0
 10
4139.3639196006552083
 20
503.7851507315032222
 30
0.0
 11
4139.3757393699552267
 21
503.7646782906031717
 31
0.0
  0
LINE
  5
EF42
  8
0
 10
4139.4079027806546947
 20
503.7089696292031817
 30
0.0
 11
4139.4197225499556225
 21
503.6884971882033142
 31
0.0
  0
LINE
  5
EF43
  8
0
 10
4139.451885960555046
 20
503.6327885268033242
 30
0.0
 11
4139.4619177088261495
 21
503.6154130292233049
 31
0.0
  0
LINE
  5
EF44
  8
0
 10
4139.4551818577547238
 20
503.6581822276032767
 30
0.0
 11
4139.4433620885547498
 21
503.6786546686033148
 31
0.0
  0
LINE
  5
EF45
  8
0
 10
4139.4111986778552819
 20
503.7343633300031911
 30
0.0
 11
4139.399378908556173
 21
503.7548357709032985
 31
0.0
  0
LINE
  5
EF46
  8
0
 10
4139.3672154978548861
 20
503.8105444323032884
 30
0.0
 11
4139.3553957285539582
 21
503.8310168733032128
 31
0.0
  0
LINE
  5
EF47
  8
0
 10
4139.3232323179554442
 20
503.8867255347033165
 30
0.0
 11
4139.3114125486554258
 21
503.9071979756033102
 31
0.0
  0
LINE
  5
EF48
  8
0
 10
4139.2792491379550484
 20
503.962906637103174
 30
0.0
 11
4139.26742936865503
 21
503.9833790780032814
 31
0.0
  0
LINE
  5
EF49
  8
0
 10
4139.26742936865503
 20
503.9932215977033252
 30
0.0
 11
4139.2702706593554467
 21
503.9883003378033095
 31
0.0
  0
LINE
  5
EF4A
  8
0
 10
4139.3114125486554258
 20
503.9170404953032971
 30
0.0
 11
4139.3142538393540235
 21
503.9121192355032122
 31
0.0
  0
LINE
  5
EF4B
  8
0
 10
4139.3553957285539582
 20
503.8408593930033135
 30
0.0
 11
4139.3582370192552844
 21
503.8359381331032978
 31
0.0
  0
LINE
  5
EF4C
  8
0
 10
4139.399378908556173
 20
503.7646782906031717
 30
0.0
 11
4139.4022201992547707
 21
503.7597570308033141
 31
0.0
  0
LINE
  5
EF4D
  8
0
 10
4139.4433620885547498
 20
503.6884971882033142
 30
0.0
 11
4139.4462033792551665
 21
503.6835759284031724
 31
0.0
  0
LINE
  5
EF4E
  8
0
 10
4139.4637057298550644
 20
503.6532609678031918
 30
0.0
 11
4139.4608644391546477
 21
503.6581822276032767
 31
0.0
  0
LINE
  5
EF4F
  8
0
 10
4139.4197225499556225
 20
503.7294420701032891
 30
0.0
 11
4139.4168812592552058
 21
503.7343633300031911
 31
0.0
  0
LINE
  5
EF50
  8
0
 10
4139.3757393699552267
 20
503.8056231725033172
 30
0.0
 11
4139.37289807925481
 21
503.8105444323032884
 31
0.0
  0
LINE
  5
EF51
  8
0
 10
4139.3317561900548753
 20
503.8818042749031747
 30
0.0
 11
4139.3289148993553681
 21
503.8867255347033165
 31
0.0
  0
LINE
  5
EF52
  8
0
 10
4139.2877730100562985
 20
503.9579853772032152
 30
0.0
 11
4139.2849317193540628
 21
503.962906637103174
 31
0.0
  0
LINE
  5
EF53
  8
0
 10
4139.2759532407553706
 20
503.9883003378033095
 30
0.0
 11
4139.2877730100562985
 21
503.9678278969033158
 31
0.0
  0
LINE
  5
EF54
  8
0
 10
4139.3199364207539475
 20
503.9121192355032122
 30
0.0
 11
4139.3317561900548753
 21
503.8916467945032878
 31
0.0
  0
LINE
  5
EF55
  8
0
 10
4139.3639196006552083
 20
503.8359381331032978
 30
0.0
 11
4139.3757393699552267
 21
503.8154656922031904
 31
0.0
  0
LINE
  5
EF56
  8
0
 10
4139.4079027806546947
 20
503.7597570308033141
 30
0.0
 11
4139.4197225499556225
 21
503.739284589803276
 31
0.0
  0
LINE
  5
EF57
  8
0
 10
4139.451885960555046
 20
503.6835759284031724
 30
0.0
 11
4139.4637057298550644
 21
503.6631034875032924
 31
0.0
  0
LINE
  5
EF58
  8
0
 10
4139.4551818577547238
 20
503.7089696292031817
 30
0.0
 11
4139.4433620885547498
 21
503.7294420701032891
 31
0.0
  0
LINE
  5
EF59
  8
0
 10
4139.4111986778552819
 20
503.7851507315032222
 30
0.0
 11
4139.399378908556173
 21
503.8056231725033172
 31
0.0
  0
LINE
  5
EF5A
  8
0
 10
4139.3672154978548861
 20
503.8613318339033071
 30
0.0
 11
4139.3553957285539582
 21
503.8818042749031747
 31
0.0
  0
LINE
  5
EF5B
  8
0
 10
4139.3232323179554442
 20
503.9375129363032215
 30
0.0
 11
4139.3114125486554258
 21
503.9579853772032152
 31
0.0
  0
LINE
  5
EF5C
  8
0
 10
4139.2792491379550484
 20
504.0136940386033189
 30
0.0
 11
4139.26742936865503
 21
504.0341664796033001
 31
0.0
  0
LINE
  5
EF5D
  8
0
 10
4139.26742936865503
 20
504.0440089993031734
 30
0.0
 11
4139.2702706593554467
 21
504.0390877394032145
 31
0.0
  0
LINE
  5
EF5E
  8
0
 10
4139.3114125486554258
 20
503.9678278969033158
 30
0.0
 11
4139.3142538393540235
 21
503.962906637103174
 31
0.0
  0
LINE
  5
EF5F
  8
0
 10
4139.3553957285539582
 20
503.8916467945032878
 30
0.0
 11
4139.3582370192552844
 21
503.8867255347033165
 31
0.0
  0
LINE
  5
EF60
  8
0
 10
4139.399378908556173
 20
503.8154656922031904
 30
0.0
 11
4139.4022201992547707
 21
503.8105444323032884
 31
0.0
  0
LINE
  5
EF61
  8
0
 10
4139.4433620885547498
 20
503.739284589803276
 30
0.0
 11
4139.4462033792551665
 21
503.7343633300031911
 31
0.0
  0
LINE
  5
EF62
  8
0
 10
4139.4637057298550644
 20
503.7040483693032229
 30
0.0
 11
4139.4608644391546477
 21
503.7089696292031817
 31
0.0
  0
LINE
  5
EF63
  8
0
 10
4139.4197225499556225
 20
503.7802294717033078
 30
0.0
 11
4139.4168812592552058
 21
503.7851507315032222
 31
0.0
  0
LINE
  5
EF64
  8
0
 10
4139.3757393699552267
 20
503.8564105741032222
 30
0.0
 11
4139.37289807925481
 21
503.8613318339033071
 31
0.0
  0
LINE
  5
EF65
  8
0
 10
4139.3317561900548753
 20
503.9325916764032058
 30
0.0
 11
4139.3289148993553681
 21
503.9375129363032215
 31
0.0
  0
LINE
  5
EF66
  8
0
 10
4139.2877730100562985
 20
504.0087727788032907
 30
0.0
 11
4139.2849317193540628
 21
504.0136940386033189
 31
0.0
  0
LINE
  5
EF67
  8
0
 10
4139.2759532407553706
 20
504.0390877394032145
 30
0.0
 11
4139.2877730100562985
 21
504.0186152985032209
 31
0.0
  0
LINE
  5
EF68
  8
0
 10
4139.3199364207539475
 20
503.962906637103174
 30
0.0
 11
4139.3317561900548753
 21
503.9424341961033065
 31
0.0
  0
LINE
  5
EF69
  8
0
 10
4139.3639196006552083
 20
503.8867255347033165
 30
0.0
 11
4139.3757393699552267
 21
503.8662530938032091
 31
0.0
  0
LINE
  5
EF6A
  8
0
 10
4139.4079027806546947
 20
503.8105444323032884
 30
0.0
 11
4139.4197225499556225
 21
503.7900719914031811
 31
0.0
  0
LINE
  5
EF6B
  8
0
 10
4139.451885960555046
 20
503.7343633300031911
 30
0.0
 11
4139.4637057298550644
 21
503.7138908890033235
 31
0.0
  0
LINE
  5
EF6C
  8
0
 10
4139.4551818577547238
 20
503.7597570308033141
 30
0.0
 11
4139.4433620885547498
 21
503.7802294717033078
 31
0.0
  0
LINE
  5
EF6D
  8
0
 10
4139.4111986778552819
 20
503.8359381331032978
 30
0.0
 11
4139.399378908556173
 21
503.8564105741032222
 31
0.0
  0
LINE
  5
EF6E
  8
0
 10
4139.3672154978548861
 20
503.9121192355032122
 30
0.0
 11
4139.3553957285539582
 21
503.9325916764032058
 31
0.0
  0
LINE
  5
EF6F
  8
0
 10
4139.3232323179554442
 20
503.9883003378033095
 30
0.0
 11
4139.3114125486554258
 21
504.0087727788032907
 31
0.0
  0
LINE
  5
EF70
  8
0
 10
4139.2792491379550484
 20
504.0644814402032807
 30
0.0
 11
4139.2756565687659531
 21
504.0707039526030258
 31
0.0
  0
LINE
  5
EF71
  8
0
 10
4139.3114125486554258
 20
504.0186152985032209
 30
0.0
 11
4139.3142538393540235
 21
504.0136940386033189
 31
0.0
  0
LINE
  5
EF72
  8
0
 10
4139.3553957285539582
 20
503.9424341961033065
 30
0.0
 11
4139.3582370192552844
 21
503.9375129363032215
 31
0.0
  0
LINE
  5
EF73
  8
0
 10
4139.399378908556173
 20
503.8662530938032091
 30
0.0
 11
4139.4022201992547707
 21
503.8613318339033071
 31
0.0
  0
LINE
  5
EF74
  8
0
 10
4139.4433620885547498
 20
503.7900719914031811
 30
0.0
 11
4139.4462033792551665
 21
503.7851507315032222
 31
0.0
  0
LINE
  5
EF75
  8
0
 10
4139.4637057298550644
 20
503.7548357709032985
 30
0.0
 11
4139.4608644391546477
 21
503.7597570308033141
 31
0.0
  0
LINE
  5
EF76
  8
0
 10
4139.4197225499556225
 20
503.8310168733032128
 30
0.0
 11
4139.4168812592552058
 21
503.8359381331032978
 31
0.0
  0
LINE
  5
EF77
  8
0
 10
4139.3757393699552267
 20
503.9071979756033102
 30
0.0
 11
4139.37289807925481
 21
503.9121192355032122
 31
0.0
  0
LINE
  5
EF78
  8
0
 10
4139.3317561900548753
 20
503.9833790780032814
 30
0.0
 11
4139.3289148993553681
 21
503.9883003378033095
 31
0.0
  0
LINE
  5
EF79
  8
0
 10
4139.2877730100562985
 20
504.0595601804031958
 30
0.0
 11
4139.2849317193540628
 21
504.0644814402032807
 31
0.0
  0
LINE
  5
EF7A
  8
0
 10
4139.2827423764592822
 20
504.0781160130218836
 30
0.0
 11
4139.2877730100562985
 21
504.0694027001031827
 31
0.0
  0
LINE
  5
EF7B
  8
0
 10
4139.3199364207539475
 20
504.0136940386033189
 30
0.0
 11
4139.3317561900548753
 21
503.9932215977033252
 31
0.0
  0
LINE
  5
EF7C
  8
0
 10
4139.3639196006552083
 20
503.9375129363032215
 30
0.0
 11
4139.3757393699552267
 21
503.9170404953032971
 31
0.0
  0
LINE
  5
EF7D
  8
0
 10
4139.4079027806546947
 20
503.8613318339033071
 30
0.0
 11
4139.4197225499556225
 21
503.8408593930033135
 31
0.0
  0
LINE
  5
EF7E
  8
0
 10
4139.451885960555046
 20
503.7851507315032222
 30
0.0
 11
4139.4637057298550644
 21
503.7646782906031717
 31
0.0
  0
LINE
  5
EF7F
  8
0
 10
4139.4551818577547238
 20
503.8105444323032884
 30
0.0
 11
4139.4433620885547498
 21
503.8310168733032128
 31
0.0
  0
LINE
  5
EF80
  8
0
 10
4139.4111986778552819
 20
503.8867255347033165
 30
0.0
 11
4139.399378908556173
 21
503.9071979756033102
 31
0.0
  0
LINE
  5
EF81
  8
0
 10
4139.3672154978548861
 20
503.962906637103174
 30
0.0
 11
4139.3553957285539582
 21
503.9833790780032814
 31
0.0
  0
LINE
  5
EF82
  8
0
 10
4139.3232323179554442
 20
504.0390877394032145
 30
0.0
 11
4139.3114125486554258
 21
504.0595601804031958
 31
0.0
  0
LINE
  5
EF83
  8
0
 10
4139.3114125486554258
 20
504.0694027001031827
 30
0.0
 11
4139.3142538393540235
 21
504.0644814402032807
 31
0.0
  0
LINE
  5
EF84
  8
0
 10
4139.3553957285539582
 20
503.9932215977033252
 30
0.0
 11
4139.3582370192552844
 21
503.9883003378033095
 31
0.0
  0
LINE
  5
EF85
  8
0
 10
4139.399378908556173
 20
503.9170404953032971
 30
0.0
 11
4139.4022201992547707
 21
503.9121192355032122
 31
0.0
  0
LINE
  5
EF86
  8
0
 10
4139.4433620885547498
 20
503.8408593930033135
 30
0.0
 11
4139.4462033792551665
 21
503.8359381331032978
 31
0.0
  0
LINE
  5
EF87
  8
0
 10
4139.4637057298550644
 20
503.8056231725033172
 30
0.0
 11
4139.4608644391546477
 21
503.8105444323032884
 31
0.0
  0
LINE
  5
EF88
  8
0
 10
4139.4197225499556225
 20
503.8818042749031747
 30
0.0
 11
4139.4168812592552058
 21
503.8867255347033165
 31
0.0
  0
LINE
  5
EF89
  8
0
 10
4139.3757393699552267
 20
503.9579853772032152
 30
0.0
 11
4139.37289807925481
 21
503.962906637103174
 31
0.0
  0
LINE
  5
EF8A
  8
0
 10
4139.3317561900548753
 20
504.0341664796033001
 30
0.0
 11
4139.3289148993553681
 21
504.0390877394032145
 31
0.0
  0
LINE
  5
EF8B
  8
0
 10
4139.3199364207539475
 20
504.0644814402032807
 30
0.0
 11
4139.3317561900548753
 21
504.0440089993031734
 31
0.0
  0
LINE
  5
EF8C
  8
0
 10
4139.3639196006552083
 20
503.9883003378033095
 30
0.0
 11
4139.3757393699552267
 21
503.9678278969033158
 31
0.0
  0
LINE
  5
EF8D
  8
0
 10
4139.4079027806546947
 20
503.9121192355032122
 30
0.0
 11
4139.4197225499556225
 21
503.8916467945032878
 31
0.0
  0
LINE
  5
EF8E
  8
0
 10
4139.451885960555046
 20
503.8359381331032978
 30
0.0
 11
4139.4637057298550644
 21
503.8154656922031904
 31
0.0
  0
LINE
  5
EF8F
  8
0
 10
4139.4551818577547238
 20
503.8613318339033071
 30
0.0
 11
4139.4433620885547498
 21
503.8818042749031747
 31
0.0
  0
LINE
  5
EF90
  8
0
 10
4139.4111986778552819
 20
503.9375129363032215
 30
0.0
 11
4139.399378908556173
 21
503.9579853772032152
 31
0.0
  0
LINE
  5
EF91
  8
0
 10
4139.3672154978548861
 20
504.0136940386033189
 30
0.0
 11
4139.3553957285539582
 21
504.0341664796033001
 31
0.0
  0
LINE
  5
EF92
  8
0
 10
4139.3232323179554442
 20
504.0898751410032901
 30
0.0
 11
4139.3142935945361387
 21
504.1053574640288275
 31
0.0
  0
LINE
  5
EF93
  8
0
 10
4139.3553957285539582
 20
504.0440089993031734
 30
0.0
 11
4139.3582370192552844
 21
504.0390877394032145
 31
0.0
  0
LINE
  5
EF94
  8
0
 10
4139.399378908556173
 20
503.9678278969033158
 30
0.0
 11
4139.4022201992547707
 21
503.962906637103174
 31
0.0
  0
LINE
  5
EF95
  8
0
 10
4139.4637057298550644
 20
503.8564105741032222
 30
0.0
 11
4139.4433620885547498
 21
503.8916467945032878
 31
0.0
  0
LINE
  5
EF96
  8
0
 10
4139.4197225499556225
 20
503.9325916764032058
 30
0.0
 11
4139.4168812592552058
 21
503.9375129363032215
 31
0.0
  0
LINE
  5
EF97
  8
0
 10
4139.3757393699552267
 20
504.0087727788032907
 30
0.0
 11
4139.37289807925481
 21
504.0136940386033189
 31
0.0
  0
LINE
  5
EF98
  8
0
 10
4139.3317561900548753
 20
504.0849538812032051
 30
0.0
 11
4139.3289148993553681
 21
504.0898751410032901
 31
0.0
  0
LINE
  5
EF99
  8
0
 10
4139.3223553354791875
 20
504.1110791585801962
 30
0.0
 11
4139.3317561900548753
 21
504.0947964008033182
 31
0.0
  0
LINE
  5
EF9A
  8
0
 10
4139.3639196006552083
 20
504.0390877394032145
 30
0.0
 11
4139.3757393699552267
 21
504.0186152985032209
 31
0.0
  0
LINE
  5
EF9B
  8
0
 10
4139.4079027806546947
 20
503.962906637103174
 30
0.0
 11
4139.4197225499556225
 21
503.9424341961033065
 31
0.0
  0
LINE
  5
EF9C
  8
0
 10
4139.4551818577547238
 20
503.9121192355032122
 30
0.0
 11
4139.4433620885547498
 21
503.9325916764032058
 31
0.0
  0
LINE
  5
EF9D
  8
0
 10
4139.4111986778552819
 20
503.9883003378033095
 30
0.0
 11
4139.399378908556173
 21
504.0087727788032907
 31
0.0
  0
LINE
  5
EF9E
  8
0
 10
4139.3672154978548861
 20
504.0644814402032807
 30
0.0
 11
4139.3553957285539582
 21
504.0849538812032051
 31
0.0
  0
LINE
  5
EF9F
  8
0
 10
4139.3553957285539582
 20
504.0947964008033182
 30
0.0
 11
4139.3582370192552844
 21
504.0898751410032901
 31
0.0
  0
LINE
  5
EFA0
  8
0
 10
4139.399378908556173
 20
504.0186152985032209
 30
0.0
 11
4139.4022201992547707
 21
504.0136940386033189
 31
0.0
  0
LINE
  5
EFA1
  8
0
 10
4139.4433620885547498
 20
503.9424341961033065
 30
0.0
 11
4139.4462033792551665
 21
503.9375129363032215
 31
0.0
  0
LINE
  5
EFA2
  8
0
 10
4139.4197225499556225
 20
503.9833790780032814
 30
0.0
 11
4139.4168812592552058
 21
503.9883003378033095
 31
0.0
  0
LINE
  5
EFA3
  8
0
 10
4139.3757393699552267
 20
504.0595601804031958
 30
0.0
 11
4139.37289807925481
 21
504.0644814402032807
 31
0.0
  0
LINE
  5
EFA4
  8
0
 10
4139.3639196006552083
 20
504.0898751410032901
 30
0.0
 11
4139.3757393699552267
 21
504.0694027001031827
 31
0.0
  0
LINE
  5
EFA5
  8
0
 10
4139.4079027806546947
 20
504.0136940386033189
 30
0.0
 11
4139.4197225499556225
 21
503.9932215977033252
 31
0.0
  0
LINE
  5
EFA6
  8
0
 10
4139.451885960555046
 20
503.9375129363032215
 30
0.0
 11
4139.4637057298550644
 21
503.9170404953032971
 31
0.0
  0
LINE
  5
EFA7
  8
0
 10
4139.4551818577547238
 20
503.962906637103174
 30
0.0
 11
4139.4433620885547498
 21
503.9833790780032814
 31
0.0
  0
LINE
  5
EFA8
  8
0
 10
4139.4111986778552819
 20
504.0390877394032145
 30
0.0
 11
4139.399378908556173
 21
504.0595601804031958
 31
0.0
  0
LINE
  5
EFA9
  8
0
 10
4139.3672154978548861
 20
504.1152688418032994
 30
0.0
 11
4139.3578146433583242
 21
504.1315515995228793
 31
0.0
  0
LINE
  5
EFAA
  8
0
 10
4139.399378908556173
 20
504.0694027001031827
 30
0.0
 11
4139.4022201992547707
 21
504.0644814402032807
 31
0.0
  0
LINE
  5
EFAB
  8
0
 10
4139.4433620885547498
 20
503.9932215977033252
 30
0.0
 11
4139.4462033792551665
 21
503.9883003378033095
 31
0.0
  0
LINE
  5
EFAC
  8
0
 10
4139.4637057298550644
 20
503.9579853772032152
 30
0.0
 11
4139.4608644391546477
 21
503.962906637103174
 31
0.0
  0
LINE
  5
EFAD
  8
0
 10
4139.4197225499556225
 20
504.0341664796033001
 30
0.0
 11
4139.4168812592552058
 21
504.0390877394032145
 31
0.0
  0
LINE
  5
EFAE
  8
0
 10
4139.3757393699552267
 20
504.1103475819032269
 30
0.0
 11
4139.37289807925481
 21
504.1152688418032994
 31
0.0
  0
LINE
  5
EFAF
  8
0
 10
4139.3668006466514271
 20
504.1356724246928138
 30
0.0
 11
4139.3757393699552267
 21
504.1201901016032139
 31
0.0
  0
LINE
  5
EFB0
  8
0
 10
4139.4079027806546947
 20
504.0644814402032807
 30
0.0
 11
4139.4197225499556225
 21
504.0440089993031734
 31
0.0
  0
LINE
  5
EFB1
  8
0
 10
4139.451885960555046
 20
503.9883003378033095
 30
0.0
 11
4139.4637057298550644
 21
503.9678278969033158
 31
0.0
  0
LINE
  5
EFB2
  8
0
 10
4139.4551818577547238
 20
504.0136940386033189
 30
0.0
 11
4139.4433620885547498
 21
504.0341664796033001
 31
0.0
  0
LINE
  5
EFB3
  8
0
 10
4139.4111986778552819
 20
504.0898751410032901
 30
0.0
 11
4139.399378908556173
 21
504.1103475819032269
 31
0.0
  0
LINE
  5
EFB4
  8
0
 10
4139.399378908556173
 20
504.1201901016032139
 30
0.0
 11
4139.4022201992547707
 21
504.1152688418032994
 31
0.0
  0
LINE
  5
EFB5
  8
0
 10
4139.4433620885547498
 20
504.0440089993031734
 30
0.0
 11
4139.4462033792551665
 21
504.0390877394032145
 31
0.0
  0
LINE
  5
EFB6
  8
0
 10
4139.4637057298550644
 20
504.0087727788032907
 30
0.0
 11
4139.4608644391546477
 21
504.0136940386033189
 31
0.0
  0
LINE
  5
EFB7
  8
0
 10
4139.4197225499556225
 20
504.0849538812032051
 30
0.0
 11
4139.4168812592552058
 21
504.0898751410032901
 31
0.0
  0
LINE
  5
EFB8
  8
0
 10
4139.4079027806546947
 20
504.1152688418032994
 30
0.0
 11
4139.4197225499556225
 21
504.0947964008033182
 31
0.0
  0
LINE
  5
EFB9
  8
0
 10
4139.451885960555046
 20
504.0390877394032145
 30
0.0
 11
4139.4637057298550644
 21
504.0186152985032209
 31
0.0
  0
LINE
  5
EFBA
  8
0
 10
4139.4433620885547498
 20
503.6278672670031824
 30
0.0
 11
4139.4197225499556225
 21
503.6278672670031824
 31
0.0
  0
LINE
  5
EFBB
  8
0
 10
4139.451885960555046
 20
503.6327885268033242
 30
0.0
 11
4139.4462033792551665
 21
503.6327885268033242
 31
0.0
  0
LINE
  5
EFBC
  8
0
 10
4139.4111986778552819
 20
503.6327885268033242
 30
0.0
 11
4139.4168812592552058
 21
503.6327885268033242
 31
0.0
  0
LINE
  5
EFBD
  8
0
 10
4139.6856458343818304
 20
503.5868768847882961
 30
0.0
 11
4139.6619889824733036
 21
503.6206623707296899
 31
0.0
  0
LINE
  5
EFBE
  8
0
 10
4139.2893901163779447
 20
504.1527886987237252
 30
0.0
 11
4139.2656253226514309
 21
504.1867283414155168
 31
0.0
  0
LINE
  5
EFBF
  8
0
 10
4139.4551818577547238
 20
504.0644814402032807
 30
0.0
 11
4139.4433620885547498
 21
504.0849538812032051
 31
0.0
  0
LINE
  5
EFC0
  8
0
 10
4139.4111986778552819
 20
504.1406625426033088
 30
0.0
 11
4139.4061680442937359
 21
504.1493758555532168
 31
0.0
  0
LINE
  5
EFC1
  8
0
 10
4139.4433620885547498
 20
504.0947964008033182
 30
0.0
 11
4139.4462033792551665
 21
504.0898751410032901
 31
0.0
  0
LINE
  5
EFC2
  8
0
 10
4139.4637057298550644
 20
504.0595601804031958
 30
0.0
 11
4139.4608644391546477
 21
504.0644814402032807
 31
0.0
  0
LINE
  5
EFC3
  8
0
 10
4139.4197225499556225
 20
504.1357412827031794
 30
0.0
 11
4139.4168812592552058
 21
504.1406625426033088
 31
0.0
  0
LINE
  5
EFC4
  8
0
 10
4139.416129980732876
 20
504.1518063148038777
 30
0.0
 11
4139.4197225499556225
 21
504.1455838024032801
 31
0.0
  0
LINE
  5
EFC5
  8
0
 10
4139.451885960555046
 20
504.0898751410032901
 30
0.0
 11
4139.4637057298550644
 21
504.0694027001031827
 31
0.0
  0
LINE
  5
EFC6
  8
0
 10
4139.4551818577547238
 20
504.1152688418032994
 30
0.0
 11
4139.4433620885547498
 21
504.1357412827031794
 31
0.0
  0
LINE
  5
EFC7
  8
0
 10
4139.4433620885547498
 20
504.1455838024032801
 30
0.0
 11
4139.4462033792551665
 21
504.1406625426033088
 31
0.0
  0
LINE
  5
EFC8
  8
0
 10
4139.4637057298550644
 20
504.1103475819032269
 30
0.0
 11
4139.4608644391546477
 21
504.1152688418032994
 31
0.0
  0
LINE
  5
EFC9
  8
0
 10
4139.451885960555046
 20
504.1406625426033088
 30
0.0
 11
4139.4637057298550644
 21
504.1201901016032139
 31
0.0
  0
LINE
  5
EFCA
  8
0
 10
4139.4197225499556225
 20
503.6377097867032262
 30
0.0
 11
4139.4433620885547498
 21
503.6377097867032262
 31
0.0
  0
LINE
  5
EFCB
  8
0
 10
4139.4873452684551012
 20
503.6532609678031918
 30
0.0
 11
4139.4637057298550644
 21
503.6532609678031918
 31
0.0
  0
LINE
  5
EFCC
  8
0
 10
4139.399378908556173
 20
503.6532609678031918
 30
0.0
 11
4139.3757393699552267
 21
503.6532609678031918
 31
0.0
  0
LINE
  5
EFCD
  8
0
 10
4139.4079027806546947
 20
503.6581822276032767
 30
0.0
 11
4139.4022201992547707
 21
503.6581822276032767
 31
0.0
  0
LINE
  5
EFCE
  8
0
 10
4139.3672154978548861
 20
503.6581822276032767
 30
0.0
 11
4139.3728980357545879
 21
503.6581822285032217
 31
0.0
  0
LINE
  5
EFCF
  8
0
 10
4139.4551818577547238
 20
503.6581822276032767
 30
0.0
 11
4139.4608644391546477
 21
503.6581822276032767
 31
0.0
  0
LINE
  5
EFD0
  8
0
 10
4139.3757393699552267
 20
503.6631034875032924
 30
0.0
 11
4139.399378908556173
 21
503.6631034875032924
 31
0.0
  0
LINE
  5
EFD1
  8
0
 10
4139.4637057298550644
 20
503.6631034875032924
 30
0.0
 11
4139.4873452684551012
 21
503.6631034875032924
 31
0.0
  0
LINE
  5
EFD2
  8
0
 10
4139.4433620885547498
 20
503.6786546686033148
 30
0.0
 11
4139.4197225499556225
 21
503.6786546686033148
 31
0.0
  0
LINE
  5
EFD3
  8
0
 10
4139.3553957285539582
 20
503.6786546686033148
 30
0.0
 11
4139.3317561900548753
 21
503.6786546686033148
 31
0.0
  0
LINE
  5
EFD4
  8
0
 10
4139.3232323179554442
 20
503.6835759284031724
 30
0.0
 11
4139.3289149425545475
 21
503.6835759275032842
 31
0.0
  0
LINE
  5
EFD5
  8
0
 10
4139.451885960555046
 20
503.6835759284031724
 30
0.0
 11
4139.4462033792551665
 21
503.6835759284031724
 31
0.0
  0
LINE
  5
EFD6
  8
0
 10
4139.3639196006552083
 20
503.6835759284031724
 30
0.0
 11
4139.3582370192552844
 21
503.6835759284031724
 31
0.0
  0
LINE
  5
EFD7
  8
0
 10
4139.4111986778552819
 20
503.6835759284031724
 30
0.0
 11
4139.4168812592552058
 21
503.6835759284031724
 31
0.0
  0
LINE
  5
EFD8
  8
0
 10
4139.3317561900548753
 20
503.6884971882033142
 30
0.0
 11
4139.3553957285539582
 21
503.6884971882033142
 31
0.0
  0
LINE
  5
EFD9
  8
0
 10
4139.4197225499556225
 20
503.6884971882033142
 30
0.0
 11
4139.4433620885547498
 21
503.6884971882033142
 31
0.0
  0
LINE
  5
EFDA
  8
0
 10
4139.4873452684551012
 20
503.7040483693032229
 30
0.0
 11
4139.4637057298550644
 21
503.7040483693032229
 31
0.0
  0
LINE
  5
EFDB
  8
0
 10
4139.399378908556173
 20
503.7040483693032229
 30
0.0
 11
4139.3757393699552267
 21
503.7040483693032229
 31
0.0
  0
LINE
  5
EFDC
  8
0
 10
4139.3114125486554258
 20
503.7040483693032229
 30
0.0
 11
4139.2877730100562985
 21
503.7040483693032229
 31
0.0
  0
LINE
  5
EFDD
  8
0
 10
4139.4079027806546947
 20
503.7089696292031817
 30
0.0
 11
4139.4022201992547707
 21
503.7089696292031817
 31
0.0
  0
LINE
  5
EFDE
  8
0
 10
4139.3199364207539475
 20
503.7089696292031817
 30
0.0
 11
4139.3142538393540235
 21
503.7089696292031817
 31
0.0
  0
LINE
  5
EFDF
  8
0
 10
4139.2792491379550484
 20
503.7089696292031817
 30
0.0
 11
4139.2849317193540628
 21
503.7089696292031817
 31
0.0
  0
LINE
  5
EFE0
  8
0
 10
4139.3672154978548861
 20
503.7089696292031817
 30
0.0
 11
4139.37289807925481
 21
503.7089696292031817
 31
0.0
  0
LINE
  5
EFE1
  8
0
 10
4139.4551818577547238
 20
503.7089696292031817
 30
0.0
 11
4139.4608644391546477
 21
503.7089696292031817
 31
0.0
  0
LINE
  5
EFE2
  8
0
 10
4139.2877730100562985
 20
503.7138908890033235
 30
0.0
 11
4139.3114125486554258
 21
503.7138908890033235
 31
0.0
  0
LINE
  5
EFE3
  8
0
 10
4139.3757393699552267
 20
503.7138908890033235
 30
0.0
 11
4139.399378908556173
 21
503.7138908890033235
 31
0.0
  0
LINE
  5
EFE4
  8
0
 10
4139.4637057298550644
 20
503.7138908890033235
 30
0.0
 11
4139.4873452684551012
 21
503.7138908890033235
 31
0.0
  0
LINE
  5
EFE5
  8
0
 10
4139.4433620885547498
 20
503.7294420701032891
 30
0.0
 11
4139.4197225499556225
 21
503.7294420701032891
 31
0.0
  0
LINE
  5
EFE6
  8
0
 10
4139.3553957285539582
 20
503.7294420701032891
 30
0.0
 11
4139.3317561900548753
 21
503.7294420701032891
 31
0.0
  0
LINE
  5
EFE7
  8
0
 10
4139.26742936865503
 20
503.7294420701032891
 30
0.0
 11
4139.2540360877801504
 21
503.7294420701032891
 31
0.0
  0
LINE
  5
EFE8
  8
0
 10
4139.451885960555046
 20
503.7343633300031911
 30
0.0
 11
4139.4462033792551665
 21
503.7343633300031911
 31
0.0
  0
LINE
  5
EFE9
  8
0
 10
4139.3639196006552083
 20
503.7343633300031911
 30
0.0
 11
4139.3582370192552844
 21
503.7343633300031911
 31
0.0
  0
LINE
  5
EFEA
  8
0
 10
4139.2759532407553706
 20
503.7343633300031911
 30
0.0
 11
4139.2702706593554467
 21
503.7343633300031911
 31
0.0
  0
LINE
  5
EFEB
  8
0
 10
4139.3232323179554442
 20
503.7343633300031911
 30
0.0
 11
4139.3289148993553681
 21
503.7343633300031911
 31
0.0
  0
LINE
  5
EFEC
  8
0
 10
4139.4111986778552819
 20
503.7343633300031911
 30
0.0
 11
4139.4168812592552058
 21
503.7343633300031911
 31
0.0
  0
LINE
  5
EFED
  8
0
 10
4139.2473658722392429
 20
503.739284589803276
 30
0.0
 11
4139.26742936865503
 21
503.739284589803276
 31
0.0
  0
LINE
  5
EFEE
  8
0
 10
4139.3317561900548753
 20
503.739284589803276
 30
0.0
 11
4139.3553957285539582
 21
503.739284589803276
 31
0.0
  0
LINE
  5
EFEF
  8
0
 10
4139.4197225499556225
 20
503.739284589803276
 30
0.0
 11
4139.4433620885547498
 21
503.739284589803276
 31
0.0
  0
LINE
  5
EFF0
  8
0
 10
4139.4873452684551012
 20
503.7548357709032985
 30
0.0
 11
4139.4637057298550644
 21
503.7548357709032985
 31
0.0
  0
LINE
  5
EFF1
  8
0
 10
4139.399378908556173
 20
503.7548357709032985
 30
0.0
 11
4139.3757393699552267
 21
503.7548357709032985
 31
0.0
  0
LINE
  5
EFF2
  8
0
 10
4139.3114125486554258
 20
503.7548357709032985
 30
0.0
 11
4139.2877730100562985
 21
503.7548357709032985
 31
0.0
  0
LINE
  5
EFF3
  8
0
 10
4139.4079027806546947
 20
503.7597570308033141
 30
0.0
 11
4139.4022201992547707
 21
503.7597570308033141
 31
0.0
  0
LINE
  5
EFF4
  8
0
 10
4139.3199364207539475
 20
503.7597570308033141
 30
0.0
 11
4139.3142538393540235
 21
503.7597570308033141
 31
0.0
  0
LINE
  5
EFF5
  8
0
 10
4139.2792491379550484
 20
503.7597570308033141
 30
0.0
 11
4139.2849317193540628
 21
503.7597570308033141
 31
0.0
  0
LINE
  5
EFF6
  8
0
 10
4139.3672154978548861
 20
503.7597570308033141
 30
0.0
 11
4139.37289807925481
 21
503.7597570308033141
 31
0.0
  0
LINE
  5
EFF7
  8
0
 10
4139.4551818577547238
 20
503.7597570308033141
 30
0.0
 11
4139.4608644391546477
 21
503.7597570308033141
 31
0.0
  0
LINE
  5
EFF8
  8
0
 10
4139.2877730100562985
 20
503.7646782906031717
 30
0.0
 11
4139.3114125486554258
 21
503.7646782906031717
 31
0.0
  0
LINE
  5
EFF9
  8
0
 10
4139.3757393699552267
 20
503.7646782906031717
 30
0.0
 11
4139.399378908556173
 21
503.7646782906031717
 31
0.0
  0
LINE
  5
EFFA
  8
0
 10
4139.4637057298550644
 20
503.7646782906031717
 30
0.0
 11
4139.4873452684551012
 21
503.7646782906031717
 31
0.0
  0
LINE
  5
EFFB
  8
0
 10
4139.4433620885547498
 20
503.7802294717033078
 30
0.0
 11
4139.4197225499556225
 21
503.7802294717033078
 31
0.0
  0
LINE
  5
EFFC
  8
0
 10
4139.3553957285539582
 20
503.7802294717033078
 30
0.0
 11
4139.3317561900548753
 21
503.7802294717033078
 31
0.0
  0
LINE
  5
EFFD
  8
0
 10
4139.26742936865503
 20
503.7802294717033078
 30
0.0
 11
4139.2437898301550376
 21
503.7802294717033078
 31
0.0
  0
LINE
  5
EFFE
  8
0
 10
4139.451885960555046
 20
503.7851507315032222
 30
0.0
 11
4139.4462033792551665
 21
503.7851507315032222
 31
0.0
  0
LINE
  5
EFFF
  8
0
 10
4139.3639196006552083
 20
503.7851507315032222
 30
0.0
 11
4139.3582370192552844
 21
503.7851507315032222
 31
0.0
  0
LINE
  5
F000
  8
0
 10
4139.2759532407553706
 20
503.7851507315032222
 30
0.0
 11
4139.2702706593554467
 21
503.7851507315032222
 31
0.0
  0
LINE
  5
F001
  8
0
 10
4139.235265958054697
 20
503.7851507315032222
 30
0.0
 11
4139.2409485394546209
 21
503.7851507315032222
 31
0.0
  0
LINE
  5
F002
  8
0
 10
4139.3232323179554442
 20
503.7851507315032222
 30
0.0
 11
4139.3289148993553681
 21
503.7851507315032222
 31
0.0
  0
LINE
  5
F003
  8
0
 10
4139.4111986778552819
 20
503.7851507315032222
 30
0.0
 11
4139.4168812592552058
 21
503.7851507315032222
 31
0.0
  0
LINE
  5
F004
  8
0
 10
4139.2437898301550376
 20
503.7900719914031811
 30
0.0
 11
4139.26742936865503
 21
503.7900719914031811
 31
0.0
  0
LINE
  5
F005
  8
0
 10
4139.3317561900548753
 20
503.7900719914031811
 30
0.0
 11
4139.3553957285539582
 21
503.7900719914031811
 31
0.0
  0
LINE
  5
F006
  8
0
 10
4139.4197225499556225
 20
503.7900719914031811
 30
0.0
 11
4139.4433620885547498
 21
503.7900719914031811
 31
0.0
  0
LINE
  5
F007
  8
0
 10
4139.4873452684551012
 20
503.8056231725033172
 30
0.0
 11
4139.4637057298550644
 21
503.8056231725033172
 31
0.0
  0
LINE
  5
F008
  8
0
 10
4139.399378908556173
 20
503.8056231725033172
 30
0.0
 11
4139.3757393699552267
 21
503.8056231725033172
 31
0.0
  0
LINE
  5
F009
  8
0
 10
4139.3114125486554258
 20
503.8056231725033172
 30
0.0
 11
4139.2877730100562985
 21
503.8056231725033172
 31
0.0
  0
LINE
  5
F00A
  8
0
 10
4139.2234461887546786
 20
503.8056231725033172
 30
0.0
 11
4139.216261050313733
 21
503.8056231725033172
 31
0.0
  0
LINE
  5
F00B
  8
0
 10
4139.4079027806546947
 20
503.8105444323032884
 30
0.0
 11
4139.4022201992547707
 21
503.8105444323032884
 31
0.0
  0
LINE
  5
F00C
  8
0
 10
4139.3199364207539475
 20
503.8105444323032884
 30
0.0
 11
4139.3142538393540235
 21
503.8105444323032884
 31
0.0
  0
LINE
  5
F00D
  8
0
 10
4139.2319700608550193
 20
503.8105444323032884
 30
0.0
 11
4139.2262874794550953
 21
503.8105444323032884
 31
0.0
  0
LINE
  5
F00E
  8
0
 10
4139.2792491379550484
 20
503.8105444323032884
 30
0.0
 11
4139.2849317193540628
 21
503.8105444323032884
 31
0.0
  0
LINE
  5
F00F
  8
0
 10
4139.3672154978548861
 20
503.8105444323032884
 30
0.0
 11
4139.37289807925481
 21
503.8105444323032884
 31
0.0
  0
LINE
  5
F010
  8
0
 10
4139.4551818577547238
 20
503.8105444323032884
 30
0.0
 11
4139.4608644391546477
 21
503.8105444323032884
 31
0.0
  0
LINE
  5
F011
  8
0
 10
4139.2133849215360897
 20
503.8154656922031904
 30
0.0
 11
4139.2234461887546786
 21
503.8154656922031904
 31
0.0
  0
LINE
  5
F012
  8
0
 10
4139.2877730100562985
 20
503.8154656922031904
 30
0.0
 11
4139.3114125486554258
 21
503.8154656922031904
 31
0.0
  0
LINE
  5
F013
  8
0
 10
4139.3757393699552267
 20
503.8154656922031904
 30
0.0
 11
4139.399378908556173
 21
503.8154656922031904
 31
0.0
  0
LINE
  5
F014
  8
0
 10
4139.4637057298550644
 20
503.8154656922031904
 30
0.0
 11
4139.4873452684551012
 21
503.8154656922031904
 31
0.0
  0
LINE
  5
F015
  8
0
 10
4139.4433620885547498
 20
503.8310168733032128
 30
0.0
 11
4139.4197225499556225
 21
503.8310168733032128
 31
0.0
  0
LINE
  5
F016
  8
0
 10
4139.3553957285539582
 20
503.8310168733032128
 30
0.0
 11
4139.3317561900548753
 21
503.8310168733032128
 31
0.0
  0
LINE
  5
F017
  8
0
 10
4139.26742936865503
 20
503.8310168733032128
 30
0.0
 11
4139.2437898301550376
 21
503.8310168733032128
 31
0.0
  0
LINE
  5
F018
  8
0
 10
4139.451885960555046
 20
503.8359381331032978
 30
0.0
 11
4139.4462033792551665
 21
503.8359381331032978
 31
0.0
  0
LINE
  5
F019
  8
0
 10
4139.3639196006552083
 20
503.8359381331032978
 30
0.0
 11
4139.3582370192552844
 21
503.8359381331032978
 31
0.0
  0
LINE
  5
F01A
  8
0
 10
4139.2759532407553706
 20
503.8359381331032978
 30
0.0
 11
4139.2702706593554467
 21
503.8359381331032978
 31
0.0
  0
LINE
  5
F01B
  8
0
 10
4139.235265958054697
 20
503.8359381331032978
 30
0.0
 11
4139.2409485394546209
 21
503.8359381331032978
 31
0.0
  0
LINE
  5
F01C
  8
0
 10
4139.3232323179554442
 20
503.8359381331032978
 30
0.0
 11
4139.3289148993553681
 21
503.8359381331032978
 31
0.0
  0
LINE
  5
F01D
  8
0
 10
4139.4111986778552819
 20
503.8359381331032978
 30
0.0
 11
4139.4168812592552058
 21
503.8359381331032978
 31
0.0
  0
LINE
  5
F01E
  8
0
 10
4139.2437898301550376
 20
503.8408593930033135
 30
0.0
 11
4139.26742936865503
 21
503.8408593930033135
 31
0.0
  0
LINE
  5
F01F
  8
0
 10
4139.3317561900548753
 20
503.8408593930033135
 30
0.0
 11
4139.3553957285539582
 21
503.8408593930033135
 31
0.0
  0
LINE
  5
F020
  8
0
 10
4139.4197225499556225
 20
503.8408593930033135
 30
0.0
 11
4139.4433620885547498
 21
503.8408593930033135
 31
0.0
  0
LINE
  5
F021
  8
0
 10
4139.209626385419142
 20
504.0730249677848178
 30
0.0
 11
4139.1756537314204252
 21
504.096812876176898
 31
0.0
  0
LINE
  5
F022
  8
0
 10
4139.7416987313263235
 20
503.7003490310409006
 30
0.0
 11
4139.7754512476685704
 21
503.6767152646930867
 31
0.0
  0
LINE
  5
F023
  8
0
 10
4139.1149512303009033
 20
503.8231176360412178
 30
0.0
 11
4139.1558208894593918
 21
503.8303240596974888
 31
0.0
  0
LINE
  5
F024
  8
0
 10
4139.7955582093272824
 20
503.9431270096919206
 30
0.0
 11
4139.8361096614507915
 21
503.9502773248622134
 31
0.0
  0
LINE
  5
F025
  8
0
 10
4139.4873452684551012
 20
503.8564105741032222
 30
0.0
 11
4139.4637057298550644
 21
503.8564105741032222
 31
0.0
  0
LINE
  5
F026
  8
0
 10
4139.399378908556173
 20
503.8564105741032222
 30
0.0
 11
4139.3757393699552267
 21
503.8564105741032222
 31
0.0
  0
LINE
  5
F027
  8
0
 10
4139.3114125486554258
 20
503.8564105741032222
 30
0.0
 11
4139.2877730100562985
 21
503.8564105741032222
 31
0.0
  0
LINE
  5
F028
  8
0
 10
4139.2234461887546786
 20
503.8564105741032222
 30
0.0
 11
4139.2055687419669994
 21
503.8564105741032222
 31
0.0
  0
LINE
  5
F029
  8
0
 10
4139.4079027806546947
 20
503.8613318339033071
 30
0.0
 11
4139.4022201992547707
 21
503.8613318339033071
 31
0.0
  0
LINE
  5
F02A
  8
0
 10
4139.3199364207539475
 20
503.8613318339033071
 30
0.0
 11
4139.3142538393540235
 21
503.8613318339033071
 31
0.0
  0
LINE
  5
F02B
  8
0
 10
4139.2319700608550193
 20
503.8613318339033071
 30
0.0
 11
4139.2262874794550953
 21
503.8613318339033071
 31
0.0
  0
LINE
  5
F02C
  8
0
 10
4139.2792491379550484
 20
503.8613318339033071
 30
0.0
 11
4139.2849317193540628
 21
503.8613318339033071
 31
0.0
  0
LINE
  5
F02D
  8
0
 10
4139.3672154978548861
 20
503.8613318339033071
 30
0.0
 11
4139.37289807925481
 21
503.8613318339033071
 31
0.0
  0
LINE
  5
F02E
  8
0
 10
4139.4551818577547238
 20
503.8613318339033071
 30
0.0
 11
4139.4958691405563513
 21
503.8613318339033071
 31
0.0
  0
LINE
  5
F02F
  8
0
 10
4139.2046444796069409
 20
503.8662530938032091
 30
0.0
 11
4139.2234461887546786
 21
503.8662530938032091
 31
0.0
  0
LINE
  5
F030
  8
0
 10
4139.2877730100562985
 20
503.8662530938032091
 30
0.0
 11
4139.3114125486554258
 21
503.8662530938032091
 31
0.0
  0
LINE
  5
F031
  8
0
 10
4139.3757393699552267
 20
503.8662530938032091
 30
0.0
 11
4139.399378908556173
 21
503.8662530938032091
 31
0.0
  0
LINE
  5
F032
  8
0
 10
4139.4433620885547498
 20
503.8818042749031747
 30
0.0
 11
4139.4197225499556225
 21
503.8818042749031747
 31
0.0
  0
LINE
  5
F033
  8
0
 10
4139.3553957285539582
 20
503.8818042749031747
 30
0.0
 11
4139.3317561900548753
 21
503.8818042749031747
 31
0.0
  0
LINE
  5
F034
  8
0
 10
4139.26742936865503
 20
503.8818042749031747
 30
0.0
 11
4139.2437898301550376
 21
503.8818042749031747
 31
0.0
  0
LINE
  5
F035
  8
0
 10
4139.3639196006552083
 20
503.8867255347033165
 30
0.0
 11
4139.3582370192552844
 21
503.8867255347033165
 31
0.0
  0
LINE
  5
F036
  8
0
 10
4139.2759532407553706
 20
503.8867255347033165
 30
0.0
 11
4139.2702706593554467
 21
503.8867255347033165
 31
0.0
  0
LINE
  5
F037
  8
0
 10
4139.235265958054697
 20
503.8867255347033165
 30
0.0
 11
4139.2409485394546209
 21
503.8867255347033165
 31
0.0
  0
LINE
  5
F038
  8
0
 10
4139.3232323179554442
 20
503.8867255347033165
 30
0.0
 11
4139.3289148993553681
 21
503.8867255347033165
 31
0.0
  0
LINE
  5
F039
  8
0
 10
4139.4111986778552819
 20
503.8867255347033165
 30
0.0
 11
4139.4168812592552058
 21
503.8867255347033165
 31
0.0
  0
LINE
  5
F03A
  8
0
 10
4139.2437898301550376
 20
503.8916467945032878
 30
0.0
 11
4139.26742936865503
 21
503.8916467945032878
 31
0.0
  0
LINE
  5
F03B
  8
0
 10
4139.3317561900548753
 20
503.8916467945032878
 30
0.0
 11
4139.3553957285539582
 21
503.8916467945032878
 31
0.0
  0
LINE
  5
F03C
  8
0
 10
4139.4197225499556225
 20
503.8916467945032878
 30
0.0
 11
4139.4433620885547498
 21
503.8916467945032878
 31
0.0
  0
LINE
  5
F03D
  8
0
 10
4139.399378908556173
 20
503.9071979756033102
 30
0.0
 11
4139.3757393699552267
 21
503.9071979756033102
 31
0.0
  0
LINE
  5
F03E
  8
0
 10
4139.3114125486554258
 20
503.9071979756033102
 30
0.0
 11
4139.2877730100562985
 21
503.9071979756033102
 31
0.0
  0
LINE
  5
F03F
  8
0
 10
4139.2234461887546786
 20
503.9071979756033102
 30
0.0
 11
4139.2046444796069409
 21
503.9071979756033102
 31
0.0
  0
LINE
  5
F040
  8
0
 10
4139.4079027806546947
 20
503.9121192355032122
 30
0.0
 11
4139.4022201992547707
 21
503.9121192355032122
 31
0.0
  0
LINE
  5
F041
  8
0
 10
4139.3199364207539475
 20
503.9121192355032122
 30
0.0
 11
4139.3142538393540235
 21
503.9121192355032122
 31
0.0
  0
LINE
  5
F042
  8
0
 10
4139.2319700608550193
 20
503.9121192355032122
 30
0.0
 11
4139.2262874794550953
 21
503.9121192355032122
 31
0.0
  0
LINE
  5
F043
  8
0
 10
4139.2792491379550484
 20
503.9121192355032122
 30
0.0
 11
4139.2849317193540628
 21
503.9121192355032122
 31
0.0
  0
LINE
  5
F044
  8
0
 10
4139.3672154978548861
 20
503.9121192355032122
 30
0.0
 11
4139.37289807925481
 21
503.9121192355032122
 31
0.0
  0
LINE
  5
F045
  8
0
 10
4139.4551818577547238
 20
503.9121192355032122
 30
0.0
 11
4139.4958691405563513
 21
503.9121192355032122
 31
0.0
  0
LINE
  5
F046
  8
0
 10
4139.2055687419669994
 20
503.9170404953032971
 30
0.0
 11
4139.2234461887546786
 21
503.9170404953032971
 31
0.0
  0
LINE
  5
F047
  8
0
 10
4139.2877730100562985
 20
503.9170404953032971
 30
0.0
 11
4139.3114125486554258
 21
503.9170404953032971
 31
0.0
  0
LINE
  5
F048
  8
0
 10
4139.3757393699552267
 20
503.9170404953032971
 30
0.0
 11
4139.399378908556173
 21
503.9170404953032971
 31
0.0
  0
LINE
  5
F049
  8
0
 10
4139.4637057298550644
 20
503.9170404953032971
 30
0.0
 11
4139.4873452684551012
 21
503.9170404953032971
 31
0.0
  0
LINE
  5
F04A
  8
0
 10
4139.4433620885547498
 20
503.9325916764032058
 30
0.0
 11
4139.4197225499556225
 21
503.9325916764032058
 31
0.0
  0
LINE
  5
F04B
  8
0
 10
4139.3553957285539582
 20
503.9325916764032058
 30
0.0
 11
4139.3317561900548753
 21
503.9325916764032058
 31
0.0
  0
LINE
  5
F04C
  8
0
 10
4139.26742936865503
 20
503.9325916764032058
 30
0.0
 11
4139.2437898301550376
 21
503.9325916764032058
 31
0.0
  0
LINE
  5
F04D
  8
0
 10
4139.451885960555046
 20
503.9375129363032215
 30
0.0
 11
4139.4462033792551665
 21
503.9375129363032215
 31
0.0
  0
LINE
  5
F04E
  8
0
 10
4139.3639196006552083
 20
503.9375129363032215
 30
0.0
 11
4139.3582370192552844
 21
503.9375129363032215
 31
0.0
  0
LINE
  5
F04F
  8
0
 10
4139.2759532407553706
 20
503.9375129363032215
 30
0.0
 11
4139.2702706593554467
 21
503.9375129363032215
 31
0.0
  0
LINE
  5
F050
  8
0
 10
4139.235265958054697
 20
503.9375129363032215
 30
0.0
 11
4139.2409485394546209
 21
503.9375129363032215
 31
0.0
  0
LINE
  5
F051
  8
0
 10
4139.3232323179554442
 20
503.9375129363032215
 30
0.0
 11
4139.3289148993553681
 21
503.9375129363032215
 31
0.0
  0
LINE
  5
F052
  8
0
 10
4139.4111986778552819
 20
503.9375129363032215
 30
0.0
 11
4139.4168812592552058
 21
503.9375129363032215
 31
0.0
  0
LINE
  5
F053
  8
0
 10
4139.2437898301550376
 20
503.9424341961033065
 30
0.0
 11
4139.26742936865503
 21
503.9424341961033065
 31
0.0
  0
LINE
  5
F054
  8
0
 10
4139.3317561900548753
 20
503.9424341961033065
 30
0.0
 11
4139.3553957285539582
 21
503.9424341961033065
 31
0.0
  0
LINE
  5
F055
  8
0
 10
4139.4197225499556225
 20
503.9424341961033065
 30
0.0
 11
4139.4433620885547498
 21
503.9424341961033065
 31
0.0
  0
LINE
  5
F056
  8
0
 10
4139.4873452684551012
 20
503.9579853772032152
 30
0.0
 11
4139.4637057298550644
 21
503.9579853772032152
 31
0.0
  0
LINE
  5
F057
  8
0
 10
4139.399378908556173
 20
503.9579853772032152
 30
0.0
 11
4139.3757393699552267
 21
503.9579853772032152
 31
0.0
  0
LINE
  5
F058
  8
0
 10
4139.3114125486554258
 20
503.9579853772032152
 30
0.0
 11
4139.2877730100562985
 21
503.9579853772032152
 31
0.0
  0
LINE
  5
F059
  8
0
 10
4139.2234461887546786
 20
503.9579853772032152
 30
0.0
 11
4139.2133849215360897
 21
503.9579853772032152
 31
0.0
  0
LINE
  5
F05A
  8
0
 10
4139.4079027806546947
 20
503.962906637103174
 30
0.0
 11
4139.4022201992547707
 21
503.962906637103174
 31
0.0
  0
LINE
  5
F05B
  8
0
 10
4139.3199364207539475
 20
503.962906637103174
 30
0.0
 11
4139.3142538393540235
 21
503.962906637103174
 31
0.0
  0
LINE
  5
F05C
  8
0
 10
4139.2319700608550193
 20
503.962906637103174
 30
0.0
 11
4139.2262874794550953
 21
503.962906637103174
 31
0.0
  0
LINE
  5
F05D
  8
0
 10
4139.2792491379550484
 20
503.962906637103174
 30
0.0
 11
4139.2849317193540628
 21
503.962906637103174
 31
0.0
  0
LINE
  5
F05E
  8
0
 10
4139.3672154978548861
 20
503.962906637103174
 30
0.0
 11
4139.37289807925481
 21
503.962906637103174
 31
0.0
  0
LINE
  5
F05F
  8
0
 10
4139.4551818577547238
 20
503.962906637103174
 30
0.0
 11
4139.4608644391546477
 21
503.962906637103174
 31
0.0
  0
LINE
  5
F060
  8
0
 10
4139.216261050313733
 20
503.9678278969033158
 30
0.0
 11
4139.2234461887546786
 21
503.9678278969033158
 31
0.0
  0
LINE
  5
F061
  8
0
 10
4139.2877730100562985
 20
503.9678278969033158
 30
0.0
 11
4139.3114125486554258
 21
503.9678278969033158
 31
0.0
  0
LINE
  5
F062
  8
0
 10
4139.3757393699552267
 20
503.9678278969033158
 30
0.0
 11
4139.399378908556173
 21
503.9678278969033158
 31
0.0
  0
LINE
  5
F063
  8
0
 10
4139.4637057298550644
 20
503.9678278969033158
 30
0.0
 11
4139.4873452684551012
 21
503.9678278969033158
 31
0.0
  0
LINE
  5
F064
  8
0
 10
4139.4433620885547498
 20
503.9833790780032814
 30
0.0
 11
4139.4197225499556225
 21
503.9833790780032814
 31
0.0
  0
LINE
  5
F065
  8
0
 10
4139.3553957285539582
 20
503.9833790780032814
 30
0.0
 11
4139.3317561900548753
 21
503.9833790780032814
 31
0.0
  0
LINE
  5
F066
  8
0
 10
4139.26742936865503
 20
503.9833790780032814
 30
0.0
 11
4139.2437898301550376
 21
503.9833790780032814
 31
0.0
  0
LINE
  5
F067
  8
0
 10
4139.451885960555046
 20
503.9883003378033095
 30
0.0
 11
4139.4462033792551665
 21
503.9883003378033095
 31
0.0
  0
LINE
  5
F068
  8
0
 10
4139.3639196006552083
 20
503.9883003378033095
 30
0.0
 11
4139.3582370192552844
 21
503.9883003378033095
 31
0.0
  0
LINE
  5
F069
  8
0
 10
4139.2759532407553706
 20
503.9883003378033095
 30
0.0
 11
4139.2702706593554467
 21
503.9883003378033095
 31
0.0
  0
LINE
  5
F06A
  8
0
 10
4139.235265958054697
 20
503.9883003378033095
 30
0.0
 11
4139.2409485394546209
 21
503.9883003378033095
 31
0.0
  0
LINE
  5
F06B
  8
0
 10
4139.3232323179554442
 20
503.9883003378033095
 30
0.0
 11
4139.3289148993553681
 21
503.9883003378033095
 31
0.0
  0
LINE
  5
F06C
  8
0
 10
4139.4111986778552819
 20
503.9883003378033095
 30
0.0
 11
4139.4168812592552058
 21
503.9883003378033095
 31
0.0
  0
LINE
  5
F06D
  8
0
 10
4139.2437898301550376
 20
503.9932215977033252
 30
0.0
 11
4139.26742936865503
 21
503.9932215977033252
 31
0.0
  0
LINE
  5
F06E
  8
0
 10
4139.3317561900548753
 20
503.9932215977033252
 30
0.0
 11
4139.3553957285539582
 21
503.9932215977033252
 31
0.0
  0
LINE
  5
F06F
  8
0
 10
4139.4197225499556225
 20
503.9932215977033252
 30
0.0
 11
4139.4433620885547498
 21
503.9932215977033252
 31
0.0
  0
LINE
  5
F070
  8
0
 10
4139.4873452684551012
 20
504.0087727788032907
 30
0.0
 11
4139.4637057298550644
 21
504.0087727788032907
 31
0.0
  0
LINE
  5
F071
  8
0
 10
4139.399378908556173
 20
504.0087727788032907
 30
0.0
 11
4139.3757393699552267
 21
504.0087727788032907
 31
0.0
  0
LINE
  5
F072
  8
0
 10
4139.3114125486554258
 20
504.0087727788032907
 30
0.0
 11
4139.2877730100562985
 21
504.0087727788032907
 31
0.0
  0
LINE
  5
F073
  8
0
 10
4139.4079027806546947
 20
504.0136940386033189
 30
0.0
 11
4139.4022201992547707
 21
504.0136940386033189
 31
0.0
  0
LINE
  5
F074
  8
0
 10
4139.3199364207539475
 20
504.0136940386033189
 30
0.0
 11
4139.3142538393540235
 21
504.0136940386033189
 31
0.0
  0
LINE
  5
F075
  8
0
 10
4139.2792491379550484
 20
504.0136940386033189
 30
0.0
 11
4139.2849317193540628
 21
504.0136940386033189
 31
0.0
  0
LINE
  5
F076
  8
0
 10
4139.3672154978548861
 20
504.0136940386033189
 30
0.0
 11
4139.37289807925481
 21
504.0136940386033189
 31
0.0
  0
LINE
  5
F077
  8
0
 10
4139.4551818577547238
 20
504.0136940386033189
 30
0.0
 11
4139.4608644391546477
 21
504.0136940386033189
 31
0.0
  0
LINE
  5
F078
  8
0
 10
4139.2877730100562985
 20
504.0186152985032209
 30
0.0
 11
4139.3114125486554258
 21
504.0186152985032209
 31
0.0
  0
LINE
  5
F079
  8
0
 10
4139.3757393699552267
 20
504.0186152985032209
 30
0.0
 11
4139.399378908556173
 21
504.0186152985032209
 31
0.0
  0
LINE
  5
F07A
  8
0
 10
4139.4637057298550644
 20
504.0186152985032209
 30
0.0
 11
4139.4873452684551012
 21
504.0186152985032209
 31
0.0
  0
LINE
  5
F07B
  8
0
 10
4139.4433620885547498
 20
504.0341664796033001
 30
0.0
 11
4139.4197225499556225
 21
504.0341664796033001
 31
0.0
  0
LINE
  5
F07C
  8
0
 10
4139.3553957285539582
 20
504.0341664796033001
 30
0.0
 11
4139.3317561900548753
 21
504.0341664796033001
 31
0.0
  0
LINE
  5
F07D
  8
0
 10
4139.26742936865503
 20
504.0341664796033001
 30
0.0
 11
4139.2473658722392429
 21
504.0341664796033001
 31
0.0
  0
LINE
  5
F07E
  8
0
 10
4139.451885960555046
 20
504.0390877394032145
 30
0.0
 11
4139.4462033792551665
 21
504.0390877394032145
 31
0.0
  0
LINE
  5
F07F
  8
0
 10
4139.3639196006552083
 20
504.0390877394032145
 30
0.0
 11
4139.3582370192552844
 21
504.0390877394032145
 31
0.0
  0
LINE
  5
F080
  8
0
 10
4139.2759532407553706
 20
504.0390877394032145
 30
0.0
 11
4139.2702706593554467
 21
504.0390877394032145
 31
0.0
  0
LINE
  5
F081
  8
0
 10
4139.3232323179554442
 20
504.0390877394032145
 30
0.0
 11
4139.3289148993553681
 21
504.0390877394032145
 31
0.0
  0
LINE
  5
F082
  8
0
 10
4139.4111986778552819
 20
504.0390877394032145
 30
0.0
 11
4139.4168812592552058
 21
504.0390877394032145
 31
0.0
  0
LINE
  5
F083
  8
0
 10
4139.2540360877801504
 20
504.0440089993031734
 30
0.0
 11
4139.26742936865503
 21
504.0440089993031734
 31
0.0
  0
LINE
  5
F084
  8
0
 10
4139.3317561900548753
 20
504.0440089993031734
 30
0.0
 11
4139.3553957285539582
 21
504.0440089993031734
 31
0.0
  0
LINE
  5
F085
  8
0
 10
4139.4197225499556225
 20
504.0440089993031734
 30
0.0
 11
4139.4433620885547498
 21
504.0440089993031734
 31
0.0
  0
LINE
  5
F086
  8
0
 10
4139.4873452684551012
 20
504.0595601804031958
 30
0.0
 11
4139.4637057298550644
 21
504.0595601804031958
 31
0.0
  0
LINE
  5
F087
  8
0
 10
4139.399378908556173
 20
504.0595601804031958
 30
0.0
 11
4139.3757393699552267
 21
504.0595601804031958
 31
0.0
  0
LINE
  5
F088
  8
0
 10
4139.3114125486554258
 20
504.0595601804031958
 30
0.0
 11
4139.2877730100562985
 21
504.0595601804031958
 31
0.0
  0
LINE
  5
F089
  8
0
 10
4139.4079027806546947
 20
504.0644814402032807
 30
0.0
 11
4139.4022201992547707
 21
504.0644814402032807
 31
0.0
  0
LINE
  5
F08A
  8
0
 10
4139.3199364207539475
 20
504.0644814402032807
 30
0.0
 11
4139.3142538393540235
 21
504.0644814402032807
 31
0.0
  0
LINE
  5
F08B
  8
0
 10
4139.2792491379550484
 20
504.0644814402032807
 30
0.0
 11
4139.2849317193540628
 21
504.0644814402032807
 31
0.0
  0
LINE
  5
F08C
  8
0
 10
4139.3672154978548861
 20
504.0644814402032807
 30
0.0
 11
4139.37289807925481
 21
504.0644814402032807
 31
0.0
  0
LINE
  5
F08D
  8
0
 10
4139.4551818577547238
 20
504.0644814402032807
 30
0.0
 11
4139.4608644391546477
 21
504.0644814402032807
 31
0.0
  0
LINE
  5
F08E
  8
0
 10
4139.2877730100562985
 20
504.0694027001031827
 30
0.0
 11
4139.3114125486554258
 21
504.0694027001031827
 31
0.0
  0
LINE
  5
F08F
  8
0
 10
4139.3757393699552267
 20
504.0694027001031827
 30
0.0
 11
4139.399378908556173
 21
504.0694027001031827
 31
0.0
  0
LINE
  5
F090
  8
0
 10
4139.4637057298550644
 20
504.0694027001031827
 30
0.0
 11
4139.4873452684551012
 21
504.0694027001031827
 31
0.0
  0
LINE
  5
F091
  8
0
 10
4139.1149512303009033
 20
503.9503334333653015
 30
0.0
 11
4139.1558208894593918
 21
503.9431270097089737
 31
0.0
  0
LINE
  5
F092
  8
0
 10
4139.7955582093272824
 20
503.830324059714485
 30
0.0
 11
4139.8361096614507915
 21
503.8231737445443059
 31
0.0
  0
LINE
  5
F093
  8
0
 10
4139.4433620885547498
 20
504.0849538812032051
 30
0.0
 11
4139.4197225499556225
 21
504.0849538812032051
 31
0.0
  0
LINE
  5
F094
  8
0
 10
4139.3553957285539582
 20
504.0849538812032051
 30
0.0
 11
4139.3317561900548753
 21
504.0849538812032051
 31
0.0
  0
LINE
  5
F095
  8
0
 10
4139.451885960555046
 20
504.0898751410032901
 30
0.0
 11
4139.4462033792551665
 21
504.0898751410032901
 31
0.0
  0
LINE
  5
F096
  8
0
 10
4139.3639196006552083
 20
504.0898751410032901
 30
0.0
 11
4139.3582370192552844
 21
504.0898751410032901
 31
0.0
  0
LINE
  5
F097
  8
0
 10
4139.3232323179554442
 20
504.0898751410032901
 30
0.0
 11
4139.3289148993553681
 21
504.0898751410032901
 31
0.0
  0
LINE
  5
F098
  8
0
 10
4139.4111986778552819
 20
504.0898751410032901
 30
0.0
 11
4139.4168812592552058
 21
504.0898751410032901
 31
0.0
  0
LINE
  5
F099
  8
0
 10
4139.3317561900548753
 20
504.0947964008033182
 30
0.0
 11
4139.3553957285539582
 21
504.0947964008033182
 31
0.0
  0
LINE
  5
F09A
  8
0
 10
4139.4197225499556225
 20
504.0947964008033182
 30
0.0
 11
4139.4433620885547498
 21
504.0947964008033182
 31
0.0
  0
LINE
  5
F09B
  8
0
 10
4139.4873452684551012
 20
504.1103475819032269
 30
0.0
 11
4139.4637057298550644
 21
504.1103475819032269
 31
0.0
  0
LINE
  5
F09C
  8
0
 10
4139.399378908556173
 20
504.1103475819032269
 30
0.0
 11
4139.3757393699552267
 21
504.1103475819032269
 31
0.0
  0
LINE
  5
F09D
  8
0
 10
4139.4079027806546947
 20
504.1152688418032994
 30
0.0
 11
4139.4022201992547707
 21
504.1152688418032994
 31
0.0
  0
LINE
  5
F09E
  8
0
 10
4139.3672154978548861
 20
504.1152688418032994
 30
0.0
 11
4139.37289807925481
 21
504.1152688418032994
 31
0.0
  0
LINE
  5
F09F
  8
0
 10
4139.4551818577547238
 20
504.1152688418032994
 30
0.0
 11
4139.4608644391546477
 21
504.1152688418032994
 31
0.0
  0
LINE
  5
F0A0
  8
0
 10
4139.3757393699552267
 20
504.1201901016032139
 30
0.0
 11
4139.399378908556173
 21
504.1201901016032139
 31
0.0
  0
LINE
  5
F0A1
  8
0
 10
4139.4637057298550644
 20
504.1201901016032139
 30
0.0
 11
4139.4873452684551012
 21
504.1201901016032139
 31
0.0
  0
LINE
  5
F0A2
  8
0
 10
4139.4433620885547498
 20
504.1357412827031794
 30
0.0
 11
4139.4197225499556225
 21
504.1357412827031794
 31
0.0
  0
LINE
  5
F0A3
  8
0
 10
4139.451885960555046
 20
504.1406625426033088
 30
0.0
 11
4139.4462033792551665
 21
504.1406625426033088
 31
0.0
  0
LINE
  5
F0A4
  8
0
 10
4139.4111986778552819
 20
504.1406625426033088
 30
0.0
 11
4139.4168812592552058
 21
504.1406625426033088
 31
0.0
  0
LINE
  5
F0A5
  8
0
 10
4139.4197225499556225
 20
504.1455838024032801
 30
0.0
 11
4139.4433620885547498
 21
504.1455838024032801
 31
0.0
  0
LINE
  5
F0A6
  8
0
 10
4138.6684389637093773
 20
505.1071979756032988
 30
0.0
 11
4140.2826120345998788
 21
505.1071979756032988
 31
0.0
  0
ARC
  5
F0A7
  8
0
 10
4139.4756896001917994
 20
482.4499681140219991
 30
0.0
 40
23.6220492565512714
 50
90.2429508712036608
 51
91.9285493575110877
  0
ARC
  5
F0A8
  8
0
 10
4138.6686042491783155
 20
505.0875122879058949
 30
0.0
 40
0.0196863815721184
 50
90.4810569673350642
 51
176.9808477944899039
  0
ARC
  5
F0A9
  8
0
 10
4138.8653337798814391
 20
505.9152521028304932
 30
0.0
 40
0.0315230188810576
 50
180.0605300173675971
 51
269.1613720488671788
  0
ARC
  5
F0AA
  8
0
 10
4138.8652805046958747
 20
506.0327216598724931
 30
0.0
 40
0.031470038739848
 50
95.3840821478434435
 51
180.2564119332043902
  0
ARC
  5
F0AB
  8
0
 10
4139.4771484497186975
 20
503.8869720670585934
 30
0.0
 40
0.5665795703886207
 50
144.098648440640801
 51
212.3346688461182055
  0
CIRCLE
  5
F0AC
  8
0
 10
4139.4755254991550828
 20
503.8867255347033165
 30
0.0
 40
0.3681102362
  0
CIRCLE
  5
F0AD
  8
0
 10
4139.4755254991550828
 20
503.8867255347033165
 30
0.0
 40
0.3661417323
  0
CIRCLE
  5
F0AE
  8
0
 10
4139.4756895493919728
 20
503.8867255347033165
 30
0.0
 40
0.3248031496
  0
CIRCLE
  5
F0AF
  8
0
 10
4139.4755254991550828
 20
503.8867255347033165
 30
0.0
 40
0.2972440945
  0
CIRCLE
  5
F0B0
  8
0
 10
4139.4755254991550828
 20
503.8867255347033165
 30
0.0
 40
0.2716535433
  0
ARC
  5
F0B1
  8
0
 10
4139.4755254991559923
 20
87.6140649643882625
 30
0.0
 40
418.2701132576676173
 50
89.9163510452368229
 51
90.0836489547631913
  0
ARC
  5
F0B2
  8
0
 10
4159.1255386591828938
 20
505.1643521790476257
 30
0.0
 40
20.4706533904581391
 50
180.2152080133548964
 51
180.469653005256788
  0
LINE
  5
F0B3
  8
0
 10
4138.6487862169897198
 20
500.2034822062025228
 30
0.0
 11
4140.3022647813186268
 21
500.2034850282039997
 31
0.0
  0
LINE
  5
F0B4
  8
0
 10
4138.8429495555901667
 20
505.8930564450399174
 30
0.0
 11
4138.6489451926054244
 21
505.8063175408153143
 31
0.0
  0
ARC
  5
F0B5
  8
0
 10
4140.4897364351118085
 20
501.2186799915073152
 30
0.0
 40
0.047941683969883
 50
271.6831098395588242
 51
298.6356216579799252
  0
ARC
  5
F0B6
  8
0
 10
4140.4598489403961139
 20
501.2633597555411029
 30
0.0
 40
0.1015940474851137
 50
301.3547349456163147
 51
341.6812783116457126
  0
ARC
  5
F0B7
  8
0
 10
4140.4645702838270154
 20
501.2633148978758868
 30
0.0
 40
0.0971085667751943
 50
340.8308270812819956
 51
20.5899215120435386
  0
ARC
  5
F0B8
  8
0
 10
4140.5185185459549757
 20
501.2840678844341937
 30
0.0
 40
0.0393107284354227
 50
19.9268085162727004
 51
68.6894792940375538
  0
ARC
  5
F0B9
  8
0
 10
4139.473230198107558
 20
503.8908669867522008
 30
0.0
 40
0.5611223849620038
 50
89.7656279038902625
 51
144.1861932559488935
  0
ARC
  5
F0BA
  8
0
 10
4139.4654191006166002
 20
503.8739602834327798
 30
0.0
 40
0.5497297308490733
 50
211.8426615810899136
 51
233.9401808227881929
  0
ARC
  5
F0BB
  8
0
 10
4139.471935018658769
 20
503.8838769010641272
 30
0.0
 40
0.5615821042052069
 50
233.9983076561256041
 51
254.7052951252206014
  0
ARC
  5
F0BC
  8
0
 10
4139.4756306067283731
 20
503.8961250156208962
 30
0.0
 40
0.5743713462795002
 50
254.6719931346700889
 51
269.9895151100632802
  0
ARC
  5
F0BD
  8
0
 10
4138.6804613458607491
 20
506.0270948795484856
 30
0.0
 40
0.0315434498690083
 50
89.5074481415801699
 51
177.6162059167807001
  0
ARC
  5
F0BE
  8
0
 10
4138.6880359902470445
 20
505.1396717134401797
 30
0.0
 40
0.0391495430465955
 50
183.1391751757107045
 51
212.7856105169688874
  0
ARC
  5
F0BF
  8
0
 10
4138.6859328205837301
 20
505.1434982156694105
 30
0.0
 40
0.0396931634061328
 50
219.0857684832459995
 51
246.1378246316805019
  0
ARC
  5
F0C0
  8
0
 10
4138.6747071727359071
 20
505.0875490589240258
 30
0.0
 40
0.0196776913114972
 50
93.0989058827340443
 51
180.2512321539122127
  0
ARC
  5
F0C1
  8
0
 10
4146.3751816792437239
 20
505.0125840723308102
 30
0.0
 40
7.7196253347159702
 50
180.1189597761778032
 51
183.0437968902965054
  0
ARC
  5
F0C2
  8
0
 10
4140.7034709590843704
 20
504.7118714679168079
 30
0.0
 40
2.0399486129929132
 50
183.0683858352857101
 51
187.520995738910301
  0
ARC
  5
F0C3
  8
0
 10
4139.2824909494938765
 20
504.5203436644886779
 30
0.0
 40
0.6061368426005898
 50
187.153406603979704
 51
196.6028665886506133
  0
ARC
  5
F0C4
  8
0
 10
4138.8940367343748221
 20
504.4038564848686974
 30
0.0
 40
0.2005943402145695
 50
196.4214473557665883
 51
210.7651689456075985
  0
ARC
  5
F0C5
  8
0
 10
4138.804181786652407
 20
504.3499789201600265
 30
0.0
 40
0.0958256817464304
 50
210.5661976532753101
 51
230.2303357327984941
  0
ARC
  5
F0C6
  8
0
 10
4138.7922801512586375
 20
504.3412454248007748
 30
0.0
 40
0.0815771725225978
 50
232.7322160734435101
 51
258.3598553488894254
  0
ARC
  5
F0C7
  8
0
 10
4137.2269760802619203
 20
494.6336964905282798
 30
0.0
 40
9.7514385724623551
 50
79.4153210816976269
 51
80.8608670199505468
  0
ARC
  5
F0C8
  8
0
 10
4138.715434927898059
 20
504.8915501347885879
 30
0.0
 40
1.3708895220785959
 50
277.1748516207068747
 51
282.7577040354805717
  0
ARC
  5
F0C9
  8
0
 10
4139.2422333896420241
 20
500.9870556554338918
 30
0.0
 40
2.5690657911279922
 50
97.9556933777196122
 51
99.6615612232025825
  0
ARC
  5
F0CA
  8
0
 10
4138.8602576221046547
 20
503.226950643225905
 30
0.0
 40
0.2968352811967824
 50
99.537887176299165
 51
109.5129918400745055
  0
ARC
  5
F0CB
  8
0
 10
4138.7910767705761828
 20
503.4397239563083986
 30
0.0
 40
0.0734091283155069
 50
114.0940684132432068
 51
145.3030142980302912
  0
ARC
  5
F0CC
  8
0
 10
4138.8565068719690316
 20
503.4031501910575912
 30
0.0
 40
0.1481969704239431
 50
148.0781641396453949
 51
161.8744321846556886
  0
ARC
  5
F0CD
  8
0
 10
4139.2320842214649019
 20
503.2819153685229026
 30
0.0
 40
0.5428556939652274
 50
162.0457888296963915
 51
170.9386738912137957
  0
ARC
  5
F0CE
  8
0
 10
4140.1519172221860572
 20
503.1203121586298153
 30
0.0
 40
1.476733997944734
 50
170.3675224160461141
 51
173.707616102741099
  0
ARC
  5
F0CF
  8
0
 10
4143.6182172289763912
 20
502.7901908743647255
 30
0.0
 40
4.9586037892345942
 50
174.3059538842580025
 51
178.6263978429178962
  0
ARC
  5
F0D0
  8
0
 10
4158.2399046159889622
 20
502.3971031357779111
 30
0.0
 40
19.5855584744475593
 50
178.5021562578241969
 51
179.6089522908405911
  0
ARC
  5
F0D1
  8
0
 10
4135.584551969014683
 20
502.7117215148501828
 30
0.0
 40
3.075577797390562
 50
355.1121745157277019
 51
356.6271484830771215
  0
ARC
  5
F0D2
  8
0
 10
4139.4728215527447901
 20
505.5412309192832936
 30
0.0
 40
0.1338711255448183
 50
0.7293461130358491
 51
176.9559612657432126
  0
ARC
  5
F0D3
  8
0
 10
4139.4733194417221966
 20
505.5452911110775176
 30
0.0
 40
0.1333832018154192
 50
270.9476721347863872
 51
358.9878551030931817
  0
ARC
  5
F0D4
  8
0
 10
4139.4722814080168973
 20
505.5450689036101721
 30
0.0
 40
0.1331822659435018
 50
178.5926372947349989
 51
271.3957647787759129
  0
ARC
  5
F0D5
  8
0
 10
4139.4709058414537139
 20
505.5409744555439033
 30
0.0
 40
0.1357901444784172
 50
271.9496111059248733
 51
0.8272613706510451
  0
ARC
  5
F0D6
  8
0
 10
4139.4747210410378102
 20
505.5410387038976978
 30
0.0
 40
0.1357781715409955
 50
176.9175294978506088
 51
270.3394678546163163
  0
ARC
  5
F0D7
  8
0
 10
4139.4797089141511606
 20
511.9294522940733145
 30
0.0
 40
6.1745605526556657
 50
262.3434917238421917
 51
277.5788697010472106
  0
ARC
  5
F0D8
  8
0
 10
4138.5060009921016899
 20
500.2073938470696817
 30
0.0
 40
0.1429977111412145
 50
344.1035950470022726
 51
358.4325030741686078
  0
ARC
  5
F0D9
  8
0
 10
4140.4460042593000253
 20
500.2075314919439961
 30
0.0
 40
0.1436375108681362
 50
181.6143134909322896
 51
195.8825371323231082
  0
ARC
  5
F0DA
  8
0
 10
4138.660284515782223
 20
499.8551087962574115
 30
0.0
 40
0.1099570737871617
 50
166.7203848023575006
 51
176.858589832954209
  0
ARC
  5
F0DB
  8
0
 10
4140.3273529177440651
 20
499.8594369271975779
 30
0.0
 40
0.0734743633404172
 50
4.9039016754853089
 51
16.5499268347807984
  0
LINE
  5
F0DC
  8
0
 10
4139.7276048095545775
 20
503.9678278969033158
 30
0.0
 11
4139.7157850402545591
 21
503.9883003378033095
 31
0.0
  0
LINE
  5
F0DD
  8
0
 10
4139.6836216296551356
 20
504.0440089993031734
 30
0.0
 11
4139.6718018603542077
 21
504.0644814402032807
 31
0.0
  0
LINE
  5
F0DE
  8
0
 10
4139.6632779882556861
 20
504.0694027001031827
 30
0.0
 11
4139.6661192789551933
 21
504.0644814402032807
 31
0.0
  0
LINE
  5
F0DF
  8
0
 10
4139.707261168155128
 20
503.9932215977033252
 30
0.0
 11
4139.7101024588546352
 21
503.9883003378033095
 31
0.0
  0
LINE
  5
F0E0
  8
0
 10
4139.7276048095545775
 20
503.9579853772032152
 30
0.0
 11
4139.7247635188550703
 21
503.962906637103174
 31
0.0
  0
LINE
  5
F0E1
  8
0
 10
4139.6836216296551356
 20
504.0341664796033001
 30
0.0
 11
4139.6807803389547189
 21
504.0390877394032145
 31
0.0
  0
LINE
  5
F0E2
  8
0
 10
4139.6632779882556861
 20
504.0595601804031958
 30
0.0
 11
4139.675097757554795
 21
504.0390877394032145
 31
0.0
  0
LINE
  5
F0E3
  8
0
 10
4139.707261168155128
 20
503.9833790780032814
 30
0.0
 11
4139.7190809374551463
 21
503.962906637103174
 31
0.0
  0
LINE
  5
F0E4
  8
0
 10
4139.7276048095545775
 20
503.9170404953032971
 30
0.0
 11
4139.7157850402545591
 21
503.9375129363032215
 31
0.0
  0
LINE
  5
F0E5
  8
0
 10
4139.6836216296551356
 20
503.9932215977033252
 30
0.0
 11
4139.6718018603542077
 21
504.0136940386033189
 31
0.0
  0
LINE
  5
F0E6
  8
0
 10
4139.6396384496547398
 20
504.0694027001031827
 30
0.0
 11
4139.6278186803547214
 21
504.0898751410032901
 31
0.0
  0
LINE
  5
F0E7
  8
0
 10
4139.6632779882556861
 20
504.0186152985032209
 30
0.0
 11
4139.6661192789551933
 21
504.0136940386033189
 31
0.0
  0
LINE
  5
F0E8
  8
0
 10
4139.707261168155128
 20
503.9424341961033065
 30
0.0
 11
4139.7101024588546352
 21
503.9375129363032215
 31
0.0
  0
LINE
  5
F0E9
  8
0
 10
4139.7276048095545775
 20
503.9071979756033102
 30
0.0
 11
4139.7247635188550703
 21
503.9121192355032122
 31
0.0
  0
LINE
  5
F0EA
  8
0
 10
4139.6836216296551356
 20
503.9833790780032814
 30
0.0
 11
4139.6807803389547189
 21
503.9883003378033095
 31
0.0
  0
LINE
  5
F0EB
  8
0
 10
4139.6396384496547398
 20
504.0595601804031958
 30
0.0
 11
4139.6367971589561421
 21
504.0644814402032807
 31
0.0
  0
LINE
  5
F0EC
  8
0
 10
4139.6192948082543808
 20
504.0947964008033182
 30
0.0
 11
4139.6221360764548081
 21
504.089875178203215
 31
0.0
  0
LINE
  5
F0ED
  8
0
 10
4139.6192948082543808
 20
504.0849538812032051
 30
0.0
 11
4139.6311145775553086
 21
504.0644814402032807
 31
0.0
  0
LINE
  5
F0EE
  8
0
 10
4139.6632779882556861
 20
504.0087727788032907
 30
0.0
 11
4139.675097757554795
 21
503.9883003378033095
 31
0.0
  0
LINE
  5
F0EF
  8
0
 10
4139.707261168155128
 20
503.9325916764032058
 30
0.0
 11
4139.7190809374551463
 21
503.9121192355032122
 31
0.0
  0
LINE
  5
F0F0
  8
0
 10
4139.7276048095545775
 20
503.8662530938032091
 30
0.0
 11
4139.7157850402545591
 21
503.8867255347033165
 31
0.0
  0
LINE
  5
F0F1
  8
0
 10
4139.6836216296551356
 20
503.9424341961033065
 30
0.0
 11
4139.6718018603542077
 21
503.962906637103174
 31
0.0
  0
LINE
  5
F0F2
  8
0
 10
4139.6396384496547398
 20
504.0186152985032209
 30
0.0
 11
4139.6278186803547214
 21
504.0390877394032145
 31
0.0
  0
LINE
  5
F0F3
  8
0
 10
4139.5956552697552979
 20
504.0947964008033182
 30
0.0
 11
4139.5838355004552795
 21
504.1152688418032994
 31
0.0
  0
LINE
  5
F0F4
  8
0
 10
4139.5753116283540294
 20
504.1201901016032139
 30
0.0
 11
4139.5781529414562101
 21
504.1152688049032804
 31
0.0
  0
LINE
  5
F0F5
  8
0
 10
4139.6192948082543808
 20
504.0440089993031734
 30
0.0
 11
4139.6221360989547975
 21
504.0390877394032145
 31
0.0
  0
LINE
  5
F0F6
  8
0
 10
4139.6632779882556861
 20
503.9678278969033158
 30
0.0
 11
4139.6661192789551933
 21
503.962906637103174
 31
0.0
  0
LINE
  5
F0F7
  8
0
 10
4139.707261168155128
 20
503.8916467945032878
 30
0.0
 11
4139.7101024588546352
 21
503.8867255347033165
 31
0.0
  0
LINE
  5
F0F8
  8
0
 10
4139.7276048095545775
 20
503.8564105741032222
 30
0.0
 11
4139.7247635188550703
 21
503.8613318339033071
 31
0.0
  0
LINE
  5
F0F9
  8
0
 10
4139.6836216296551356
 20
503.9325916764032058
 30
0.0
 11
4139.6807803389547189
 21
503.9375129363032215
 31
0.0
  0
LINE
  5
F0FA
  8
0
 10
4139.6396384496547398
 20
504.0087727788032907
 30
0.0
 11
4139.6367971589561421
 21
504.0136940386033189
 31
0.0
  0
LINE
  5
F0FB
  8
0
 10
4139.5956552697552979
 20
504.0849538812032051
 30
0.0
 11
4139.5928139790548812
 21
504.0898751410032901
 31
0.0
  0
LINE
  5
F0FC
  8
0
 10
4139.5753116283540294
 20
504.1103475819032269
 30
0.0
 11
4139.5871313976549573
 21
504.0898751410032901
 31
0.0
  0
LINE
  5
F0FD
  8
0
 10
4139.6192948082543808
 20
504.0341664796033001
 30
0.0
 11
4139.6311145775553086
 21
504.0136940386033189
 31
0.0
  0
LINE
  5
F0FE
  8
0
 10
4139.6632779882556861
 20
503.9579853772032152
 30
0.0
 11
4139.675097757554795
 21
503.9375129363032215
 31
0.0
  0
LINE
  5
F0FF
  8
0
 10
4139.707261168155128
 20
503.8818042749031747
 30
0.0
 11
4139.7190809374551463
 21
503.8613318339033071
 31
0.0
  0
LINE
  5
F100
  8
0
 10
4139.7276048095545775
 20
503.8154656922031904
 30
0.0
 11
4139.7157850402545591
 21
503.8359381331032978
 31
0.0
  0
LINE
  5
F101
  8
0
 10
4139.6836216296551356
 20
503.8916467945032878
 30
0.0
 11
4139.6718018603542077
 21
503.9121192355032122
 31
0.0
  0
LINE
  5
F102
  8
0
 10
4139.6396384496547398
 20
503.9678278969033158
 30
0.0
 11
4139.6278186803547214
 21
503.9883003378033095
 31
0.0
  0
LINE
  5
F103
  8
0
 10
4139.5956552697552979
 20
504.0440089993031734
 30
0.0
 11
4139.5838355004552795
 21
504.0644814402032807
 31
0.0
  0
LINE
  5
F104
  8
0
 10
4139.5516720897539926
 20
504.1201901016032139
 30
0.0
 11
4139.5398523204548837
 21
504.1406625426033088
 31
0.0
  0
LINE
  5
F105
  8
0
 10
4139.5313284483554526
 20
504.1455838024032801
 30
0.0
 11
4139.5341697390549598
 21
504.1406625426033088
 31
0.0
  0
LINE
  5
F106
  8
0
 10
4139.5753116283540294
 20
504.0694027001031827
 30
0.0
 11
4139.5781529190562651
 21
504.0644814402032807
 31
0.0
  0
LINE
  5
F107
  8
0
 10
4139.6192948082543808
 20
503.9932215977033252
 30
0.0
 11
4139.6221360989547975
 21
503.9883003378033095
 31
0.0
  0
LINE
  5
F108
  8
0
 10
4139.6632779882556861
 20
503.9170404953032971
 30
0.0
 11
4139.6661192789551933
 21
503.9121192355032122
 31
0.0
  0
LINE
  5
F109
  8
0
 10
4139.707261168155128
 20
503.8408593930033135
 30
0.0
 11
4139.7101024588546352
 21
503.8359381331032978
 31
0.0
  0
LINE
  5
F10A
  8
0
 10
4139.7276048095545775
 20
503.8056231725033172
 30
0.0
 11
4139.7247635188550703
 21
503.8105444323032884
 31
0.0
  0
LINE
  5
F10B
  8
0
 10
4139.6836216296551356
 20
503.8818042749031747
 30
0.0
 11
4139.6807803389547189
 21
503.8867255347033165
 31
0.0
  0
LINE
  5
F10C
  8
0
 10
4139.6396384496547398
 20
503.9579853772032152
 30
0.0
 11
4139.6367971589561421
 21
503.962906637103174
 31
0.0
  0
LINE
  5
F10D
  8
0
 10
4139.5956552697552979
 20
504.0341664796033001
 30
0.0
 11
4139.5928139790548812
 21
504.0390877394032145
 31
0.0
  0
LINE
  5
F10E
  8
0
 10
4139.5516720897539926
 20
504.1103475819032269
 30
0.0
 11
4139.5488307990553949
 21
504.1152688418032994
 31
0.0
  0
LINE
  5
F10F
  8
0
 10
4139.5313284483554526
 20
504.1357412827031794
 30
0.0
 11
4139.5431482176545614
 21
504.1152688418032994
 31
0.0
  0
LINE
  5
F110
  8
0
 10
4139.5753116283540294
 20
504.0595601804031958
 30
0.0
 11
4139.5871313976549573
 21
504.0390877394032145
 31
0.0
  0
LINE
  5
F111
  8
0
 10
4139.6192948082543808
 20
503.9833790780032814
 30
0.0
 11
4139.6311145775553086
 21
503.962906637103174
 31
0.0
  0
LINE
  5
F112
  8
0
 10
4139.6632779882556861
 20
503.9071979756033102
 30
0.0
 11
4139.675097757554795
 21
503.8867255347033165
 31
0.0
  0
LINE
  5
F113
  8
0
 10
4139.707261168155128
 20
503.8310168733032128
 30
0.0
 11
4139.7190809374551463
 21
503.8105444323032884
 31
0.0
  0
LINE
  5
F114
  8
0
 10
4139.7224816807492971
 20
503.7735518100137142
 30
0.0
 11
4139.7157850402545591
 21
503.7851507315032222
 31
0.0
  0
LINE
  5
F115
  8
0
 10
4139.6836216296551356
 20
503.8408593930033135
 30
0.0
 11
4139.6718018603542077
 21
503.8613318339033071
 31
0.0
  0
LINE
  5
F116
  8
0
 10
4139.6396384496547398
 20
503.9170404953032971
 30
0.0
 11
4139.6278186803547214
 21
503.9375129363032215
 31
0.0
  0
LINE
  5
F117
  8
0
 10
4139.5956552697552979
 20
503.9932215977033252
 30
0.0
 11
4139.5838355004552795
 21
504.0136940386033189
 31
0.0
  0
LINE
  5
F118
  8
0
 10
4139.5516720897539926
 20
504.0694027001031827
 30
0.0
 11
4139.5398523204548837
 21
504.0898751410032901
 31
0.0
  0
LINE
  5
F119
  8
0
 10
4139.5076889097554158
 20
504.1455838024032801
 30
0.0
 11
4139.5009922694071065
 21
504.1571827239225172
 31
0.0
  0
LINE
  5
F11A
  8
0
 10
4139.5313284483554526
 20
504.0947964008033182
 30
0.0
 11
4139.5341697390549598
 21
504.0898751410032901
 31
0.0
  0
LINE
  5
F11B
  8
0
 10
4139.5753116283540294
 20
504.0186152985032209
 30
0.0
 11
4139.5781529190562651
 21
504.0136940386033189
 31
0.0
  0
LINE
  5
F11C
  8
0
 10
4139.6192948082543808
 20
503.9424341961033065
 30
0.0
 11
4139.6221360989547975
 21
503.9375129363032215
 31
0.0
  0
LINE
  5
F11D
  8
0
 10
4139.6632779882556861
 20
503.8662530938032091
 30
0.0
 11
4139.6661192789551933
 21
503.8613318339033071
 31
0.0
  0
LINE
  5
F11E
  8
0
 10
4139.707261168155128
 20
503.7900719914031811
 30
0.0
 11
4139.7101024588546352
 21
503.7851507315032222
 31
0.0
  0
LINE
  5
F11F
  8
0
 10
4139.6836216296551356
 20
503.8310168733032128
 30
0.0
 11
4139.6807803389547189
 21
503.8359381331032978
 31
0.0
  0
LINE
  5
F120
  8
0
 10
4139.6396384496547398
 20
503.9071979756033102
 30
0.0
 11
4139.6367971589561421
 21
503.9121192355032122
 31
0.0
  0
LINE
  5
F121
  8
0
 10
4139.5956552697552979
 20
503.9833790780032814
 30
0.0
 11
4139.5928139790548812
 21
503.9883003378033095
 31
0.0
  0
LINE
  5
F122
  8
0
 10
4139.5516720897539926
 20
504.0595601804031958
 30
0.0
 11
4139.5488307990553949
 21
504.0644814402032807
 31
0.0
  0
LINE
  5
F123
  8
0
 10
4139.5076889097554158
 20
504.1357412827031794
 30
0.0
 11
4139.5048476190549991
 21
504.1406625426033088
 31
0.0
  0
LINE
  5
F124
  8
0
 10
4139.4891332895012965
 20
504.1580380401823049
 30
0.0
 11
4139.4991650377551196
 21
504.1406625426033088
 31
0.0
  0
LINE
  5
F125
  8
0
 10
4139.5313284483554526
 20
504.0849538812032051
 30
0.0
 11
4139.5431482176545614
 21
504.0644814402032807
 31
0.0
  0
LINE
  5
F126
  8
0
 10
4139.5753116283540294
 20
504.0087727788032907
 30
0.0
 11
4139.5871313976549573
 21
503.9883003378033095
 31
0.0
  0
LINE
  5
F127
  8
0
 10
4139.6192948082543808
 20
503.9325916764032058
 30
0.0
 11
4139.6311145775553086
 21
503.9121192355032122
 31
0.0
  0
LINE
  5
F128
  8
0
 10
4139.6632779882556861
 20
503.8564105741032222
 30
0.0
 11
4139.675097757554795
 21
503.8359381331032978
 31
0.0
  0
LINE
  5
F129
  8
0
 10
4139.707261168155128
 20
503.7802294717033078
 30
0.0
 11
4139.7172929164271409
 21
503.7628539740722999
 31
0.0
  0
LINE
  5
F12A
  8
0
 10
4139.6836216296551356
 20
503.7900719914031811
 30
0.0
 11
4139.6718018603542077
 21
503.8105444323032884
 31
0.0
  0
LINE
  5
F12B
  8
0
 10
4139.6396384496547398
 20
503.8662530938032091
 30
0.0
 11
4139.6278186803547214
 21
503.8867255347033165
 31
0.0
  0
LINE
  5
F12C
  8
0
 10
4139.5956552697552979
 20
503.9424341961033065
 30
0.0
 11
4139.5838355004552795
 21
503.962906637103174
 31
0.0
  0
LINE
  5
F12D
  8
0
 10
4139.5516720897539926
 20
504.0186152985032209
 30
0.0
 11
4139.5398523204548837
 21
504.0390877394032145
 31
0.0
  0
LINE
  5
F12E
  8
0
 10
4139.5076889097554158
 20
504.0947964008033182
 30
0.0
 11
4139.4958691405563513
 21
504.1152688418032994
 31
0.0
  0
LINE
  5
F12F
  8
0
 10
4139.4873452684551012
 20
504.1201901016032139
 30
0.0
 11
4139.4901865591564274
 21
504.1152688418032994
 31
0.0
  0
LINE
  5
F130
  8
0
 10
4139.5313284483554526
 20
504.0440089993031734
 30
0.0
 11
4139.5341697390549598
 21
504.0390877394032145
 31
0.0
  0
LINE
  5
F131
  8
0
 10
4139.5753116283540294
 20
503.9678278969033158
 30
0.0
 11
4139.5781529190562651
 21
503.962906637103174
 31
0.0
  0
LINE
  5
F132
  8
0
 10
4139.6192948082543808
 20
503.8916467945032878
 30
0.0
 11
4139.6221360989547975
 21
503.8867255347033165
 31
0.0
  0
LINE
  5
F133
  8
0
 10
4139.6632779882556861
 20
503.8154656922031904
 30
0.0
 11
4139.6661192789551933
 21
503.8105444323032884
 31
0.0
  0
LINE
  5
F134
  8
0
 10
4139.6836216296551356
 20
503.7802294717033078
 30
0.0
 11
4139.6807803389547189
 21
503.7851507315032222
 31
0.0
  0
LINE
  5
F135
  8
0
 10
4139.6396384496547398
 20
503.8564105741032222
 30
0.0
 11
4139.6367971589561421
 21
503.8613318339033071
 31
0.0
  0
LINE
  5
F136
  8
0
 10
4139.5956552697552979
 20
503.9325916764032058
 30
0.0
 11
4139.5928139790548812
 21
503.9375129363032215
 31
0.0
  0
LINE
  5
F137
  8
0
 10
4139.5516720897539926
 20
504.0087727788032907
 30
0.0
 11
4139.5488307990553949
 21
504.0136940386033189
 31
0.0
  0
LINE
  5
F138
  8
0
 10
4139.5076889097554158
 20
504.0849538812032051
 30
0.0
 11
4139.5048476190549991
 21
504.0898751410032901
 31
0.0
  0
LINE
  5
F139
  8
0
 10
4139.4873452684551012
 20
504.1103475819032269
 30
0.0
 11
4139.4991650377551196
 21
504.0898751410032901
 31
0.0
  0
LINE
  5
F13A
  8
0
 10
4139.5313284483554526
 20
504.0341664796033001
 30
0.0
 11
4139.5431482176545614
 21
504.0136940386033189
 31
0.0
  0
LINE
  5
F13B
  8
0
 10
4139.5753116283540294
 20
503.9579853772032152
 30
0.0
 11
4139.5871313976549573
 21
503.9375129363032215
 31
0.0
  0
LINE
  5
F13C
  8
0
 10
4139.6192948082543808
 20
503.8818042749031747
 30
0.0
 11
4139.6311145775553086
 21
503.8613318339033071
 31
0.0
  0
LINE
  5
F13D
  8
0
 10
4139.6632779882556861
 20
503.8056231725033172
 30
0.0
 11
4139.675097757554795
 21
503.7851507315032222
 31
0.0
  0
LINE
  5
F13E
  8
0
 10
4139.6836216296551356
 20
503.739284589803276
 30
0.0
 11
4139.6718018603542077
 21
503.7597570308033141
 31
0.0
  0
LINE
  5
F13F
  8
0
 10
4139.6396384496547398
 20
503.8154656922031904
 30
0.0
 11
4139.6278186803547214
 21
503.8359381331032978
 31
0.0
  0
LINE
  5
F140
  8
0
 10
4139.5956552697552979
 20
503.8916467945032878
 30
0.0
 11
4139.5838355004552795
 21
503.9121192355032122
 31
0.0
  0
LINE
  5
F141
  8
0
 10
4139.5516720897539926
 20
503.9678278969033158
 30
0.0
 11
4139.5398523204548837
 21
503.9883003378033095
 31
0.0
  0
LINE
  5
F142
  8
0
 10
4139.5076889097554158
 20
504.0440089993031734
 30
0.0
 11
4139.4958691405563513
 21
504.0644814402032807
 31
0.0
  0
LINE
  5
F143
  8
0
 10
4139.4873452684551012
 20
504.0694027001031827
 30
0.0
 11
4139.4901865591564274
 21
504.0644814402032807
 31
0.0
  0
LINE
  5
F144
  8
0
 10
4139.5313284483554526
 20
503.9932215977033252
 30
0.0
 11
4139.5341697390549598
 21
503.9883003378033095
 31
0.0
  0
LINE
  5
F145
  8
0
 10
4139.5753116283540294
 20
503.9170404953032971
 30
0.0
 11
4139.5781529190562651
 21
503.9121192355032122
 31
0.0
  0
LINE
  5
F146
  8
0
 10
4139.6192948082543808
 20
503.8408593930033135
 30
0.0
 11
4139.6221360989547975
 21
503.8359381331032978
 31
0.0
  0
LINE
  5
F147
  8
0
 10
4139.6632779882556861
 20
503.7646782906031717
 30
0.0
 11
4139.6661192789551933
 21
503.7597570308033141
 31
0.0
  0
LINE
  5
F148
  8
0
 10
4139.6836216296551356
 20
503.7294420701032891
 30
0.0
 11
4139.6807803389547189
 21
503.7343633300031911
 31
0.0
  0
LINE
  5
F149
  8
0
 10
4139.6396384496547398
 20
503.8056231725033172
 30
0.0
 11
4139.6367971589561421
 21
503.8105444323032884
 31
0.0
  0
LINE
  5
F14A
  8
0
 10
4139.5956552697552979
 20
503.8818042749031747
 30
0.0
 11
4139.5928139790548812
 21
503.8867255347033165
 31
0.0
  0
LINE
  5
F14B
  8
0
 10
4139.5516720897539926
 20
503.9579853772032152
 30
0.0
 11
4139.5488307990553949
 21
503.962906637103174
 31
0.0
  0
LINE
  5
F14C
  8
0
 10
4139.5076889097554158
 20
504.0341664796033001
 30
0.0
 11
4139.5048476190549991
 21
504.0390877394032145
 31
0.0
  0
LINE
  5
F14D
  8
0
 10
4139.4873452684551012
 20
504.0595601804031958
 30
0.0
 11
4139.4991650377551196
 21
504.0390877394032145
 31
0.0
  0
LINE
  5
F14E
  8
0
 10
4139.5313284483554526
 20
503.9833790780032814
 30
0.0
 11
4139.5431482176545614
 21
503.962906637103174
 31
0.0
  0
LINE
  5
F14F
  8
0
 10
4139.5753116283540294
 20
503.9071979756033102
 30
0.0
 11
4139.5871313976549573
 21
503.8867255347033165
 31
0.0
  0
LINE
  5
F150
  8
0
 10
4139.6192948082543808
 20
503.8310168733032128
 30
0.0
 11
4139.6311145775553086
 21
503.8105444323032884
 31
0.0
  0
LINE
  5
F151
  8
0
 10
4139.6632779882556861
 20
503.7548357709032985
 30
0.0
 11
4139.675097757554795
 21
503.7343633300031911
 31
0.0
  0
LINE
  5
F152
  8
0
 10
4139.6753944294869143
 20
503.7027471167431258
 30
0.0
 11
4139.6718018603542077
 21
503.7089696292031817
 31
0.0
  0
LINE
  5
F153
  8
0
 10
4139.6396384496547398
 20
503.7646782906031717
 30
0.0
 11
4139.6278186803547214
 21
503.7851507315032222
 31
0.0
  0
LINE
  5
F154
  8
0
 10
4139.5956552697552979
 20
503.8408593930033135
 30
0.0
 11
4139.5838355004552795
 21
503.8613318339033071
 31
0.0
  0
LINE
  5
F155
  8
0
 10
4139.5516720897539926
 20
503.9170404953032971
 30
0.0
 11
4139.5398523204548837
 21
503.9375129363032215
 31
0.0
  0
LINE
  5
F156
  8
0
 10
4139.5076889097554158
 20
503.9932215977033252
 30
0.0
 11
4139.4958691405563513
 21
504.0136940386033189
 31
0.0
  0
LINE
  5
F157
  8
0
 10
4139.4873452684551012
 20
504.0186152985032209
 30
0.0
 11
4139.4901865591564274
 21
504.0136940386033189
 31
0.0
  0
LINE
  5
F158
  8
0
 10
4139.5313284483554526
 20
503.9424341961033065
 30
0.0
 11
4139.5341697390549598
 21
503.9375129363032215
 31
0.0
  0
LINE
  5
F159
  8
0
 10
4139.5753116283540294
 20
503.8662530938032091
 30
0.0
 11
4139.5781529190562651
 21
503.8613318339033071
 31
0.0
  0
LINE
  5
F15A
  8
0
 10
4139.6192948082543808
 20
503.7900719914031811
 30
0.0
 11
4139.6221360989547975
 21
503.7851507315032222
 31
0.0
  0
LINE
  5
F15B
  8
0
 10
4139.6632779882556861
 20
503.7138908890033235
 30
0.0
 11
4139.6661192789551933
 21
503.7089696292031817
 31
0.0
  0
LINE
  5
F15C
  8
0
 10
4139.6396384496547398
 20
503.7548357709032985
 30
0.0
 11
4139.6367971589561421
 21
503.7597570308033141
 31
0.0
  0
LINE
  5
F15D
  8
0
 10
4139.5956552697552979
 20
503.8310168733032128
 30
0.0
 11
4139.5928139790548812
 21
503.8359381331032978
 31
0.0
  0
LINE
  5
F15E
  8
0
 10
4139.5516720897539926
 20
503.9071979756033102
 30
0.0
 11
4139.5488307990553949
 21
503.9121192355032122
 31
0.0
  0
LINE
  5
F15F
  8
0
 10
4139.5076889097554158
 20
503.9833790780032814
 30
0.0
 11
4139.5048476190549991
 21
503.9883003378033095
 31
0.0
  0
LINE
  5
F160
  8
0
 10
4139.4873452684551012
 20
504.0087727788032907
 30
0.0
 11
4139.4991650377551196
 21
503.9883003378033095
 31
0.0
  0
LINE
  5
F161
  8
0
 10
4139.5313284483554526
 20
503.9325916764032058
 30
0.0
 11
4139.5431482176545614
 21
503.9121192355032122
 31
0.0
  0
LINE
  5
F162
  8
0
 10
4139.5753116283540294
 20
503.8564105741032222
 30
0.0
 11
4139.5871313976549573
 21
503.8359381331032978
 31
0.0
  0
LINE
  5
F163
  8
0
 10
4139.6192948082543808
 20
503.7802294717033078
 30
0.0
 11
4139.6311145775553086
 21
503.7597570308033141
 31
0.0
  0
LINE
  5
F164
  8
0
 10
4139.6632779882556861
 20
503.7040483693032229
 30
0.0
 11
4139.6683086218754397
 21
503.6953350564090215
 31
0.0
  0
LINE
  5
F165
  8
0
 10
4139.6396384496547398
 20
503.7138908890033235
 30
0.0
 11
4139.6278186803547214
 21
503.7343633300031911
 31
0.0
  0
LINE
  5
F166
  8
0
 10
4139.5956552697552979
 20
503.7900719914031811
 30
0.0
 11
4139.5838355004552795
 21
503.8105444323032884
 31
0.0
  0
LINE
  5
F167
  8
0
 10
4139.5516720897539926
 20
503.8662530938032091
 30
0.0
 11
4139.5398523204548837
 21
503.8867255347033165
 31
0.0
  0
LINE
  5
F168
  8
0
 10
4139.5076889097554158
 20
503.9424341961033065
 30
0.0
 11
4139.4958691405563513
 21
503.962906637103174
 31
0.0
  0
LINE
  5
F169
  8
0
 10
4139.4873452684551012
 20
503.9678278969033158
 30
0.0
 11
4139.4901865591564274
 21
503.962906637103174
 31
0.0
  0
LINE
  5
F16A
  8
0
 10
4139.5313284483554526
 20
503.8916467945032878
 30
0.0
 11
4139.5341697390549598
 21
503.8867255347033165
 31
0.0
  0
LINE
  5
F16B
  8
0
 10
4139.5753116283540294
 20
503.8154656922031904
 30
0.0
 11
4139.5781529190562651
 21
503.8105444323032884
 31
0.0
  0
LINE
  5
F16C
  8
0
 10
4139.6192948082543808
 20
503.739284589803276
 30
0.0
 11
4139.6221360989547975
 21
503.7343633300031911
 31
0.0
  0
LINE
  5
F16D
  8
0
 10
4139.6396384496547398
 20
503.7040483693032229
 30
0.0
 11
4139.6367971589561421
 21
503.7089696292031817
 31
0.0
  0
LINE
  5
F16E
  8
0
 10
4139.5956552697552979
 20
503.7802294717033078
 30
0.0
 11
4139.5928139790548812
 21
503.7851507315032222
 31
0.0
  0
LINE
  5
F16F
  8
0
 10
4139.5516720897539926
 20
503.8564105741032222
 30
0.0
 11
4139.5488307990553949
 21
503.8613318339033071
 31
0.0
  0
LINE
  5
F170
  8
0
 10
4139.5076889097554158
 20
503.9325916764032058
 30
0.0
 11
4139.5048476190549991
 21
503.9375129363032215
 31
0.0
  0
LINE
  5
F171
  8
0
 10
4139.4873452684551012
 20
503.9579853772032152
 30
0.0
 11
4139.4991650377551196
 21
503.9375129363032215
 31
0.0
  0
LINE
  5
F172
  8
0
 10
4139.5313284483554526
 20
503.8818042749031747
 30
0.0
 11
4139.5431482176545614
 21
503.8613318339033071
 31
0.0
  0
LINE
  5
F173
  8
0
 10
4139.5753116283540294
 20
503.8056231725033172
 30
0.0
 11
4139.5871313976549573
 21
503.7851507315032222
 31
0.0
  0
LINE
  5
F174
  8
0
 10
4139.6192948082543808
 20
503.7294420701032891
 30
0.0
 11
4139.6311145775553086
 21
503.7089696292031817
 31
0.0
  0
LINE
  5
F175
  8
0
 10
4139.6367574037267332
 20
503.6680936053439268
 30
0.0
 11
4139.6278186803547214
 21
503.6835759284031724
 31
0.0
  0
LINE
  5
F176
  8
0
 10
4139.5956552697552979
 20
503.739284589803276
 30
0.0
 11
4139.5838355004552795
 21
503.7597570308033141
 31
0.0
  0
LINE
  5
F177
  8
0
 10
4139.5516720897539926
 20
503.8154656922031904
 30
0.0
 11
4139.5398523204548837
 21
503.8359381331032978
 31
0.0
  0
LINE
  5
F178
  8
0
 10
4139.5076889097554158
 20
503.8916467945032878
 30
0.0
 11
4139.4958691405563513
 21
503.9121192355032122
 31
0.0
  0
LINE
  5
F179
  8
0
 10
4139.5313284483554526
 20
503.8408593930033135
 30
0.0
 11
4139.5341697390549598
 21
503.8359381331032978
 31
0.0
  0
LINE
  5
F17A
  8
0
 10
4139.5753116283540294
 20
503.7646782906031717
 30
0.0
 11
4139.5781529190562651
 21
503.7597570308033141
 31
0.0
  0
LINE
  5
F17B
  8
0
 10
4139.6192948082543808
 20
503.6884971882033142
 30
0.0
 11
4139.6221360989547975
 21
503.6835759284031724
 31
0.0
  0
LINE
  5
F17C
  8
0
 10
4139.5956552697552979
 20
503.7294420701032891
 30
0.0
 11
4139.5928139790548812
 21
503.7343633300031911
 31
0.0
  0
LINE
  5
F17D
  8
0
 10
4139.5516720897539926
 20
503.8056231725033172
 30
0.0
 11
4139.5488307990553949
 21
503.8105444323032884
 31
0.0
  0
LINE
  5
F17E
  8
0
 10
4139.5076889097554158
 20
503.8818042749031747
 30
0.0
 11
4139.4873452684551012
 21
503.9170404953032971
 31
0.0
  0
LINE
  5
F17F
  8
0
 10
4139.5313284483554526
 20
503.8310168733032128
 30
0.0
 11
4139.5431482176545614
 21
503.8105444323032884
 31
0.0
  0
LINE
  5
F180
  8
0
 10
4139.5753116283540294
 20
503.7548357709032985
 30
0.0
 11
4139.5871313976549573
 21
503.7343633300031911
 31
0.0
  0
LINE
  5
F181
  8
0
 10
4139.6192948082543808
 20
503.6786546686033148
 30
0.0
 11
4139.6286956628628104
 21
503.6623719108476962
 31
0.0
  0
LINE
  5
F182
  8
0
 10
4139.5956552697552979
 20
503.6884971882033142
 30
0.0
 11
4139.5838355004552795
 21
503.7089696292031817
 31
0.0
  0
LINE
  5
F183
  8
0
 10
4139.5516720897539926
 20
503.7646782906031717
 30
0.0
 11
4139.5398523204548837
 21
503.7851507315032222
 31
0.0
  0
LINE
  5
F184
  8
0
 10
4139.5076889097554158
 20
503.8408593930033135
 30
0.0
 11
4139.4958691405563513
 21
503.8613318339033071
 31
0.0
  0
LINE
  5
F185
  8
0
 10
4139.5313284483554526
 20
503.7900719914031811
 30
0.0
 11
4139.5341697390549598
 21
503.7851507315032222
 31
0.0
  0
LINE
  5
F186
  8
0
 10
4139.5753116283540294
 20
503.7138908890033235
 30
0.0
 11
4139.5781529190562651
 21
503.7089696292031817
 31
0.0
  0
LINE
  5
F187
  8
0
 10
4139.5956552697552979
 20
503.6786546686033148
 30
0.0
 11
4139.5928139790548812
 21
503.6835759284031724
 31
0.0
  0
LINE
  5
F188
  8
0
 10
4139.5516720897539926
 20
503.7548357709032985
 30
0.0
 11
4139.5488307990553949
 21
503.7597570308033141
 31
0.0
  0
LINE
  5
F189
  8
0
 10
4139.5076889097554158
 20
503.8310168733032128
 30
0.0
 11
4139.5048476190549991
 21
503.8359381331032978
 31
0.0
  0
LINE
  5
F18A
  8
0
 10
4139.4873452684551012
 20
503.8564105741032222
 30
0.0
 11
4139.4991650377551196
 21
503.8359381331032978
 31
0.0
  0
LINE
  5
F18B
  8
0
 10
4139.5313284483554526
 20
503.7802294717033078
 30
0.0
 11
4139.5431482176545614
 21
503.7597570308033141
 31
0.0
  0
LINE
  5
F18C
  8
0
 10
4139.5753116283540294
 20
503.7040483693032229
 30
0.0
 11
4139.5871313976549573
 21
503.6835759284031724
 31
0.0
  0
LINE
  5
F18D
  8
0
 10
4139.5932363549936781
 20
503.6418994699038763
 30
0.0
 11
4139.5838355004552795
 21
503.6581822276032767
 31
0.0
  0
LINE
  5
F18E
  8
0
 10
4139.5516720897539926
 20
503.7138908890033235
 30
0.0
 11
4139.5398523204548837
 21
503.7343633300031911
 31
0.0
  0
LINE
  5
F18F
  8
0
 10
4139.5076889097554158
 20
503.7900719914031811
 30
0.0
 11
4139.4958691405563513
 21
503.8105444323032884
 31
0.0
  0
LINE
  5
F190
  8
0
 10
4139.4873452684551012
 20
503.8154656922031904
 30
0.0
 11
4139.4901865591564274
 21
503.8105444323032884
 31
0.0
  0
LINE
  5
F191
  8
0
 10
4139.5313284483554526
 20
503.739284589803276
 30
0.0
 11
4139.5341697390549598
 21
503.7343633300031911
 31
0.0
  0
LINE
  5
F192
  8
0
 10
4139.5753116283540294
 20
503.6631034875032924
 30
0.0
 11
4139.5781529190562651
 21
503.6581822276032767
 31
0.0
  0
LINE
  5
F193
  8
0
 10
4139.5516720897539926
 20
503.7040483693032229
 30
0.0
 11
4139.5488307990553949
 21
503.7089696292031817
 31
0.0
  0
LINE
  5
F194
  8
0
 10
4139.5076889097554158
 20
503.7802294717033078
 30
0.0
 11
4139.5048476190549991
 21
503.7851507315032222
 31
0.0
  0
LINE
  5
F195
  8
0
 10
4139.4873452684551012
 20
503.8056231725033172
 30
0.0
 11
4139.4991650377551196
 21
503.7851507315032222
 31
0.0
  0
LINE
  5
F196
  8
0
 10
4139.5313284483554526
 20
503.7294420701032891
 30
0.0
 11
4139.5431482176545614
 21
503.7089696292031817
 31
0.0
  0
LINE
  5
F197
  8
0
 10
4139.5753116283540294
 20
503.6532609678031918
 30
0.0
 11
4139.5842503516587385
 21
503.6377786447137055
 31
0.0
  0
LINE
  5
F198
  8
0
 10
4139.5516720897539926
 20
503.6631034875032924
 30
0.0
 11
4139.5398523204548837
 21
503.6835759284031724
 31
0.0
  0
LINE
  5
F199
  8
0
 10
4139.5076889097554158
 20
503.739284589803276
 30
0.0
 11
4139.4958691405563513
 21
503.7597570308033141
 31
0.0
  0
LINE
  5
F19A
  8
0
 10
4139.4873452684551012
 20
503.7646782906031717
 30
0.0
 11
4139.4901865591564274
 21
503.7597570308033141
 31
0.0
  0
LINE
  5
F19B
  8
0
 10
4139.5313284483554526
 20
503.6884971882033142
 30
0.0
 11
4139.5341697390549598
 21
503.6835759284031724
 31
0.0
  0
LINE
  5
F19C
  8
0
 10
4139.5516720897539926
 20
503.6532609678031918
 30
0.0
 11
4139.5488307990553949
 21
503.6581822276032767
 31
0.0
  0
LINE
  5
F19D
  8
0
 10
4139.5076889097554158
 20
503.7294420701032891
 30
0.0
 11
4139.5048476190549991
 21
503.7343633300031911
 31
0.0
  0
LINE
  5
F19E
  8
0
 10
4139.4873452684551012
 20
503.7548357709032985
 30
0.0
 11
4139.4991650377551196
 21
503.7343633300031911
 31
0.0
  0
LINE
  5
F19F
  8
0
 10
4139.5313284483554526
 20
503.6786546686033148
 30
0.0
 11
4139.5431482176545614
 21
503.6581822276032767
 31
0.0
  0
LINE
  5
F1A0
  8
0
 10
4139.5448829540746374
 20
503.6240752138688208
 30
0.0
 11
4139.5398523204548837
 21
503.6327885268033242
 31
0.0
  0
LINE
  5
F1A1
  8
0
 10
4139.5076889097554158
 20
503.6884971882033142
 30
0.0
 11
4139.4958691405563513
 21
503.7089696292031817
 31
0.0
  0
LINE
  5
F1A2
  8
0
 10
4139.4873452684551012
 20
503.7138908890033235
 30
0.0
 11
4139.4901865591564274
 21
503.7089696292031817
 31
0.0
  0
LINE
  5
F1A3
  8
0
 10
4139.5313284483554526
 20
503.6377097867032262
 30
0.0
 11
4139.5341697390549598
 21
503.6327885268033242
 31
0.0
  0
LINE
  5
F1A4
  8
0
 10
4139.5076889097554158
 20
503.6786546686033148
 30
0.0
 11
4139.5048476190549991
 21
503.6835759284031724
 31
0.0
  0
LINE
  5
F1A5
  8
0
 10
4139.4873452684551012
 20
503.7040483693032229
 30
0.0
 11
4139.4991650377551196
 21
503.6835759284031724
 31
0.0
  0
LINE
  5
F1A6
  8
0
 10
4139.5313284483554526
 20
503.6278672670031824
 30
0.0
 11
4139.5349210175272674
 21
503.621644754591216
 31
0.0
  0
LINE
  5
F1A7
  8
0
 10
4139.5076889097554158
 20
503.6377097867032262
 30
0.0
 11
4139.4958691405563513
 21
503.6581822276032767
 31
0.0
  0
LINE
  5
F1A8
  8
0
 10
4139.4873452684551012
 20
503.6631034875032924
 30
0.0
 11
4139.4901865591564274
 21
503.6581822276032767
 31
0.0
  0
LINE
  5
F1A9
  8
0
 10
4139.5076889097554158
 20
503.6278672670031824
 30
0.0
 11
4139.5048476190549991
 21
503.6327885268033242
 31
0.0
  0
LINE
  5
F1AA
  8
0
 10
4139.4873452684551012
 20
503.6532609678031918
 30
0.0
 11
4139.4991650377551196
 21
503.6327885268033242
 31
0.0
  0
LINE
  5
F1AB
  8
0
 10
4139.6718018603542077
 20
503.7089696292031817
 30
0.0
 11
4139.6836216296551356
 21
503.7294420701032891
 31
0.0
  0
LINE
  5
F1AC
  8
0
 10
4139.7157850402545591
 20
503.7851507315032222
 30
0.0
 11
4139.7276048095545775
 21
503.8056231725033172
 31
0.0
  0
LINE
  5
F1AD
  8
0
 10
4139.7276048095545775
 20
503.8154656922031904
 30
0.0
 11
4139.7247635188550703
 21
503.8105444323032884
 31
0.0
  0
LINE
  5
F1AE
  8
0
 10
4139.6836216296551356
 20
503.739284589803276
 30
0.0
 11
4139.6807803389547189
 21
503.7343633300031911
 31
0.0
  0
LINE
  5
F1AF
  8
0
 10
4139.6632779882556861
 20
503.7040483693032229
 30
0.0
 11
4139.6661192789551933
 21
503.7089696292031817
 31
0.0
  0
LINE
  5
F1B0
  8
0
 10
4139.707261168155128
 20
503.7802294717033078
 30
0.0
 11
4139.7101024588546352
 21
503.7851507315032222
 31
0.0
  0
LINE
  5
F1B1
  8
0
 10
4139.7190809374551463
 20
503.8105444323032884
 30
0.0
 11
4139.707261168155128
 21
503.7900719914031811
 31
0.0
  0
LINE
  5
F1B2
  8
0
 10
4139.675097757554795
 20
503.7343633300031911
 30
0.0
 11
4139.6632779882556861
 21
503.7138908890033235
 31
0.0
  0
LINE
  5
F1B3
  8
0
 10
4139.6278186803547214
 20
503.6835759284031724
 30
0.0
 11
4139.6396384496547398
 21
503.7040483693032229
 31
0.0
  0
LINE
  5
F1B4
  8
0
 10
4139.6718018603542077
 20
503.7597570308033141
 30
0.0
 11
4139.6836216296551356
 21
503.7802294717033078
 31
0.0
  0
LINE
  5
F1B5
  8
0
 10
4139.7157850402545591
 20
503.8359381331032978
 30
0.0
 11
4139.7276048095545775
 21
503.8564105741032222
 31
0.0
  0
LINE
  5
F1B6
  8
0
 10
4139.6836216296551356
 20
503.7900719914031811
 30
0.0
 11
4139.6807803389547189
 21
503.7851507315032222
 31
0.0
  0
LINE
  5
F1B7
  8
0
 10
4139.6396384496547398
 20
503.7138908890033235
 30
0.0
 11
4139.6367971589561421
 21
503.7089696292031817
 31
0.0
  0
LINE
  5
F1B8
  8
0
 10
4139.6192948082543808
 20
503.6786546686033148
 30
0.0
 11
4139.6221360989547975
 21
503.6835759284031724
 31
0.0
  0
LINE
  5
F1B9
  8
0
 10
4139.6632779882556861
 20
503.7548357709032985
 30
0.0
 11
4139.6661192789551933
 21
503.7597570308033141
 31
0.0
  0
LINE
  5
F1BA
  8
0
 10
4139.707261168155128
 20
503.8310168733032128
 30
0.0
 11
4139.7101024588546352
 21
503.8359381331032978
 31
0.0
  0
LINE
  5
F1BB
  8
0
 10
4139.7276048095545775
 20
503.8662530938032091
 30
0.0
 11
4139.724763539855303
 21
503.8613318721032215
 31
0.0
  0
LINE
  5
F1BC
  8
0
 10
4139.7190809374551463
 20
503.8613318339033071
 30
0.0
 11
4139.707261168155128
 21
503.8408593930033135
 31
0.0
  0
LINE
  5
F1BD
  8
0
 10
4139.675097757554795
 20
503.7851507315032222
 30
0.0
 11
4139.6632779882556861
 21
503.7646782906031717
 31
0.0
  0
LINE
  5
F1BE
  8
0
 10
4139.6311145775553086
 20
503.7089696292031817
 30
0.0
 11
4139.6192948082543808
 21
503.6884971882033142
 31
0.0
  0
LINE
  5
F1BF
  8
0
 10
4139.5838355004552795
 20
503.6581822276032767
 30
0.0
 11
4139.5956552697552979
 21
503.6786546686033148
 31
0.0
  0
LINE
  5
F1C0
  8
0
 10
4139.6278186803547214
 20
503.7343633300031911
 30
0.0
 11
4139.6396384496547398
 21
503.7548357709032985
 31
0.0
  0
LINE
  5
F1C1
  8
0
 10
4139.6718018603542077
 20
503.8105444323032884
 30
0.0
 11
4139.6836216296551356
 21
503.8310168733032128
 31
0.0
  0
LINE
  5
F1C2
  8
0
 10
4139.7157850402545591
 20
503.8867255347033165
 30
0.0
 11
4139.7276048095545775
 21
503.9071979756033102
 31
0.0
  0
LINE
  5
F1C3
  8
0
 10
4139.7276048095545775
 20
503.9170404953032971
 30
0.0
 11
4139.7247634980549265
 21
503.9121191976033174
 31
0.0
  0
LINE
  5
F1C4
  8
0
 10
4139.6836216296551356
 20
503.8408593930033135
 30
0.0
 11
4139.6807803389547189
 21
503.8359381331032978
 31
0.0
  0
LINE
  5
F1C5
  8
0
 10
4139.6396384496547398
 20
503.7646782906031717
 30
0.0
 11
4139.6367971589561421
 21
503.7597570308033141
 31
0.0
  0
LINE
  5
F1C6
  8
0
 10
4139.5956552697552979
 20
503.6884971882033142
 30
0.0
 11
4139.5928139790548812
 21
503.6835759284031724
 31
0.0
  0
LINE
  5
F1C7
  8
0
 10
4139.5753116283540294
 20
503.6532609678031918
 30
0.0
 11
4139.5781529190562651
 21
503.6581822276032767
 31
0.0
  0
LINE
  5
F1C8
  8
0
 10
4139.6192948082543808
 20
503.7294420701032891
 30
0.0
 11
4139.6221360989547975
 21
503.7343633300031911
 31
0.0
  0
LINE
  5
F1C9
  8
0
 10
4139.6632779882556861
 20
503.8056231725033172
 30
0.0
 11
4139.6661192789551933
 21
503.8105444323032884
 31
0.0
  0
LINE
  5
F1CA
  8
0
 10
4139.707261168155128
 20
503.8818042749031747
 30
0.0
 11
4139.7101024588546352
 21
503.8867255347033165
 31
0.0
  0
LINE
  5
F1CB
  8
0
 10
4139.7190809374551463
 20
503.9121192355032122
 30
0.0
 11
4139.707261168155128
 21
503.8916467945032878
 31
0.0
  0
LINE
  5
F1CC
  8
0
 10
4139.675097757554795
 20
503.8359381331032978
 30
0.0
 11
4139.6632779882556861
 21
503.8154656922031904
 31
0.0
  0
LINE
  5
F1CD
  8
0
 10
4139.6311145775553086
 20
503.7597570308033141
 30
0.0
 11
4139.6192948082543808
 21
503.739284589803276
 31
0.0
  0
LINE
  5
F1CE
  8
0
 10
4139.5871313976549573
 20
503.6835759284031724
 30
0.0
 11
4139.5753116283540294
 21
503.6631034875032924
 31
0.0
  0
LINE
  5
F1CF
  8
0
 10
4139.5398523204548837
 20
503.6327885268033242
 30
0.0
 11
4139.5516720897539926
 21
503.6532609678031918
 31
0.0
  0
LINE
  5
F1D0
  8
0
 10
4139.5838355004552795
 20
503.7089696292031817
 30
0.0
 11
4139.5956552697552979
 21
503.7294420701032891
 31
0.0
  0
LINE
  5
F1D1
  8
0
 10
4139.6278186803547214
 20
503.7851507315032222
 30
0.0
 11
4139.6396384496547398
 21
503.8056231725033172
 31
0.0
  0
LINE
  5
F1D2
  8
0
 10
4139.6718018603542077
 20
503.8613318339033071
 30
0.0
 11
4139.6836216296551356
 21
503.8818042749031747
 31
0.0
  0
LINE
  5
F1D3
  8
0
 10
4139.7157850402545591
 20
503.9375129363032215
 30
0.0
 11
4139.7276048095545775
 21
503.9579853772032152
 31
0.0
  0
LINE
  5
F1D4
  8
0
 10
4139.7276048095545775
 20
503.9678278969033158
 30
0.0
 11
4139.7247635188550703
 21
503.962906637103174
 31
0.0
  0
LINE
  5
F1D5
  8
0
 10
4139.6836216296551356
 20
503.8916467945032878
 30
0.0
 11
4139.6807803389547189
 21
503.8867255347033165
 31
0.0
  0
LINE
  5
F1D6
  8
0
 10
4139.6396384496547398
 20
503.8154656922031904
 30
0.0
 11
4139.6367971589561421
 21
503.8105444323032884
 31
0.0
  0
LINE
  5
F1D7
  8
0
 10
4139.5956552697552979
 20
503.739284589803276
 30
0.0
 11
4139.5928139790548812
 21
503.7343633300031911
 31
0.0
  0
LINE
  5
F1D8
  8
0
 10
4139.5516720897539926
 20
503.6631034875032924
 30
0.0
 11
4139.5488307990553949
 21
503.6581822276032767
 31
0.0
  0
LINE
  5
F1D9
  8
0
 10
4139.5313284483554526
 20
503.6278672670031824
 30
0.0
 11
4139.5341697390549598
 21
503.6327885268033242
 31
0.0
  0
LINE
  5
F1DA
  8
0
 10
4139.5753116283540294
 20
503.7040483693032229
 30
0.0
 11
4139.5781529190562651
 21
503.7089696292031817
 31
0.0
  0
LINE
  5
F1DB
  8
0
 10
4139.6192948082543808
 20
503.7802294717033078
 30
0.0
 11
4139.6221360989547975
 21
503.7851507315032222
 31
0.0
  0
LINE
  5
F1DC
  8
0
 10
4139.6632779882556861
 20
503.8564105741032222
 30
0.0
 11
4139.6661192789551933
 21
503.8613318339033071
 31
0.0
  0
LINE
  5
F1DD
  8
0
 10
4139.707261168155128
 20
503.9325916764032058
 30
0.0
 11
4139.7101024588546352
 21
503.9375129363032215
 31
0.0
  0
LINE
  5
F1DE
  8
0
 10
4139.7190809374551463
 20
503.962906637103174
 30
0.0
 11
4139.707261168155128
 21
503.9424341961033065
 31
0.0
  0
LINE
  5
F1DF
  8
0
 10
4139.675097757554795
 20
503.8867255347033165
 30
0.0
 11
4139.6632779882556861
 21
503.8662530938032091
 31
0.0
  0
LINE
  5
F1E0
  8
0
 10
4139.6311145775553086
 20
503.8105444323032884
 30
0.0
 11
4139.6192948082543808
 21
503.7900719914031811
 31
0.0
  0
LINE
  5
F1E1
  8
0
 10
4139.5871313976549573
 20
503.7343633300031911
 30
0.0
 11
4139.5753116283540294
 21
503.7138908890033235
 31
0.0
  0
LINE
  5
F1E2
  8
0
 10
4139.5431482176545614
 20
503.6581822276032767
 30
0.0
 11
4139.5313284483554526
 21
503.6377097867032262
 31
0.0
  0
LINE
  5
F1E3
  8
0
 10
4139.5009922693643603
 20
503.6162683454799094
 30
0.0
 11
4139.5076889097554158
 21
503.6278672670031824
 31
0.0
  0
LINE
  5
F1E4
  8
0
 10
4139.5398523204548837
 20
503.6835759284031724
 30
0.0
 11
4139.5516720897539926
 21
503.7040483693032229
 31
0.0
  0
LINE
  5
F1E5
  8
0
 10
4139.5838355004552795
 20
503.7597570308033141
 30
0.0
 11
4139.5956552697552979
 21
503.7802294717033078
 31
0.0
  0
LINE
  5
F1E6
  8
0
 10
4139.6278186803547214
 20
503.8359381331032978
 30
0.0
 11
4139.6396384496547398
 21
503.8564105741032222
 31
0.0
  0
LINE
  5
F1E7
  8
0
 10
4139.6718018603542077
 20
503.9121192355032122
 30
0.0
 11
4139.6836216296551356
 21
503.9325916764032058
 31
0.0
  0
LINE
  5
F1E8
  8
0
 10
4139.7157850402545591
 20
503.9883003378033095
 30
0.0
 11
4139.7224816807502066
 21
503.9998992593908724
 31
0.0
  0
LINE
  5
F1E9
  8
0
 10
4139.6836216296551356
 20
503.9424341961033065
 30
0.0
 11
4139.6807803389547189
 21
503.9375129363032215
 31
0.0
  0
LINE
  5
F1EA
  8
0
 10
4139.6396384496547398
 20
503.8662530938032091
 30
0.0
 11
4139.6367971589561421
 21
503.8613318339033071
 31
0.0
  0
LINE
  5
F1EB
  8
0
 10
4139.5956552697552979
 20
503.7900719914031811
 30
0.0
 11
4139.5928139790548812
 21
503.7851507315032222
 31
0.0
  0
LINE
  5
F1EC
  8
0
 10
4139.5516720897539926
 20
503.7138908890033235
 30
0.0
 11
4139.5488307990553949
 21
503.7089696292031817
 31
0.0
  0
LINE
  5
F1ED
  8
0
 10
4139.5076889097554158
 20
503.6377097867032262
 30
0.0
 11
4139.5048476190549991
 21
503.6327885268033242
 31
0.0
  0
LINE
  5
F1EE
  8
0
 10
4139.5313284483554526
 20
503.6786546686033148
 30
0.0
 11
4139.5341697390549598
 21
503.6835759284031724
 31
0.0
  0
LINE
  5
F1EF
  8
0
 10
4139.5753116283540294
 20
503.7548357709032985
 30
0.0
 11
4139.5781529190562651
 21
503.7597570308033141
 31
0.0
  0
LINE
  5
F1F0
  8
0
 10
4139.6192948082543808
 20
503.8310168733032128
 30
0.0
 11
4139.6221360989547975
 21
503.8359381331032978
 31
0.0
  0
LINE
  5
F1F1
  8
0
 10
4139.6632779882556861
 20
503.9071979756033102
 30
0.0
 11
4139.6661192789551933
 21
503.9121192355032122
 31
0.0
  0
LINE
  5
F1F2
  8
0
 10
4139.707261168155128
 20
503.9833790780032814
 30
0.0
 11
4139.7101024588546352
 21
503.9883003378033095
 31
0.0
  0
LINE
  5
F1F3
  8
0
 10
4139.7172929164280504
 20
504.0105970953305814
 30
0.0
 11
4139.707261168155128
 21
503.9932215977033252
 31
0.0
  0
LINE
  5
F1F4
  8
0
 10
4139.675097757554795
 20
503.9375129363032215
 30
0.0
 11
4139.6632779882556861
 21
503.9170404953032971
 31
0.0
  0
LINE
  5
F1F5
  8
0
 10
4139.6311145775553086
 20
503.8613318339033071
 30
0.0
 11
4139.6192948082543808
 21
503.8408593930033135
 31
0.0
  0
LINE
  5
F1F6
  8
0
 10
4139.5871313976549573
 20
503.7851507315032222
 30
0.0
 11
4139.5753116283540294
 21
503.7646782906031717
 31
0.0
  0
LINE
  5
F1F7
  8
0
 10
4139.5431482176545614
 20
503.7089696292031817
 30
0.0
 11
4139.5313284483554526
 21
503.6884971882033142
 31
0.0
  0
LINE
  5
F1F8
  8
0
 10
4139.4991650377551196
 20
503.6327885268033242
 30
0.0
 11
4139.4891332894840161
 21
503.6154130292233049
 31
0.0
  0
LINE
  5
F1F9
  8
0
 10
4139.4958691405563513
 20
503.6581822276032767
 30
0.0
 11
4139.5076889097554158
 21
503.6786546686033148
 31
0.0
  0
LINE
  5
F1FA
  8
0
 10
4139.5398523204548837
 20
503.7343633300031911
 30
0.0
 11
4139.5516720897539926
 21
503.7548357709032985
 31
0.0
  0
LINE
  5
F1FB
  8
0
 10
4139.5838355004552795
 20
503.8105444323032884
 30
0.0
 11
4139.5956552697552979
 21
503.8310168733032128
 31
0.0
  0
LINE
  5
F1FC
  8
0
 10
4139.6278186803547214
 20
503.8867255347033165
 30
0.0
 11
4139.6396384496547398
 21
503.9071979756033102
 31
0.0
  0
LINE
  5
F1FD
  8
0
 10
4139.6718018603542077
 20
503.962906637103174
 30
0.0
 11
4139.6836216296551356
 21
503.9833790780032814
 31
0.0
  0
LINE
  5
F1FE
  8
0
 10
4139.6836216296551356
 20
503.9932215977033252
 30
0.0
 11
4139.6807803389547189
 21
503.9883003378033095
 31
0.0
  0
LINE
  5
F1FF
  8
0
 10
4139.6396384496547398
 20
503.9170404953032971
 30
0.0
 11
4139.6367971589561421
 21
503.9121192355032122
 31
0.0
  0
LINE
  5
F200
  8
0
 10
4139.5956552697552979
 20
503.8408593930033135
 30
0.0
 11
4139.5928139790548812
 21
503.8359381331032978
 31
0.0
  0
LINE
  5
F201
  8
0
 10
4139.5516720897539926
 20
503.7646782906031717
 30
0.0
 11
4139.5488307990553949
 21
503.7597570308033141
 31
0.0
  0
LINE
  5
F202
  8
0
 10
4139.5076889097554158
 20
503.6884971882033142
 30
0.0
 11
4139.5048476190549991
 21
503.6835759284031724
 31
0.0
  0
LINE
  5
F203
  8
0
 10
4139.4873452684551012
 20
503.6532609678031918
 30
0.0
 11
4139.4901865591564274
 21
503.6581822276032767
 31
0.0
  0
LINE
  5
F204
  8
0
 10
4139.5313284483554526
 20
503.7294420701032891
 30
0.0
 11
4139.5341697390549598
 21
503.7343633300031911
 31
0.0
  0
LINE
  5
F205
  8
0
 10
4139.5753116283540294
 20
503.8056231725033172
 30
0.0
 11
4139.5781529190562651
 21
503.8105444323032884
 31
0.0
  0
LINE
  5
F206
  8
0
 10
4139.6192948082543808
 20
503.8818042749031747
 30
0.0
 11
4139.6221360989547975
 21
503.8867255347033165
 31
0.0
  0
LINE
  5
F207
  8
0
 10
4139.6632779882556861
 20
503.9579853772032152
 30
0.0
 11
4139.6661192789551933
 21
503.962906637103174
 31
0.0
  0
LINE
  5
F208
  8
0
 10
4139.675097757554795
 20
503.9883003378033095
 30
0.0
 11
4139.6632779882556861
 21
503.9678278969033158
 31
0.0
  0
LINE
  5
F209
  8
0
 10
4139.6311145775553086
 20
503.9121192355032122
 30
0.0
 11
4139.6192948082543808
 21
503.8916467945032878
 31
0.0
  0
LINE
  5
F20A
  8
0
 10
4139.5871313976549573
 20
503.8359381331032978
 30
0.0
 11
4139.5753116283540294
 21
503.8154656922031904
 31
0.0
  0
LINE
  5
F20B
  8
0
 10
4139.5431482176545614
 20
503.7597570308033141
 30
0.0
 11
4139.5313284483554526
 21
503.739284589803276
 31
0.0
  0
LINE
  5
F20C
  8
0
 10
4139.4991650377551196
 20
503.6835759284031724
 30
0.0
 11
4139.4873452684551012
 21
503.6631034875032924
 31
0.0
  0
LINE
  5
F20D
  8
0
 10
4139.4958691405563513
 20
503.7089696292031817
 30
0.0
 11
4139.5076889097554158
 21
503.7294420701032891
 31
0.0
  0
LINE
  5
F20E
  8
0
 10
4139.5398523204548837
 20
503.7851507315032222
 30
0.0
 11
4139.5516720897539926
 21
503.8056231725033172
 31
0.0
  0
LINE
  5
F20F
  8
0
 10
4139.5838355004552795
 20
503.8613318339033071
 30
0.0
 11
4139.5956552697552979
 21
503.8818042749031747
 31
0.0
  0
LINE
  5
F210
  8
0
 10
4139.6278186803547214
 20
503.9375129363032215
 30
0.0
 11
4139.6396384496547398
 21
503.9579853772032152
 31
0.0
  0
LINE
  5
F211
  8
0
 10
4139.6718018603542077
 20
504.0136940386033189
 30
0.0
 11
4139.6836216296551356
 21
504.0341664796033001
 31
0.0
  0
LINE
  5
F212
  8
0
 10
4139.6836216296551356
 20
504.0440089993031734
 30
0.0
 11
4139.6807803389547189
 21
504.0390877394032145
 31
0.0
  0
LINE
  5
F213
  8
0
 10
4139.6396384496547398
 20
503.9678278969033158
 30
0.0
 11
4139.6367971589561421
 21
503.962906637103174
 31
0.0
  0
LINE
  5
F214
  8
0
 10
4139.5956552697552979
 20
503.8916467945032878
 30
0.0
 11
4139.5928139790548812
 21
503.8867255347033165
 31
0.0
  0
LINE
  5
F215
  8
0
 10
4139.5516720897539926
 20
503.8154656922031904
 30
0.0
 11
4139.5488307990553949
 21
503.8105444323032884
 31
0.0
  0
LINE
  5
F216
  8
0
 10
4139.5076889097554158
 20
503.739284589803276
 30
0.0
 11
4139.5048476190549991
 21
503.7343633300031911
 31
0.0
  0
LINE
  5
F217
  8
0
 10
4139.4873452684551012
 20
503.7040483693032229
 30
0.0
 11
4139.4901865591564274
 21
503.7089696292031817
 31
0.0
  0
LINE
  5
F218
  8
0
 10
4139.5313284483554526
 20
503.7802294717033078
 30
0.0
 11
4139.5341697390549598
 21
503.7851507315032222
 31
0.0
  0
LINE
  5
F219
  8
0
 10
4139.5753116283540294
 20
503.8564105741032222
 30
0.0
 11
4139.5781529190562651
 21
503.8613318339033071
 31
0.0
  0
LINE
  5
F21A
  8
0
 10
4139.6192948082543808
 20
503.9325916764032058
 30
0.0
 11
4139.6221360989547975
 21
503.9375129363032215
 31
0.0
  0
LINE
  5
F21B
  8
0
 10
4139.6632779882556861
 20
504.0087727788032907
 30
0.0
 11
4139.6661192789551933
 21
504.0136940386033189
 31
0.0
  0
LINE
  5
F21C
  8
0
 10
4139.675097757554795
 20
504.0390877394032145
 30
0.0
 11
4139.6632779882556861
 21
504.0186152985032209
 31
0.0
  0
LINE
  5
F21D
  8
0
 10
4139.6311145775553086
 20
503.962906637103174
 30
0.0
 11
4139.6192948082543808
 21
503.9424341961033065
 31
0.0
  0
LINE
  5
F21E
  8
0
 10
4139.5871313976549573
 20
503.8867255347033165
 30
0.0
 11
4139.5753116283540294
 21
503.8662530938032091
 31
0.0
  0
LINE
  5
F21F
  8
0
 10
4139.5431482176545614
 20
503.8105444323032884
 30
0.0
 11
4139.5313284483554526
 21
503.7900719914031811
 31
0.0
  0
LINE
  5
F220
  8
0
 10
4139.4991650377551196
 20
503.7343633300031911
 30
0.0
 11
4139.4873452684551012
 21
503.7138908890033235
 31
0.0
  0
LINE
  5
F221
  8
0
 10
4139.4958691405563513
 20
503.7597570308033141
 30
0.0
 11
4139.5076889097554158
 21
503.7802294717033078
 31
0.0
  0
LINE
  5
F222
  8
0
 10
4139.5398523204548837
 20
503.8359381331032978
 30
0.0
 11
4139.5516720897539926
 21
503.8564105741032222
 31
0.0
  0
LINE
  5
F223
  8
0
 10
4139.5838355004552795
 20
503.9121192355032122
 30
0.0
 11
4139.5956552697552979
 21
503.9325916764032058
 31
0.0
  0
LINE
  5
F224
  8
0
 10
4139.6278186803547214
 20
503.9883003378033095
 30
0.0
 11
4139.6396384496547398
 21
504.0087727788032907
 31
0.0
  0
LINE
  5
F225
  8
0
 10
4139.6718018603542077
 20
504.0644814402032807
 30
0.0
 11
4139.675394429543303
 21
504.0707039526030258
 31
0.0
  0
LINE
  5
F226
  8
0
 10
4139.6396384496547398
 20
504.0186152985032209
 30
0.0
 11
4139.6367971589561421
 21
504.0136940386033189
 31
0.0
  0
LINE
  5
F227
  8
0
 10
4139.5956552697552979
 20
503.9424341961033065
 30
0.0
 11
4139.5928139790548812
 21
503.9375129363032215
 31
0.0
  0
LINE
  5
F228
  8
0
 10
4139.5516720897539926
 20
503.8662530938032091
 30
0.0
 11
4139.5488307990553949
 21
503.8613318339033071
 31
0.0
  0
LINE
  5
F229
  8
0
 10
4139.5076889097554158
 20
503.7900719914031811
 30
0.0
 11
4139.5048476190549991
 21
503.7851507315032222
 31
0.0
  0
LINE
  5
F22A
  8
0
 10
4139.4873452684551012
 20
503.7548357709032985
 30
0.0
 11
4139.4901865591564274
 21
503.7597570308033141
 31
0.0
  0
LINE
  5
F22B
  8
0
 10
4139.5313284483554526
 20
503.8310168733032128
 30
0.0
 11
4139.5341697390549598
 21
503.8359381331032978
 31
0.0
  0
LINE
  5
F22C
  8
0
 10
4139.5753116283540294
 20
503.9071979756033102
 30
0.0
 11
4139.5781529190562651
 21
503.9121192355032122
 31
0.0
  0
LINE
  5
F22D
  8
0
 10
4139.6192948082543808
 20
503.9833790780032814
 30
0.0
 11
4139.6221360989547975
 21
503.9883003378033095
 31
0.0
  0
LINE
  5
F22E
  8
0
 10
4139.6632779882556861
 20
504.0595601804031958
 30
0.0
 11
4139.6661192789551933
 21
504.0644814402032807
 31
0.0
  0
LINE
  5
F22F
  8
0
 10
4139.6683086218508834
 20
504.0781160130218836
 30
0.0
 11
4139.6632779882556861
 21
504.0694027001031827
 31
0.0
  0
LINE
  5
F230
  8
0
 10
4139.6311145775553086
 20
504.0136940386033189
 30
0.0
 11
4139.6192948082543808
 21
503.9932215977033252
 31
0.0
  0
LINE
  5
F231
  8
0
 10
4139.5871313976549573
 20
503.9375129363032215
 30
0.0
 11
4139.5753116283540294
 21
503.9170404953032971
 31
0.0
  0
LINE
  5
F232
  8
0
 10
4139.5431482176545614
 20
503.8613318339033071
 30
0.0
 11
4139.5313284483554526
 21
503.8408593930033135
 31
0.0
  0
LINE
  5
F233
  8
0
 10
4139.4991650377551196
 20
503.7851507315032222
 30
0.0
 11
4139.4873452684551012
 21
503.7646782906031717
 31
0.0
  0
LINE
  5
F234
  8
0
 10
4139.4958691405563513
 20
503.8105444323032884
 30
0.0
 11
4139.5076889097554158
 21
503.8310168733032128
 31
0.0
  0
LINE
  5
F235
  8
0
 10
4139.5398523204548837
 20
503.8867255347033165
 30
0.0
 11
4139.5516720897539926
 21
503.9071979756033102
 31
0.0
  0
LINE
  5
F236
  8
0
 10
4139.5838355004552795
 20
503.962906637103174
 30
0.0
 11
4139.5956552697552979
 21
503.9833790780032814
 31
0.0
  0
LINE
  5
F237
  8
0
 10
4139.6278186803547214
 20
504.0390877394032145
 30
0.0
 11
4139.6396384496547398
 21
504.0595601804031958
 31
0.0
  0
LINE
  5
F238
  8
0
 10
4139.6396384496547398
 20
504.0694027001031827
 30
0.0
 11
4139.6367971589561421
 21
504.0644814402032807
 31
0.0
  0
LINE
  5
F239
  8
0
 10
4139.5956552697552979
 20
503.9932215977033252
 30
0.0
 11
4139.5928139790548812
 21
503.9883003378033095
 31
0.0
  0
LINE
  5
F23A
  8
0
 10
4139.5516720897539926
 20
503.9170404953032971
 30
0.0
 11
4139.5488307990553949
 21
503.9121192355032122
 31
0.0
  0
LINE
  5
F23B
  8
0
 10
4139.5076889097554158
 20
503.8408593930033135
 30
0.0
 11
4139.5048476190549991
 21
503.8359381331032978
 31
0.0
  0
LINE
  5
F23C
  8
0
 10
4139.4873452684551012
 20
503.8056231725033172
 30
0.0
 11
4139.4901865591564274
 21
503.8105444323032884
 31
0.0
  0
LINE
  5
F23D
  8
0
 10
4139.5313284483554526
 20
503.8818042749031747
 30
0.0
 11
4139.5341697390549598
 21
503.8867255347033165
 31
0.0
  0
LINE
  5
F23E
  8
0
 10
4139.5753116283540294
 20
503.9579853772032152
 30
0.0
 11
4139.5781529190562651
 21
503.962906637103174
 31
0.0
  0
LINE
  5
F23F
  8
0
 10
4139.6192948082543808
 20
504.0341664796033001
 30
0.0
 11
4139.6221360989547975
 21
504.0390877394032145
 31
0.0
  0
LINE
  5
F240
  8
0
 10
4139.6311145775553086
 20
504.0644814402032807
 30
0.0
 11
4139.6192948082543808
 21
504.0440089993031734
 31
0.0
  0
LINE
  5
F241
  8
0
 10
4139.5871313976549573
 20
503.9883003378033095
 30
0.0
 11
4139.5753116283540294
 21
503.9678278969033158
 31
0.0
  0
LINE
  5
F242
  8
0
 10
4139.5431482176545614
 20
503.9121192355032122
 30
0.0
 11
4139.5313284483554526
 21
503.8916467945032878
 31
0.0
  0
LINE
  5
F243
  8
0
 10
4139.4991650377551196
 20
503.8359381331032978
 30
0.0
 11
4139.4873452684551012
 21
503.8154656922031904
 31
0.0
  0
LINE
  5
F244
  8
0
 10
4139.4958691405563513
 20
503.8613318339033071
 30
0.0
 11
4139.5076889097554158
 21
503.8818042749031747
 31
0.0
  0
LINE
  5
F245
  8
0
 10
4139.5398523204548837
 20
503.9375129363032215
 30
0.0
 11
4139.5516720897539926
 21
503.9579853772032152
 31
0.0
  0
LINE
  5
F246
  8
0
 10
4139.5838355004552795
 20
504.0136940386033189
 30
0.0
 11
4139.5956552697552979
 21
504.0341664796033001
 31
0.0
  0
LINE
  5
F247
  8
0
 10
4139.6278186803547214
 20
504.0898751410032901
 30
0.0
 11
4139.6367574037731174
 21
504.1053574640288275
 31
0.0
  0
LINE
  5
F248
  8
0
 10
4139.5956552697552979
 20
504.0440089993031734
 30
0.0
 11
4139.5928139790548812
 21
504.0390877394032145
 31
0.0
  0
LINE
  5
F249
  8
0
 10
4139.5516720897539926
 20
503.9678278969033158
 30
0.0
 11
4139.5488307990553949
 21
503.962906637103174
 31
0.0
  0
LINE
  5
F24A
  8
0
 10
4139.4873452684551012
 20
503.8564105741032222
 30
0.0
 11
4139.5076889097554158
 21
503.8916467945032878
 31
0.0
  0
LINE
  5
F24B
  8
0
 10
4139.5313284483554526
 20
503.9325916764032058
 30
0.0
 11
4139.5341697390549598
 21
503.9375129363032215
 31
0.0
  0
LINE
  5
F24C
  8
0
 10
4139.5753116283540294
 20
504.0087727788032907
 30
0.0
 11
4139.5781529190562651
 21
504.0136940386033189
 31
0.0
  0
LINE
  5
F24D
  8
0
 10
4139.6192948082543808
 20
504.0849538812032051
 30
0.0
 11
4139.6221360989547975
 21
504.0898751410032901
 31
0.0
  0
LINE
  5
F24E
  8
0
 10
4139.6286956628318876
 20
504.1110791585801962
 30
0.0
 11
4139.6192948082543808
 21
504.0947964008033182
 31
0.0
  0
LINE
  5
F24F
  8
0
 10
4139.5871313976549573
 20
504.0390877394032145
 30
0.0
 11
4139.5753116283540294
 21
504.0186152985032209
 31
0.0
  0
LINE
  5
F250
  8
0
 10
4139.5431482176545614
 20
503.962906637103174
 30
0.0
 11
4139.5313284483554526
 21
503.9424341961033065
 31
0.0
  0
LINE
  5
F251
  8
0
 10
4139.4958691405563513
 20
503.9121192355032122
 30
0.0
 11
4139.5076889097554158
 21
503.9325916764032058
 31
0.0
  0
LINE
  5
F252
  8
0
 10
4139.5398523204548837
 20
503.9883003378033095
 30
0.0
 11
4139.5516720897539926
 21
504.0087727788032907
 31
0.0
  0
LINE
  5
F253
  8
0
 10
4139.5838355004552795
 20
504.0644814402032807
 30
0.0
 11
4139.5956552697552979
 21
504.0849538812032051
 31
0.0
  0
LINE
  5
F254
  8
0
 10
4139.5956552697552979
 20
504.0947964008033182
 30
0.0
 11
4139.5928139790548812
 21
504.0898751410032901
 31
0.0
  0
LINE
  5
F255
  8
0
 10
4139.5516720897539926
 20
504.0186152985032209
 30
0.0
 11
4139.5488307990553949
 21
504.0136940386033189
 31
0.0
  0
LINE
  5
F256
  8
0
 10
4139.5076889097554158
 20
503.9424341961033065
 30
0.0
 11
4139.5048476190549991
 21
503.9375129363032215
 31
0.0
  0
LINE
  5
F257
  8
0
 10
4139.5313284483554526
 20
503.9833790780032814
 30
0.0
 11
4139.5341697390549598
 21
503.9883003378033095
 31
0.0
  0
LINE
  5
F258
  8
0
 10
4139.5753116283540294
 20
504.0595601804031958
 30
0.0
 11
4139.5781529190562651
 21
504.0644814402032807
 31
0.0
  0
LINE
  5
F259
  8
0
 10
4139.5871313976549573
 20
504.0898751410032901
 30
0.0
 11
4139.5753116283540294
 21
504.0694027001031827
 31
0.0
  0
LINE
  5
F25A
  8
0
 10
4139.5431482176545614
 20
504.0136940386033189
 30
0.0
 11
4139.5313284483554526
 21
503.9932215977033252
 31
0.0
  0
LINE
  5
F25B
  8
0
 10
4139.4991650377551196
 20
503.9375129363032215
 30
0.0
 11
4139.4873452684551012
 21
503.9170404953032971
 31
0.0
  0
LINE
  5
F25C
  8
0
 10
4139.4958691405563513
 20
503.962906637103174
 30
0.0
 11
4139.5076889097554158
 21
503.9833790780032814
 31
0.0
  0
LINE
  5
F25D
  8
0
 10
4139.5398523204548837
 20
504.0390877394032145
 30
0.0
 11
4139.5516720897539926
 21
504.0595601804031958
 31
0.0
  0
LINE
  5
F25E
  8
0
 10
4139.5838355004552795
 20
504.1152688418032994
 30
0.0
 11
4139.5932363549518413
 21
504.1315515995228793
 31
0.0
  0
LINE
  5
F25F
  8
0
 10
4139.5516720897539926
 20
504.0694027001031827
 30
0.0
 11
4139.5488307990553949
 21
504.0644814402032807
 31
0.0
  0
LINE
  5
F260
  8
0
 10
4139.5076889097554158
 20
503.9932215977033252
 30
0.0
 11
4139.5048476190549991
 21
503.9883003378033095
 31
0.0
  0
LINE
  5
F261
  8
0
 10
4139.4873452684551012
 20
503.9579853772032152
 30
0.0
 11
4139.4901865591564274
 21
503.962906637103174
 31
0.0
  0
LINE
  5
F262
  8
0
 10
4139.5313284483554526
 20
504.0341664796033001
 30
0.0
 11
4139.5341697390549598
 21
504.0390877394032145
 31
0.0
  0
LINE
  5
F263
  8
0
 10
4139.5753116283540294
 20
504.1103475819032269
 30
0.0
 11
4139.5781529190562651
 21
504.1152688418032994
 31
0.0
  0
LINE
  5
F264
  8
0
 10
4139.5842503516587385
 20
504.1356724246928138
 30
0.0
 11
4139.5753116283540294
 21
504.1201901016032139
 31
0.0
  0
LINE
  5
F265
  8
0
 10
4139.5431482176545614
 20
504.0644814402032807
 30
0.0
 11
4139.5313284483554526
 21
504.0440089993031734
 31
0.0
  0
LINE
  5
F266
  8
0
 10
4139.4991650377551196
 20
503.9883003378033095
 30
0.0
 11
4139.4873452684551012
 21
503.9678278969033158
 31
0.0
  0
LINE
  5
F267
  8
0
 10
4139.4958691405563513
 20
504.0136940386033189
 30
0.0
 11
4139.5076889097554158
 21
504.0341664796033001
 31
0.0
  0
LINE
  5
F268
  8
0
 10
4139.5398523204548837
 20
504.0898751410032901
 30
0.0
 11
4139.5516720897539926
 21
504.1103475819032269
 31
0.0
  0
LINE
  5
F269
  8
0
 10
4139.5516720897539926
 20
504.1201901016032139
 30
0.0
 11
4139.5488307990553949
 21
504.1152688418032994
 31
0.0
  0
LINE
  5
F26A
  8
0
 10
4139.5076889097554158
 20
504.0440089993031734
 30
0.0
 11
4139.5048476190549991
 21
504.0390877394032145
 31
0.0
  0
LINE
  5
F26B
  8
0
 10
4139.4873452684551012
 20
504.0087727788032907
 30
0.0
 11
4139.4901865591564274
 21
504.0136940386033189
 31
0.0
  0
LINE
  5
F26C
  8
0
 10
4139.5313284483554526
 20
504.0849538812032051
 30
0.0
 11
4139.5341697390549598
 21
504.0898751410032901
 31
0.0
  0
LINE
  5
F26D
  8
0
 10
4139.5431482176545614
 20
504.1152688418032994
 30
0.0
 11
4139.5313284483554526
 21
504.0947964008033182
 31
0.0
  0
LINE
  5
F26E
  8
0
 10
4139.4991650377551196
 20
504.0390877394032145
 30
0.0
 11
4139.4873452684551012
 21
504.0186152985032209
 31
0.0
  0
LINE
  5
F26F
  8
0
 10
4139.5076889097554158
 20
503.6278672670031824
 30
0.0
 11
4139.5313284483554526
 21
503.6278672670031824
 31
0.0
  0
LINE
  5
F270
  8
0
 10
4139.4991650377551196
 20
503.6327885268033242
 30
0.0
 11
4139.5048476190549991
 21
503.6327885268033242
 31
0.0
  0
LINE
  5
F271
  8
0
 10
4139.5398523204548837
 20
503.6327885268033242
 30
0.0
 11
4139.5341697390549598
 21
503.6327885268033242
 31
0.0
  0
LINE
  5
F272
  8
0
 10
4139.4958691405563513
 20
504.0644814402032807
 30
0.0
 11
4139.5076889097554158
 21
504.0849538812032051
 31
0.0
  0
LINE
  5
F273
  8
0
 10
4139.5398523204548837
 20
504.1406625426033088
 30
0.0
 11
4139.5448829540164297
 21
504.1493758555532168
 31
0.0
  0
LINE
  5
F274
  8
0
 10
4139.5076889097554158
 20
504.0947964008033182
 30
0.0
 11
4139.5048476190549991
 21
504.0898751410032901
 31
0.0
  0
LINE
  5
F275
  8
0
 10
4139.4873452684551012
 20
504.0595601804031958
 30
0.0
 11
4139.4901865591564274
 21
504.0644814402032807
 31
0.0
  0
LINE
  5
F276
  8
0
 10
4139.5313284483554526
 20
504.1357412827031794
 30
0.0
 11
4139.5341697390549598
 21
504.1406625426033088
 31
0.0
  0
LINE
  5
F277
  8
0
 10
4139.5349210175772896
 20
504.1518063148038777
 30
0.0
 11
4139.5313284483554526
 21
504.1455838024032801
 31
0.0
  0
LINE
  5
F278
  8
0
 10
4139.4991650377551196
 20
504.0898751410032901
 30
0.0
 11
4139.4873452684551012
 21
504.0694027001031827
 31
0.0
  0
LINE
  5
F279
  8
0
 10
4139.4958691405563513
 20
504.1152688418032994
 30
0.0
 11
4139.5076889097554158
 21
504.1357412827031794
 31
0.0
  0
LINE
  5
F27A
  8
0
 10
4139.5076889097554158
 20
504.1455838024032801
 30
0.0
 11
4139.5048476190549991
 21
504.1406625426033088
 31
0.0
  0
LINE
  5
F27B
  8
0
 10
4139.4873452684551012
 20
504.1103475819032269
 30
0.0
 11
4139.4901865591564274
 21
504.1152688418032994
 31
0.0
  0
LINE
  5
F27C
  8
0
 10
4139.4991650377551196
 20
504.1406625426033088
 30
0.0
 11
4139.4873452684551012
 21
504.1201901016032139
 31
0.0
  0
LINE
  5
F27D
  8
0
 10
4139.5313284483554526
 20
503.6377097867032262
 30
0.0
 11
4139.5076889097554158
 21
503.6377097867032262
 31
0.0
  0
LINE
  5
F27E
  8
0
 10
4139.5516720897539926
 20
503.6532609678031918
 30
0.0
 11
4139.5753116283540294
 21
503.6532609678031918
 31
0.0
  0
LINE
  5
F27F
  8
0
 10
4139.5431482176545614
 20
503.6581822276032767
 30
0.0
 11
4139.5488307990553949
 21
503.6581822276032767
 31
0.0
  0
LINE
  5
F280
  8
0
 10
4139.5838355004552795
 20
503.6581822276032767
 30
0.0
 11
4139.5781529625546682
 21
503.6581822285032217
 31
0.0
  0
LINE
  5
F281
  8
0
 10
4139.4958691405563513
 20
503.6581822276032767
 30
0.0
 11
4139.4901865591564274
 21
503.6581822276032767
 31
0.0
  0
LINE
  5
F282
  8
0
 10
4139.5753116283540294
 20
503.6631034875032924
 30
0.0
 11
4139.5516720897539926
 21
503.6631034875032924
 31
0.0
  0
LINE
  5
F283
  8
0
 10
4139.5076889097554158
 20
503.6786546686033148
 30
0.0
 11
4139.5313284483554526
 21
503.6786546686033148
 31
0.0
  0
LINE
  5
F284
  8
0
 10
4139.5956552697552979
 20
503.6786546686033148
 30
0.0
 11
4139.6192948082543808
 21
503.6786546686033148
 31
0.0
  0
LINE
  5
F285
  8
0
 10
4139.6278186803547214
 20
503.6835759284031724
 30
0.0
 11
4139.6221360557547087
 21
503.6835759275032842
 31
0.0
  0
LINE
  5
F286
  8
0
 10
4139.4991650377551196
 20
503.6835759284031724
 30
0.0
 11
4139.5048476190549991
 21
503.6835759284031724
 31
0.0
  0
LINE
  5
F287
  8
0
 10
4139.5871313976549573
 20
503.6835759284031724
 30
0.0
 11
4139.5928139790548812
 21
503.6835759284031724
 31
0.0
  0
LINE
  5
F288
  8
0
 10
4139.5398523204548837
 20
503.6835759284031724
 30
0.0
 11
4139.5341697390549598
 21
503.6835759284031724
 31
0.0
  0
LINE
  5
F289
  8
0
 10
4139.6192948082543808
 20
503.6884971882033142
 30
0.0
 11
4139.5956552697552979
 21
503.6884971882033142
 31
0.0
  0
LINE
  5
F28A
  8
0
 10
4139.5313284483554526
 20
503.6884971882033142
 30
0.0
 11
4139.5076889097554158
 21
503.6884971882033142
 31
0.0
  0
LINE
  5
F28B
  8
0
 10
4139.5516720897539926
 20
503.7040483693032229
 30
0.0
 11
4139.5753116283540294
 21
503.7040483693032229
 31
0.0
  0
LINE
  5
F28C
  8
0
 10
4139.6396384496547398
 20
503.7040483693032229
 30
0.0
 11
4139.6632779882556861
 21
503.7040483693032229
 31
0.0
  0
LINE
  5
F28D
  8
0
 10
4139.5431482176545614
 20
503.7089696292031817
 30
0.0
 11
4139.5488307990553949
 21
503.7089696292031817
 31
0.0
  0
LINE
  5
F28E
  8
0
 10
4139.6311145775553086
 20
503.7089696292031817
 30
0.0
 11
4139.6367971589561421
 21
503.7089696292031817
 31
0.0
  0
LINE
  5
F28F
  8
0
 10
4139.6718018603542077
 20
503.7089696292031817
 30
0.0
 11
4139.6661192789551933
 21
503.7089696292031817
 31
0.0
  0
LINE
  5
F290
  8
0
 10
4139.5838355004552795
 20
503.7089696292031817
 30
0.0
 11
4139.5781529190562651
 21
503.7089696292031817
 31
0.0
  0
LINE
  5
F291
  8
0
 10
4139.4958691405563513
 20
503.7089696292031817
 30
0.0
 11
4139.4901865591564274
 21
503.7089696292031817
 31
0.0
  0
LINE
  5
F292
  8
0
 10
4139.6632779882556861
 20
503.7138908890033235
 30
0.0
 11
4139.6396384496547398
 21
503.7138908890033235
 31
0.0
  0
LINE
  5
F293
  8
0
 10
4139.5753116283540294
 20
503.7138908890033235
 30
0.0
 11
4139.5516720897539926
 21
503.7138908890033235
 31
0.0
  0
LINE
  5
F294
  8
0
 10
4139.5076889097554158
 20
503.7294420701032891
 30
0.0
 11
4139.5313284483554526
 21
503.7294420701032891
 31
0.0
  0
LINE
  5
F295
  8
0
 10
4139.5956552697552979
 20
503.7294420701032891
 30
0.0
 11
4139.6192948082543808
 21
503.7294420701032891
 31
0.0
  0
LINE
  5
F296
  8
0
 10
4139.6836216296551356
 20
503.7294420701032891
 30
0.0
 11
4139.6970149105291057
 21
503.7294420701032891
 31
0.0
  0
LINE
  5
F297
  8
0
 10
4139.4991650377551196
 20
503.7343633300031911
 30
0.0
 11
4139.5048476190549991
 21
503.7343633300031911
 31
0.0
  0
LINE
  5
F298
  8
0
 10
4139.5871313976549573
 20
503.7343633300031911
 30
0.0
 11
4139.5928139790548812
 21
503.7343633300031911
 31
0.0
  0
LINE
  5
F299
  8
0
 10
4139.675097757554795
 20
503.7343633300031911
 30
0.0
 11
4139.6807803389547189
 21
503.7343633300031911
 31
0.0
  0
LINE
  5
F29A
  8
0
 10
4139.6278186803547214
 20
503.7343633300031911
 30
0.0
 11
4139.6221360989547975
 21
503.7343633300031911
 31
0.0
  0
LINE
  5
F29B
  8
0
 10
4139.5398523204548837
 20
503.7343633300031911
 30
0.0
 11
4139.5341697390549598
 21
503.7343633300031911
 31
0.0
  0
LINE
  5
F29C
  8
0
 10
4139.7036851260709227
 20
503.739284589803276
 30
0.0
 11
4139.6836216296551356
 21
503.739284589803276
 31
0.0
  0
LINE
  5
F29D
  8
0
 10
4139.6192948082543808
 20
503.739284589803276
 30
0.0
 11
4139.5956552697552979
 21
503.739284589803276
 31
0.0
  0
LINE
  5
F29E
  8
0
 10
4139.5313284483554526
 20
503.739284589803276
 30
0.0
 11
4139.5076889097554158
 21
503.739284589803276
 31
0.0
  0
LINE
  5
F29F
  8
0
 10
4139.5516720897539926
 20
503.7548357709032985
 30
0.0
 11
4139.5753116283540294
 21
503.7548357709032985
 31
0.0
  0
LINE
  5
F2A0
  8
0
 10
4139.6396384496547398
 20
503.7548357709032985
 30
0.0
 11
4139.6632779882556861
 21
503.7548357709032985
 31
0.0
  0
LINE
  5
F2A1
  8
0
 10
4139.5431482176545614
 20
503.7597570308033141
 30
0.0
 11
4139.5488307990553949
 21
503.7597570308033141
 31
0.0
  0
LINE
  5
F2A2
  8
0
 10
4139.6311145775553086
 20
503.7597570308033141
 30
0.0
 11
4139.6367971589561421
 21
503.7597570308033141
 31
0.0
  0
LINE
  5
F2A3
  8
0
 10
4139.6718018603542077
 20
503.7597570308033141
 30
0.0
 11
4139.6661192789551933
 21
503.7597570308033141
 31
0.0
  0
LINE
  5
F2A4
  8
0
 10
4139.5838355004552795
 20
503.7597570308033141
 30
0.0
 11
4139.5781529190562651
 21
503.7597570308033141
 31
0.0
  0
LINE
  5
F2A5
  8
0
 10
4139.4958691405563513
 20
503.7597570308033141
 30
0.0
 11
4139.4901865591564274
 21
503.7597570308033141
 31
0.0
  0
LINE
  5
F2A6
  8
0
 10
4139.6632779882556861
 20
503.7646782906031717
 30
0.0
 11
4139.6396384496547398
 21
503.7646782906031717
 31
0.0
  0
LINE
  5
F2A7
  8
0
 10
4139.5753116283540294
 20
503.7646782906031717
 30
0.0
 11
4139.5516720897539926
 21
503.7646782906031717
 31
0.0
  0
LINE
  5
F2A8
  8
0
 10
4139.5076889097554158
 20
503.7802294717033078
 30
0.0
 11
4139.5313284483554526
 21
503.7802294717033078
 31
0.0
  0
LINE
  5
F2A9
  8
0
 10
4139.5956552697552979
 20
503.7802294717033078
 30
0.0
 11
4139.6192948082543808
 21
503.7802294717033078
 31
0.0
  0
LINE
  5
F2AA
  8
0
 10
4139.6836216296551356
 20
503.7802294717033078
 30
0.0
 11
4139.707261168155128
 21
503.7802294717033078
 31
0.0
  0
LINE
  5
F2AB
  8
0
 10
4139.4991650377551196
 20
503.7851507315032222
 30
0.0
 11
4139.5048476190549991
 21
503.7851507315032222
 31
0.0
  0
LINE
  5
F2AC
  8
0
 10
4139.5871313976549573
 20
503.7851507315032222
 30
0.0
 11
4139.5928139790548812
 21
503.7851507315032222
 31
0.0
  0
LINE
  5
F2AD
  8
0
 10
4139.675097757554795
 20
503.7851507315032222
 30
0.0
 11
4139.6807803389547189
 21
503.7851507315032222
 31
0.0
  0
LINE
  5
F2AE
  8
0
 10
4139.7157850402545591
 20
503.7851507315032222
 30
0.0
 11
4139.7101024588546352
 21
503.7851507315032222
 31
0.0
  0
LINE
  5
F2AF
  8
0
 10
4139.6278186803547214
 20
503.7851507315032222
 30
0.0
 11
4139.6221360989547975
 21
503.7851507315032222
 31
0.0
  0
LINE
  5
F2B0
  8
0
 10
4139.5398523204548837
 20
503.7851507315032222
 30
0.0
 11
4139.5341697390549598
 21
503.7851507315032222
 31
0.0
  0
LINE
  5
F2B1
  8
0
 10
4139.707261168155128
 20
503.7900719914031811
 30
0.0
 11
4139.6836216296551356
 21
503.7900719914031811
 31
0.0
  0
LINE
  5
F2B2
  8
0
 10
4139.6192948082543808
 20
503.7900719914031811
 30
0.0
 11
4139.5956552697552979
 21
503.7900719914031811
 31
0.0
  0
LINE
  5
F2B3
  8
0
 10
4139.5313284483554526
 20
503.7900719914031811
 30
0.0
 11
4139.5076889097554158
 21
503.7900719914031811
 31
0.0
  0
LINE
  5
F2B4
  8
0
 10
4139.5516720897539926
 20
503.8056231725033172
 30
0.0
 11
4139.5753116283540294
 21
503.8056231725033172
 31
0.0
  0
LINE
  5
F2B5
  8
0
 10
4139.6396384496547398
 20
503.8056231725033172
 30
0.0
 11
4139.6632779882556861
 21
503.8056231725033172
 31
0.0
  0
LINE
  5
F2B6
  8
0
 10
4139.7276048095545775
 20
503.8056231725033172
 30
0.0
 11
4139.7347899479964326
 21
503.8056231725033172
 31
0.0
  0
LINE
  5
F2B7
  8
0
 10
4139.5431482176545614
 20
503.8105444323032884
 30
0.0
 11
4139.5488307990553949
 21
503.8105444323032884
 31
0.0
  0
LINE
  5
F2B8
  8
0
 10
4139.6311145775553086
 20
503.8105444323032884
 30
0.0
 11
4139.6367971589561421
 21
503.8105444323032884
 31
0.0
  0
LINE
  5
F2B9
  8
0
 10
4139.7190809374551463
 20
503.8105444323032884
 30
0.0
 11
4139.7247635188550703
 21
503.8105444323032884
 31
0.0
  0
LINE
  5
F2BA
  8
0
 10
4139.6718018603542077
 20
503.8105444323032884
 30
0.0
 11
4139.6661192789551933
 21
503.8105444323032884
 31
0.0
  0
LINE
  5
F2BB
  8
0
 10
4139.5838355004552795
 20
503.8105444323032884
 30
0.0
 11
4139.5781529190562651
 21
503.8105444323032884
 31
0.0
  0
LINE
  5
F2BC
  8
0
 10
4139.4958691405563513
 20
503.8105444323032884
 30
0.0
 11
4139.4901865591564274
 21
503.8105444323032884
 31
0.0
  0
LINE
  5
F2BD
  8
0
 10
4139.7376660767740759
 20
503.8154656922031904
 30
0.0
 11
4139.7276048095545775
 21
503.8154656922031904
 31
0.0
  0
LINE
  5
F2BE
  8
0
 10
4139.6632779882556861
 20
503.8154656922031904
 30
0.0
 11
4139.6396384496547398
 21
503.8154656922031904
 31
0.0
  0
LINE
  5
F2BF
  8
0
 10
4139.5753116283540294
 20
503.8154656922031904
 30
0.0
 11
4139.5516720897539926
 21
503.8154656922031904
 31
0.0
  0
LINE
  5
F2C0
  8
0
 10
4139.5076889097554158
 20
503.8310168733032128
 30
0.0
 11
4139.5313284483554526
 21
503.8310168733032128
 31
0.0
  0
LINE
  5
F2C1
  8
0
 10
4139.5956552697552979
 20
503.8310168733032128
 30
0.0
 11
4139.6192948082543808
 21
503.8310168733032128
 31
0.0
  0
LINE
  5
F2C2
  8
0
 10
4139.6836216296551356
 20
503.8310168733032128
 30
0.0
 11
4139.707261168155128
 21
503.8310168733032128
 31
0.0
  0
LINE
  5
F2C3
  8
0
 10
4139.4991650377551196
 20
503.8359381331032978
 30
0.0
 11
4139.5048476190549991
 21
503.8359381331032978
 31
0.0
  0
LINE
  5
F2C4
  8
0
 10
4139.5871313976549573
 20
503.8359381331032978
 30
0.0
 11
4139.5928139790548812
 21
503.8359381331032978
 31
0.0
  0
LINE
  5
F2C5
  8
0
 10
4139.675097757554795
 20
503.8359381331032978
 30
0.0
 11
4139.6807803389547189
 21
503.8359381331032978
 31
0.0
  0
LINE
  5
F2C6
  8
0
 10
4139.7157850402545591
 20
503.8359381331032978
 30
0.0
 11
4139.7101024588546352
 21
503.8359381331032978
 31
0.0
  0
LINE
  5
F2C7
  8
0
 10
4139.6278186803547214
 20
503.8359381331032978
 30
0.0
 11
4139.6221360989547975
 21
503.8359381331032978
 31
0.0
  0
LINE
  5
F2C8
  8
0
 10
4139.5398523204548837
 20
503.8359381331032978
 30
0.0
 11
4139.5341697390549598
 21
503.8359381331032978
 31
0.0
  0
LINE
  5
F2C9
  8
0
 10
4139.707261168155128
 20
503.8408593930033135
 30
0.0
 11
4139.6836216296551356
 21
503.8408593930033135
 31
0.0
  0
LINE
  5
F2CA
  8
0
 10
4139.6192948082543808
 20
503.8408593930033135
 30
0.0
 11
4139.5956552697552979
 21
503.8408593930033135
 31
0.0
  0
LINE
  5
F2CB
  8
0
 10
4139.5313284483554526
 20
503.8408593930033135
 30
0.0
 11
4139.5076889097554158
 21
503.8408593930033135
 31
0.0
  0
LINE
  5
F2CC
  8
0
 10
4139.5516720897539926
 20
503.8564105741032222
 30
0.0
 11
4139.5753116283540294
 21
503.8564105741032222
 31
0.0
  0
LINE
  5
F2CD
  8
0
 10
4139.6396384496547398
 20
503.8564105741032222
 30
0.0
 11
4139.6632779882556861
 21
503.8564105741032222
 31
0.0
  0
LINE
  5
F2CE
  8
0
 10
4139.7276048095545775
 20
503.8564105741032222
 30
0.0
 11
4139.7454822563431662
 21
503.8564105741032222
 31
0.0
  0
LINE
  5
F2CF
  8
0
 10
4139.5431482176545614
 20
503.8613318339033071
 30
0.0
 11
4139.5488307990553949
 21
503.8613318339033071
 31
0.0
  0
LINE
  5
F2D0
  8
0
 10
4139.6311145775553086
 20
503.8613318339033071
 30
0.0
 11
4139.6367971589561421
 21
503.8613318339033071
 31
0.0
  0
LINE
  5
F2D1
  8
0
 10
4139.7190809374551463
 20
503.8613318339033071
 30
0.0
 11
4139.7247635188550703
 21
503.8613318339033071
 31
0.0
  0
LINE
  5
F2D2
  8
0
 10
4139.6718018603542077
 20
503.8613318339033071
 30
0.0
 11
4139.6661192789551933
 21
503.8613318339033071
 31
0.0
  0
LINE
  5
F2D3
  8
0
 10
4139.5838355004552795
 20
503.8613318339033071
 30
0.0
 11
4139.5781529190562651
 21
503.8613318339033071
 31
0.0
  0
LINE
  5
F2D4
  8
0
 10
4139.7464065187023152
 20
503.8662530938032091
 30
0.0
 11
4139.7276048095545775
 21
503.8662530938032091
 31
0.0
  0
LINE
  5
F2D5
  8
0
 10
4139.6632779882556861
 20
503.8662530938032091
 30
0.0
 11
4139.6396384496547398
 21
503.8662530938032091
 31
0.0
  0
LINE
  5
F2D6
  8
0
 10
4139.5753116283540294
 20
503.8662530938032091
 30
0.0
 11
4139.5516720897539926
 21
503.8662530938032091
 31
0.0
  0
LINE
  5
F2D7
  8
0
 10
4139.5076889097554158
 20
503.8818042749031747
 30
0.0
 11
4139.5313284483554526
 21
503.8818042749031747
 31
0.0
  0
LINE
  5
F2D8
  8
0
 10
4139.5956552697552979
 20
503.8818042749031747
 30
0.0
 11
4139.6192948082543808
 21
503.8818042749031747
 31
0.0
  0
LINE
  5
F2D9
  8
0
 10
4139.6836216296551356
 20
503.8818042749031747
 30
0.0
 11
4139.707261168155128
 21
503.8818042749031747
 31
0.0
  0
LINE
  5
F2DA
  8
0
 10
4139.5871313976549573
 20
503.8867255347033165
 30
0.0
 11
4139.5928139790548812
 21
503.8867255347033165
 31
0.0
  0
LINE
  5
F2DB
  8
0
 10
4139.675097757554795
 20
503.8867255347033165
 30
0.0
 11
4139.6807803389547189
 21
503.8867255347033165
 31
0.0
  0
LINE
  5
F2DC
  8
0
 10
4139.7157850402545591
 20
503.8867255347033165
 30
0.0
 11
4139.7101024588546352
 21
503.8867255347033165
 31
0.0
  0
LINE
  5
F2DD
  8
0
 10
4139.6278186803547214
 20
503.8867255347033165
 30
0.0
 11
4139.6221360989547975
 21
503.8867255347033165
 31
0.0
  0
LINE
  5
F2DE
  8
0
 10
4139.5398523204548837
 20
503.8867255347033165
 30
0.0
 11
4139.5341697390549598
 21
503.8867255347033165
 31
0.0
  0
LINE
  5
F2DF
  8
0
 10
4139.707261168155128
 20
503.8916467945032878
 30
0.0
 11
4139.6836216296551356
 21
503.8916467945032878
 31
0.0
  0
LINE
  5
F2E0
  8
0
 10
4139.6192948082543808
 20
503.8916467945032878
 30
0.0
 11
4139.5956552697552979
 21
503.8916467945032878
 31
0.0
  0
LINE
  5
F2E1
  8
0
 10
4139.5313284483554526
 20
503.8916467945032878
 30
0.0
 11
4139.5076889097554158
 21
503.8916467945032878
 31
0.0
  0
LINE
  5
F2E2
  8
0
 10
4139.5516720897539926
 20
503.9071979756033102
 30
0.0
 11
4139.5753116283540294
 21
503.9071979756033102
 31
0.0
  0
LINE
  5
F2E3
  8
0
 10
4139.6396384496547398
 20
503.9071979756033102
 30
0.0
 11
4139.6632779882556861
 21
503.9071979756033102
 31
0.0
  0
LINE
  5
F2E4
  8
0
 10
4139.7276048095545775
 20
503.9071979756033102
 30
0.0
 11
4139.7464065187023152
 21
503.9071979756033102
 31
0.0
  0
LINE
  5
F2E5
  8
0
 10
4139.5431482176545614
 20
503.9121192355032122
 30
0.0
 11
4139.5488307990553949
 21
503.9121192355032122
 31
0.0
  0
LINE
  5
F2E6
  8
0
 10
4139.6311145775553086
 20
503.9121192355032122
 30
0.0
 11
4139.6367971589561421
 21
503.9121192355032122
 31
0.0
  0
LINE
  5
F2E7
  8
0
 10
4139.7190809374551463
 20
503.9121192355032122
 30
0.0
 11
4139.7247635188550703
 21
503.9121192355032122
 31
0.0
  0
LINE
  5
F2E8
  8
0
 10
4139.6718018603542077
 20
503.9121192355032122
 30
0.0
 11
4139.6661192789551933
 21
503.9121192355032122
 31
0.0
  0
LINE
  5
F2E9
  8
0
 10
4139.5838355004552795
 20
503.9121192355032122
 30
0.0
 11
4139.5781529190562651
 21
503.9121192355032122
 31
0.0
  0
LINE
  5
F2EA
  8
0
 10
4139.7454822563431662
 20
503.9170404953032971
 30
0.0
 11
4139.7276048095545775
 21
503.9170404953032971
 31
0.0
  0
LINE
  5
F2EB
  8
0
 10
4139.6632779882556861
 20
503.9170404953032971
 30
0.0
 11
4139.6396384496547398
 21
503.9170404953032971
 31
0.0
  0
LINE
  5
F2EC
  8
0
 10
4139.5753116283540294
 20
503.9170404953032971
 30
0.0
 11
4139.5516720897539926
 21
503.9170404953032971
 31
0.0
  0
LINE
  5
F2ED
  8
0
 10
4139.5076889097554158
 20
503.9325916764032058
 30
0.0
 11
4139.5313284483554526
 21
503.9325916764032058
 31
0.0
  0
LINE
  5
F2EE
  8
0
 10
4139.5956552697552979
 20
503.9325916764032058
 30
0.0
 11
4139.6192948082543808
 21
503.9325916764032058
 31
0.0
  0
LINE
  5
F2EF
  8
0
 10
4139.6836216296551356
 20
503.9325916764032058
 30
0.0
 11
4139.707261168155128
 21
503.9325916764032058
 31
0.0
  0
LINE
  5
F2F0
  8
0
 10
4139.4991650377551196
 20
503.9375129363032215
 30
0.0
 11
4139.5048476190549991
 21
503.9375129363032215
 31
0.0
  0
LINE
  5
F2F1
  8
0
 10
4139.5871313976549573
 20
503.9375129363032215
 30
0.0
 11
4139.5928139790548812
 21
503.9375129363032215
 31
0.0
  0
LINE
  5
F2F2
  8
0
 10
4139.675097757554795
 20
503.9375129363032215
 30
0.0
 11
4139.6807803389547189
 21
503.9375129363032215
 31
0.0
  0
LINE
  5
F2F3
  8
0
 10
4139.7157850402545591
 20
503.9375129363032215
 30
0.0
 11
4139.7101024588546352
 21
503.9375129363032215
 31
0.0
  0
LINE
  5
F2F4
  8
0
 10
4139.6278186803547214
 20
503.9375129363032215
 30
0.0
 11
4139.6221360989547975
 21
503.9375129363032215
 31
0.0
  0
LINE
  5
F2F5
  8
0
 10
4139.5398523204548837
 20
503.9375129363032215
 30
0.0
 11
4139.5341697390549598
 21
503.9375129363032215
 31
0.0
  0
LINE
  5
F2F6
  8
0
 10
4139.707261168155128
 20
503.9424341961033065
 30
0.0
 11
4139.6836216296551356
 21
503.9424341961033065
 31
0.0
  0
LINE
  5
F2F7
  8
0
 10
4139.6192948082543808
 20
503.9424341961033065
 30
0.0
 11
4139.5956552697552979
 21
503.9424341961033065
 31
0.0
  0
LINE
  5
F2F8
  8
0
 10
4139.5313284483554526
 20
503.9424341961033065
 30
0.0
 11
4139.5076889097554158
 21
503.9424341961033065
 31
0.0
  0
LINE
  5
F2F9
  8
0
 10
4139.5516720897539926
 20
503.9579853772032152
 30
0.0
 11
4139.5753116283540294
 21
503.9579853772032152
 31
0.0
  0
LINE
  5
F2FA
  8
0
 10
4139.6396384496547398
 20
503.9579853772032152
 30
0.0
 11
4139.6632779882556861
 21
503.9579853772032152
 31
0.0
  0
LINE
  5
F2FB
  8
0
 10
4139.7276048095545775
 20
503.9579853772032152
 30
0.0
 11
4139.7376660767740759
 21
503.9579853772032152
 31
0.0
  0
LINE
  5
F2FC
  8
0
 10
4139.5431482176545614
 20
503.962906637103174
 30
0.0
 11
4139.5488307990553949
 21
503.962906637103174
 31
0.0
  0
LINE
  5
F2FD
  8
0
 10
4139.6311145775553086
 20
503.962906637103174
 30
0.0
 11
4139.6367971589561421
 21
503.962906637103174
 31
0.0
  0
LINE
  5
F2FE
  8
0
 10
4139.7190809374551463
 20
503.962906637103174
 30
0.0
 11
4139.7247635188550703
 21
503.962906637103174
 31
0.0
  0
LINE
  5
F2FF
  8
0
 10
4139.6718018603542077
 20
503.962906637103174
 30
0.0
 11
4139.6661192789551933
 21
503.962906637103174
 31
0.0
  0
LINE
  5
F300
  8
0
 10
4139.5838355004552795
 20
503.962906637103174
 30
0.0
 11
4139.5781529190562651
 21
503.962906637103174
 31
0.0
  0
LINE
  5
F301
  8
0
 10
4139.4958691405563513
 20
503.962906637103174
 30
0.0
 11
4139.4901865591564274
 21
503.962906637103174
 31
0.0
  0
LINE
  5
F302
  8
0
 10
4139.7347899479964326
 20
503.9678278969033158
 30
0.0
 11
4139.7276048095545775
 21
503.9678278969033158
 31
0.0
  0
LINE
  5
F303
  8
0
 10
4139.6632779882556861
 20
503.9678278969033158
 30
0.0
 11
4139.6396384496547398
 21
503.9678278969033158
 31
0.0
  0
LINE
  5
F304
  8
0
 10
4139.5753116283540294
 20
503.9678278969033158
 30
0.0
 11
4139.5516720897539926
 21
503.9678278969033158
 31
0.0
  0
LINE
  5
F305
  8
0
 10
4139.5076889097554158
 20
503.9833790780032814
 30
0.0
 11
4139.5313284483554526
 21
503.9833790780032814
 31
0.0
  0
LINE
  5
F306
  8
0
 10
4139.5956552697552979
 20
503.9833790780032814
 30
0.0
 11
4139.6192948082543808
 21
503.9833790780032814
 31
0.0
  0
LINE
  5
F307
  8
0
 10
4139.6836216296551356
 20
503.9833790780032814
 30
0.0
 11
4139.707261168155128
 21
503.9833790780032814
 31
0.0
  0
LINE
  5
F308
  8
0
 10
4139.4991650377551196
 20
503.9883003378033095
 30
0.0
 11
4139.5048476190549991
 21
503.9883003378033095
 31
0.0
  0
LINE
  5
F309
  8
0
 10
4139.5871313976549573
 20
503.9883003378033095
 30
0.0
 11
4139.5928139790548812
 21
503.9883003378033095
 31
0.0
  0
LINE
  5
F30A
  8
0
 10
4139.675097757554795
 20
503.9883003378033095
 30
0.0
 11
4139.6807803389547189
 21
503.9883003378033095
 31
0.0
  0
LINE
  5
F30B
  8
0
 10
4139.7157850402545591
 20
503.9883003378033095
 30
0.0
 11
4139.7101024588546352
 21
503.9883003378033095
 31
0.0
  0
LINE
  5
F30C
  8
0
 10
4139.6278186803547214
 20
503.9883003378033095
 30
0.0
 11
4139.6221360989547975
 21
503.9883003378033095
 31
0.0
  0
LINE
  5
F30D
  8
0
 10
4139.5398523204548837
 20
503.9883003378033095
 30
0.0
 11
4139.5341697390549598
 21
503.9883003378033095
 31
0.0
  0
LINE
  5
F30E
  8
0
 10
4139.707261168155128
 20
503.9932215977033252
 30
0.0
 11
4139.6836216296551356
 21
503.9932215977033252
 31
0.0
  0
LINE
  5
F30F
  8
0
 10
4139.6192948082543808
 20
503.9932215977033252
 30
0.0
 11
4139.5956552697552979
 21
503.9932215977033252
 31
0.0
  0
LINE
  5
F310
  8
0
 10
4139.5313284483554526
 20
503.9932215977033252
 30
0.0
 11
4139.5076889097554158
 21
503.9932215977033252
 31
0.0
  0
LINE
  5
F311
  8
0
 10
4139.5516720897539926
 20
504.0087727788032907
 30
0.0
 11
4139.5753116283540294
 21
504.0087727788032907
 31
0.0
  0
LINE
  5
F312
  8
0
 10
4139.6396384496547398
 20
504.0087727788032907
 30
0.0
 11
4139.6632779882556861
 21
504.0087727788032907
 31
0.0
  0
LINE
  5
F313
  8
0
 10
4139.5431482176545614
 20
504.0136940386033189
 30
0.0
 11
4139.5488307990553949
 21
504.0136940386033189
 31
0.0
  0
LINE
  5
F314
  8
0
 10
4139.6311145775553086
 20
504.0136940386033189
 30
0.0
 11
4139.6367971589561421
 21
504.0136940386033189
 31
0.0
  0
LINE
  5
F315
  8
0
 10
4139.6718018603542077
 20
504.0136940386033189
 30
0.0
 11
4139.6661192789551933
 21
504.0136940386033189
 31
0.0
  0
LINE
  5
F316
  8
0
 10
4139.5838355004552795
 20
504.0136940386033189
 30
0.0
 11
4139.5781529190562651
 21
504.0136940386033189
 31
0.0
  0
LINE
  5
F317
  8
0
 10
4139.4958691405563513
 20
504.0136940386033189
 30
0.0
 11
4139.4901865591564274
 21
504.0136940386033189
 31
0.0
  0
LINE
  5
F318
  8
0
 10
4139.6632779882556861
 20
504.0186152985032209
 30
0.0
 11
4139.6396384496547398
 21
504.0186152985032209
 31
0.0
  0
LINE
  5
F319
  8
0
 10
4139.5753116283540294
 20
504.0186152985032209
 30
0.0
 11
4139.5516720897539926
 21
504.0186152985032209
 31
0.0
  0
LINE
  5
F31A
  8
0
 10
4139.5076889097554158
 20
504.0341664796033001
 30
0.0
 11
4139.5313284483554526
 21
504.0341664796033001
 31
0.0
  0
LINE
  5
F31B
  8
0
 10
4139.5956552697552979
 20
504.0341664796033001
 30
0.0
 11
4139.6192948082543808
 21
504.0341664796033001
 31
0.0
  0
LINE
  5
F31C
  8
0
 10
4139.6836216296551356
 20
504.0341664796033001
 30
0.0
 11
4139.7036851260709227
 21
504.0341664796033001
 31
0.0
  0
LINE
  5
F31D
  8
0
 10
4139.4991650377551196
 20
504.0390877394032145
 30
0.0
 11
4139.5048476190549991
 21
504.0390877394032145
 31
0.0
  0
LINE
  5
F31E
  8
0
 10
4139.5871313976549573
 20
504.0390877394032145
 30
0.0
 11
4139.5928139790548812
 21
504.0390877394032145
 31
0.0
  0
LINE
  5
F31F
  8
0
 10
4139.675097757554795
 20
504.0390877394032145
 30
0.0
 11
4139.6807803389547189
 21
504.0390877394032145
 31
0.0
  0
LINE
  5
F320
  8
0
 10
4139.6278186803547214
 20
504.0390877394032145
 30
0.0
 11
4139.6221360989547975
 21
504.0390877394032145
 31
0.0
  0
LINE
  5
F321
  8
0
 10
4139.5398523204548837
 20
504.0390877394032145
 30
0.0
 11
4139.5341697390549598
 21
504.0390877394032145
 31
0.0
  0
LINE
  5
F322
  8
0
 10
4139.6970149105291057
 20
504.0440089993031734
 30
0.0
 11
4139.6836216296551356
 21
504.0440089993031734
 31
0.0
  0
LINE
  5
F323
  8
0
 10
4139.6192948082543808
 20
504.0440089993031734
 30
0.0
 11
4139.5956552697552979
 21
504.0440089993031734
 31
0.0
  0
LINE
  5
F324
  8
0
 10
4139.5313284483554526
 20
504.0440089993031734
 30
0.0
 11
4139.5076889097554158
 21
504.0440089993031734
 31
0.0
  0
LINE
  5
F325
  8
0
 10
4139.5516720897539926
 20
504.0595601804031958
 30
0.0
 11
4139.5753116283540294
 21
504.0595601804031958
 31
0.0
  0
LINE
  5
F326
  8
0
 10
4139.6396384496547398
 20
504.0595601804031958
 30
0.0
 11
4139.6632779882556861
 21
504.0595601804031958
 31
0.0
  0
LINE
  5
F327
  8
0
 10
4139.5431482176545614
 20
504.0644814402032807
 30
0.0
 11
4139.5488307990553949
 21
504.0644814402032807
 31
0.0
  0
LINE
  5
F328
  8
0
 10
4139.6311145775553086
 20
504.0644814402032807
 30
0.0
 11
4139.6367971589561421
 21
504.0644814402032807
 31
0.0
  0
LINE
  5
F329
  8
0
 10
4139.6718018603542077
 20
504.0644814402032807
 30
0.0
 11
4139.6661192789551933
 21
504.0644814402032807
 31
0.0
  0
LINE
  5
F32A
  8
0
 10
4139.5838355004552795
 20
504.0644814402032807
 30
0.0
 11
4139.5781529190562651
 21
504.0644814402032807
 31
0.0
  0
LINE
  5
F32B
  8
0
 10
4139.4958691405563513
 20
504.0644814402032807
 30
0.0
 11
4139.4901865591564274
 21
504.0644814402032807
 31
0.0
  0
LINE
  5
F32C
  8
0
 10
4139.6632779882556861
 20
504.0694027001031827
 30
0.0
 11
4139.6396384496547398
 21
504.0694027001031827
 31
0.0
  0
LINE
  5
F32D
  8
0
 10
4139.5753116283540294
 20
504.0694027001031827
 30
0.0
 11
4139.5516720897539926
 21
504.0694027001031827
 31
0.0
  0
LINE
  5
F32E
  8
0
 10
4139.5076889097554158
 20
504.0849538812032051
 30
0.0
 11
4139.5313284483554526
 21
504.0849538812032051
 31
0.0
  0
LINE
  5
F32F
  8
0
 10
4139.5956552697552979
 20
504.0849538812032051
 30
0.0
 11
4139.6192948082543808
 21
504.0849538812032051
 31
0.0
  0
LINE
  5
F330
  8
0
 10
4139.4991650377551196
 20
504.0898751410032901
 30
0.0
 11
4139.5048476190549991
 21
504.0898751410032901
 31
0.0
  0
LINE
  5
F331
  8
0
 10
4139.5871313976549573
 20
504.0898751410032901
 30
0.0
 11
4139.5928139790548812
 21
504.0898751410032901
 31
0.0
  0
LINE
  5
F332
  8
0
 10
4139.6278186803547214
 20
504.0898751410032901
 30
0.0
 11
4139.6221360989547975
 21
504.0898751410032901
 31
0.0
  0
LINE
  5
F333
  8
0
 10
4139.5398523204548837
 20
504.0898751410032901
 30
0.0
 11
4139.5341697390549598
 21
504.0898751410032901
 31
0.0
  0
LINE
  5
F334
  8
0
 10
4139.6192948082543808
 20
504.0947964008033182
 30
0.0
 11
4139.5956552697552979
 21
504.0947964008033182
 31
0.0
  0
LINE
  5
F335
  8
0
 10
4139.5313284483554526
 20
504.0947964008033182
 30
0.0
 11
4139.5076889097554158
 21
504.0947964008033182
 31
0.0
  0
LINE
  5
F336
  8
0
 10
4139.5516720897539926
 20
504.1103475819032269
 30
0.0
 11
4139.5753116283540294
 21
504.1103475819032269
 31
0.0
  0
LINE
  5
F337
  8
0
 10
4139.5431482176545614
 20
504.1152688418032994
 30
0.0
 11
4139.5488307990553949
 21
504.1152688418032994
 31
0.0
  0
LINE
  5
F338
  8
0
 10
4139.5838355004552795
 20
504.1152688418032994
 30
0.0
 11
4139.5781529190562651
 21
504.1152688418032994
 31
0.0
  0
LINE
  5
F339
  8
0
 10
4139.4958691405563513
 20
504.1152688418032994
 30
0.0
 11
4139.4901865591564274
 21
504.1152688418032994
 31
0.0
  0
LINE
  5
F33A
  8
0
 10
4139.5753116283540294
 20
504.1201901016032139
 30
0.0
 11
4139.5516720897539926
 21
504.1201901016032139
 31
0.0
  0
LINE
  5
F33B
  8
0
 10
4139.5076889097554158
 20
504.1357412827031794
 30
0.0
 11
4139.5313284483554526
 21
504.1357412827031794
 31
0.0
  0
LINE
  5
F33C
  8
0
 10
4139.4991650377551196
 20
504.1406625426033088
 30
0.0
 11
4139.5048476190549991
 21
504.1406625426033088
 31
0.0
  0
LINE
  5
F33D
  8
0
 10
4139.5398523204548837
 20
504.1406625426033088
 30
0.0
 11
4139.5341697390549598
 21
504.1406625426033088
 31
0.0
  0
LINE
  5
F33E
  8
0
 10
4139.5313284483554526
 20
504.1455838024032801
 30
0.0
 11
4139.5076889097554158
 21
504.1455838024032801
 31
0.0
  0
LINE
  5
F33F
  8
0
 10
4140.1175683177916653
 20
506.0325808246033148
 30
0.0
 11
4140.1175683202927758
 21
505.9152188004031814
 31
0.0
  0
ARC
  5
F340
  8
0
 10
4139.4756894987540363
 20
482.4499681164907088
 30
0.0
 40
23.6220492540817588
 50
88.0714506424367443
 51
89.7578449509329062
  0
ARC
  5
F341
  8
0
 10
4140.2827748770259859
 20
505.0875122904769228
 30
0.0
 40
0.0196863586411303
 50
3.53603297238678
 51
90.4739469725940069
  0
ARC
  5
F342
  8
0
 10
4140.0860506192402681
 20
505.9152499171574959
 30
0.0
 40
0.0315177164130725
 50
270.2326533265227795
 51
359.9434331170057817
  0
ARC
  5
F343
  8
0
 10
4140.0860985941881154
 20
506.0327216598724931
 30
0.0
 40
0.031470038739848
 50
359.7435880667954962
 51
84.6159178546688082
  0
ARC
  5
F344
  8
0
 10
4139.4742306491662021
 20
503.8869720670585934
 30
0.0
 40
0.5665795703886207
 50
327.665331153881823
 51
35.9013515593591777
  0
ARC
  5
F345
  8
0
 10
4119.8258404397020058
 20
505.1643521790476257
 30
0.0
 40
20.4706533904581391
 50
359.5303469947431836
 51
359.7847919866450752
  0
LINE
  5
F346
  8
0
 10
4140.1084295432938234
 20
505.8930564450399174
 30
0.0
 11
4140.3024237569343313
 21
505.8050442932516262
 31
0.0
  0
ARC
  5
F347
  8
0
 10
4139.4781445589051145
 20
503.890861916861013
 30
0.0
 40
0.5611288725501958
 50
35.8139671180528083
 51
90.2674280761062562
  0
ARC
  5
F348
  8
0
 10
4139.4859599982673899
 20
503.8739602834327798
 30
0.0
 40
0.5497297308490733
 50
306.0598191772116934
 51
328.1573384189101148
  0
ARC
  5
F349
  8
0
 10
4139.4794440802261306
 20
503.8838769010641272
 30
0.0
 40
0.5615821042052069
 50
285.294704874779427
 51
306.0016923438744243
  0
ARC
  5
F34A
  8
0
 10
4139.4757481172409825
 20
503.8961268592922238
 30
0.0
 40
0.5743732234753404
 50
269.9777930507106021
 51
285.3279943178580993
  0
ARC
  5
F34B
  8
0
 10
4140.2709177530232409
 20
506.0270948795484856
 30
0.0
 40
0.0315434498690083
 50
2.7920840034360208
 51
90.4925518584198443
  0
ARC
  5
F34C
  8
0
 10
4140.263343108637855
 20
505.1396717134401797
 30
0.0
 40
0.0391495430465955
 50
327.2143894830310842
 51
356.600374691589991
  0
ARC
  5
F34D
  8
0
 10
4140.26544627830026
 20
505.1434982156694105
 30
0.0
 40
0.0396931634061328
 50
293.8621753683195266
 51
320.9142315167540005
  0
ARC
  5
F34E
  8
0
 10
4140.2766719261489925
 20
505.0875490589240258
 30
0.0
 40
0.0196776913114972
 50
359.7487678460877873
 51
86.9010941172659699
  0
ARC
  5
F34F
  8
0
 10
4132.5761974196402662
 20
505.0125840723308102
 30
0.0
 40
7.7196253347159702
 50
356.9562031097034946
 51
359.8810402238221968
  0
ARC
  5
F350
  8
0
 10
4138.2479081398023482
 20
504.7118714679168079
 30
0.0
 40
2.0399486129929132
 50
352.4790042610898126
 51
356.9316141647142899
  0
ARC
  5
F351
  8
0
 10
4139.668888149389204
 20
504.5203436644886779
 30
0.0
 40
0.6061368426005898
 50
343.397133411349273
 51
352.8465933960201824
  0
ARC
  5
F352
  8
0
 10
4140.057342364509168
 20
504.4038564848686974
 30
0.0
 40
0.2005943402145695
 50
329.2348310543923731
 51
343.5785526442334117
  0
ARC
  5
F353
  8
0
 10
4140.147197312233402
 20
504.3499789201600265
 30
0.0
 40
0.0958256817464304
 50
309.7696642672015059
 51
329.4338023467246899
  0
ARC
  5
F354
  8
0
 10
4140.1590989476253526
 20
504.3412454248007748
 30
0.0
 40
0.0815771725225978
 50
281.6401446511105746
 51
307.2677839265564899
  0
ARC
  5
F355
  8
0
 10
4141.7244030186211603
 20
494.6336964905282798
 30
0.0
 40
9.7514385724623551
 50
99.1391329800494532
 51
100.5846789183024015
  0
ARC
  5
F356
  8
0
 10
4140.2359441709868406
 20
504.8915501347885879
 30
0.0
 40
1.3708895220785959
 50
257.2470686769812005
 51
262.8251483792930117
  0
ARC
  5
F357
  8
0
 10
4139.709145709241966
 20
500.9870556554338918
 30
0.0
 40
2.5690657911279922
 50
80.3384387767974033
 51
82.0443066222803878
  0
ARC
  5
F358
  8
0
 10
4140.0911214767802448
 20
503.226950643225905
 30
0.0
 40
0.2968352811967824
 50
70.4870081599254803
 51
80.4621128237008492
  0
ARC
  5
F359
  8
0
 10
4140.1603023283087168
 20
503.4397239563083986
 30
0.0
 40
0.0734091283155069
 50
34.6969857019697301
 51
65.9059315867567648
  0
ARC
  5
F35A
  8
0
 10
4140.0948722269149584
 20
503.4031501910575912
 30
0.0
 40
0.1481969704239431
 50
18.1255678153443185
 51
31.9218358603545909
  0
ARC
  5
F35B
  8
0
 10
4139.7192948774190882
 20
503.2819153685229026
 30
0.0
 40
0.5428556939652274
 50
9.0613261087862291
 51
17.9542111703035587
  0
ARC
  5
F35C
  8
0
 10
4138.7994618766979329
 20
503.1203121586298153
 30
0.0
 40
1.476733997944734
 50
6.2923838972589108
 51
9.6324775839538699
  0
ARC
  5
F35D
  8
0
 10
4135.3331618699075989
 20
502.7901908743647255
 30
0.0
 40
4.9586037892345942
 50
1.373602157082036
 51
5.6940461157419664
  0
ARC
  5
F35E
  8
0
 10
4120.7114744828959374
 20
502.3971031357779111
 30
0.0
 40
19.5855584744475593
 50
0.3910477091593707
 51
1.497843742175758
  0
CIRCLE
  5
F35F
  8
0
 10
4139.4755254991550828
 20
503.8867255347033165
 30
0.0
 40
0.3937007874
  0
ARC
  5
F360
  8
0
 10
4139.4756895493046613
 20
482.4499920774737234
 30
0.0
 40
23.6220252930991386
 50
89.7578448279517005
 51
90.2429509942369634
  0
LINE
  5
F361
  8
0
 10
4138.6489451926054244
 20
505.0885491649823962
 30
0.0
 11
4138.6489451926054244
 21
500.2034822062025228
 31
0.0
  0
LINE
  5
F362
  8
0
 10
4140.3024237569343313
 20
505.0887264712229126
 30
0.0
 11
4140.3024237569343313
 21
500.2034850282039997
 31
0.0
  0
ARC
  5
F363
  8
0
 10
4143.3100951362166597
 20
502.7072483620682988
 30
0.0
 40
3.018681113903491
 50
183.3514478853597893
 51
184.8949642215494009
  0
LINE
  5
F364
  8
0
 10
4138.6489451926054244
 20
505.1375278243464777
 30
0.0
 11
4138.6489451926054244
 21
506.0284068679480924
 31
0.0
  0
LINE
  5
F365
  8
0
 10
4140.3024237569343313
 20
505.1373501515868156
 30
0.0
 11
4140.3024237569343313
 21
506.028631416951896
 31
0.0
  0
LINE
  5
F366
  8
0
 10
4138.5504926718049319
 20
499.8611344972238726
 30
0.0
 11
4138.5504926718049319
 21
499.8316074245033178
 31
0.0
  0
LINE
  5
F367
  8
0
 10
4140.4005583265043242
 20
499.8316074245033178
 30
0.0
 11
4140.4005583265043242
 21
499.8657178663330001
 31
0.0
  0
ENDSEC
  0
EOF
