  0
SECTION
  2
HEADER
  9
$ACADVER
  1
AC1009
  9
$INSBASE
 10
3604.1503077504580688
 20
296.5426846354313852
 30
0.0
  9
$EXTMIN
 10
3598.7156165957489975
 20
296.5143468079904778
 30
-0.0000000000112498
  9
$EXTMAX
 10
3605.3169434235951485
 20
307.1530194862568237
 30
0.0000000000002956
  9
$LIMMIN
 10
0.0
 20
0.0
  9
$LIMMAX
 10
11.6929133858000007
 20
8.2677165353999982
  9
$ORTHOMODE
 70
     0
  9
$REGENMODE
 70
     1
  9
$FILLMODE
 70
     1
  9
$QTEXTMODE
 70
     0
  9
$MIRRTEXT
 70
     0
  9
$DRAGMODE
 70
     2
  9
$LTSCALE
 40
0.6431102362
  9
$OSMODE
 70
  4095
  9
$ATTMODE
 70
     1
  9
$TEXTSIZE
 40
0.2
  9
$TRACEWID
 40
0.05
  9
$TEXTSTYLE
  7
STANDARD
  9
$CLAYER
  8
0
  9
$CELTYPE
  6
BYLAYER
  9
$CECOLOR
 62
   256
  9
$DIMSCALE
 40
1.0
  9
$DIMASZ
 40
0.1875
  9
$DIMEXO
 40
0.0625
  9
$DIMDLI
 40
0.4443307087
  9
$DIMRND
 40
0.0
  9
$DIMDLE
 40
0.0
  9
$DIMEXE
 40
0.125
  9
$DIMTP
 40
0.01
  9
$DIMTM
 40
0.01
  9
$DIMTXT
 40
2.0
  9
$DIMCEN
 40
0.1052362205
  9
$DIMTSZ
 40
0.0
  9
$DIMTOL
 70
     1
  9
$DIMLIM
 70
     0
  9
$DIMTIH
 70
     1
  9
$DIMTOH
 70
     1
  9
$DIMSE1
 70
     0
  9
$DIMSE2
 70
     0
  9
$DIMTAD
 70
     0
  9
$DIMZIN
 70
     0
  9
$DIMBLK
  1

  9
$DIMASO
 70
     1
  9
$DIMSHO
 70
     1
  9
$DIMPOST
  1
\X
  9
$DIMAPOST
  1

  9
$DIMALT
 70
     1
  9
$DIMALTD
 70
     2
  9
$DIMALTF
 40
25.3999999999999986
  9
$DIMLFAC
 40
1.0
  9
$DIMTOFL
 70
     0
  9
$DIMTVP
 40
0.0
  9
$DIMTIX
 70
     0
  9
$DIMSOXD
 70
     0
  9
$DIMSAH
 70
     0
  9
$DIMBLK1
  1

  9
$DIMBLK2
  1

  9
$DIMSTYLE
  2
STANDARD
  9
$DIMCLRD
 70
     0
  9
$DIMCLRE
 70
     0
  9
$DIMCLRT
 70
     0
  9
$DIMTFAC
 40
1.0
  9
$DIMGAP
 40
0.09
  9
$LUNITS
 70
     2
  9
$LUPREC
 70
     4
  9
$SKETCHINC
 40
0.1
  9
$FILLETRAD
 40
0.0
  9
$AUNITS
 70
     0
  9
$AUPREC
 70
     0
  9
$MENU
  1
.
  9
$ELEVATION
 40
0.0
  9
$PELEVATION
 40
0.0
  9
$THICKNESS
 40
0.0
  9
$LIMCHECK
 70
     0
  9
$BLIPMODE
 70
     0
  9
$CHAMFERA
 40
0.0
  9
$CHAMFERB
 40
0.0
  9
$SKPOLY
 70
     0
  9
$TDCREATE
 40
2458060.468368056230247
  9
$TDUPDATE
 40
2459766.554849537089467
  9
$TDINDWG
 40
0.5148944097
  9
$TDUSRTIMER
 40
0.5148944097
  9
$USRTIMER
 70
     1
  9
$ANGBASE
 50
0.0
  9
$ANGDIR
 70
     0
  9
$PDMODE
 70
     0
  9
$PDSIZE
 40
0.3125
  9
$PLINEWID
 40
0.0
  9
$COORDS
 70
     1
  9
$SPLFRAME
 70
     0
  9
$SPLINETYPE
 70
     6
  9
$SPLINESEGS
 70
     8
  9
$ATTDIA
 70
     1
  9
$ATTREQ
 70
     1
  9
$HANDLING
 70
     1
  9
$HANDSEED
  5
C1AD
  9
$SURFTAB1
 70
     6
  9
$SURFTAB2
 70
     6
  9
$SURFTYPE
 70
     6
  9
$SURFU
 70
     6
  9
$SURFV
 70
     6
  9
$UCSNAME
  2

  9
$UCSORG
 10
0.0
 20
0.0
 30
0.0
  9
$UCSXDIR
 10
1.0
 20
0.0
 30
0.0
  9
$UCSYDIR
 10
0.0
 20
1.0
 30
0.0
  9
$PUCSNAME
  2

  9
$PUCSORG
 10
0.0
 20
0.0
 30
0.0
  9
$PUCSXDIR
 10
1.0
 20
0.0
 30
0.0
  9
$PUCSYDIR
 10
0.0
 20
1.0
 30
0.0
  9
$USERI1
 70
     0
  9
$USERI2
 70
     0
  9
$USERI3
 70
     0
  9
$USERI4
 70
     0
  9
$USERI5
 70
     0
  9
$USERR1
 40
0.0
  9
$USERR2
 40
0.0
  9
$USERR3
 40
0.0
  9
$USERR4
 40
0.0
  9
$USERR5
 40
0.0
  9
$WORLDVIEW
 70
     1
  9
$SHADEDGE
 70
     3
  9
$SHADEDIF
 70
    70
  9
$TILEMODE
 70
     1
  9
$MAXACTVP
 70
    64
  9
$PLIMCHECK
 70
     0
  9
$PEXTMIN
 10
1.0000000000000000E+20
 20
1.0000000000000000E+20
 30
1.0000000000000000E+20
  9
$PEXTMAX
 10
-1.0000000000000000E+20
 20
-1.0000000000000000E+20
 30
-1.0000000000000000E+20
  9
$PLIMMIN
 10
0.0
 20
0.0
  9
$PLIMMAX
 10
12.0
 20
9.0
  9
$UNITMODE
 70
     0
  9
$VISRETAIN
 70
     1
  9
$PLINEGEN
 70
     0
  9
$PSLTSCALE
 70
     1
  0
ENDSEC
  0
SECTION
  2
TABLES
  0
TABLE
  2
VPORT
 70
     1
  0
VPORT
  2
*ACTIVE
 70
     0
 10
0.0
 20
0.0
 11
1.0
 21
1.0
 12
-2.1343547559526992
 22
-0.0370600354686417
 13
0.0
 23
0.0
 14
1.0
 24
1.0
 15
0.0
 25
0.0
 16
0.0
 26
0.0
 36
39.5433204706503005
 17
3604.1506347656259095
 27
301.8707431825923209
 37
0.0
 40
10.7148445590175996
 41
2.2831541218637992
 42
50.0
 43
0.0
 44
0.0
 50
0.0
 51
0.0
 71
     0
 72
   100
 73
     1
 74
     1
 75
     0
 76
     0
 77
     0
 78
     0
  0
ENDTAB
  0
TABLE
  2
LTYPE
 70
     2
  0
LTYPE
  2
CONTINUOUS
 70
     0
  3
Solid line
 72
    65
 73
     0
 40
0.0
  0
LTYPE
  2
PHANTOM2
 70
     0
  3
___ _ _ ___ _ _ ___ _ _ ___ _ _
 72
    65
 73
     6
 40
1.25
 49
0.625
 49
-0.125
 49
0.125
 49
-0.125
 49
0.125
 49
-0.125
  0
ENDTAB
  0
TABLE
  2
LAYER
 70
     2
  0
LAYER
  2
0
 70
     0
 62
   255
  6
CONTINUOUS
  0
LAYER
  2
DEFPOINTS
 70
     0
 62
     7
  6
CONTINUOUS
  0
ENDTAB
  0
TABLE
  2
STYLE
 70
     1
  0
STYLE
  2
STANDARD
 70
     0
 40
0.0
 41
0.8
 50
0.0
 71
     0
 42
0.2
  3
txt
  4

  0
ENDTAB
  0
TABLE
  2
VIEW
 70
     0
  0
ENDTAB
  0
TABLE
  2
UCS
 70
     0
  0
ENDTAB
  0
TABLE
  2
APPID
 70
    10
  0
APPID
  2
ACAD
 70
     0
  0
APPID
  2
ACAD_MLEADERVER
 70
     0
  0
APPID
  2
ACAD_EXEMPT_FROM_CAD_STANDARDS
 70
     0
  0
APPID
  2
ACAD_NAV_VCDISPLAY
 70
     0
  0
APPID
  2
ACAECLAYERSTANDARD
 70
     0
  0
APPID
  2
ACCMTRANSPARENCY
 70
     0
  0
APPID
  2
ACAD_DSTYLE_DIMJAG
 70
     0
  0
APPID
  2
ACAD_DSTYLE_DIMTALN
 70
     0
  0
APPID
  2
ACDBATTR
 70
     0
  0
APPID
  2
ACADANNOTATIVE
 70
     0
  0
ENDTAB
  0
TABLE
  2
DIMSTYLE
 70
     1
  0
DIMSTYLE
  2
STANDARD
 70
     0
  3

  4

  5

  6

  7

 40
1.0
 41
0.1875
 42
0.0625
 43
0.38
 44
0.125
 45
0.0
 46
0.0
 47
0.01
 48
0.01
140
0.15625
141
0.09
142
0.0
143
25.3999999999999986
144
1.0
145
0.0
146
1.0
147
0.09
 71
     1
 72
     0
 73
     1
 74
     1
 75
     0
 76
     0
 77
     0
 78
     4
170
     0
171
     2
172
     0
173
     0
174
     0
175
     0
176
     0
177
     0
178
     0
  0
ENDTAB
  0
ENDSEC
  0
SECTION
  2
BLOCKS
  0
BLOCK
  8
0
  2
$MODEL_SPACE
 70
     0
 10
0.0
 20
0.0
 30
0.0
  3
$MODEL_SPACE
  1

  0
ENDBLK
  5
21
  8
0
  0
BLOCK
 67
     1
  8
0
  2
$PAPER_SPACE
 70
     0
 10
0.0
 20
0.0
 30
0.0
  3
$PAPER_SPACE
  1

  0
ENDBLK
  5
1D
 67
     1
  8
0
  0
ENDSEC
  0
SECTION
  2
ENTITIES
  0
ATTDEF
  5
A142
  8
DEFPOINTS
 10
3604.1557143958461893
 20
296.5370121424556942
 30
0.0
 40
0.001
  1
K-74026BR-B4ND
  3

  2
MODELNUMBER
 70
     0
1001
ACDBATTR
1070
     0
1070
     1
  0
ATTDEF
  5
A143
  8
DEFPOINTS
 10
3604.1557143958461893
 20
296.5353454757890859
 30
0.0
 40
0.001
  1
TAUT
  3

  2
TRADENAME
 70
     0
1001
ACDBATTR
1070
     0
1070
     1
  0
ATTDEF
  5
A144
  8
DEFPOINTS
 10
3604.1557143958461893
 20
296.5336788091224207
 30
0.0
 40
0.001
  1
BATHROOM SINK FAUCET
  3

  2
PRODUCT
 70
     0
1001
ACDBATTR
1070
     0
1070
     1
  0
LINE
  5
BBB6
  8
0
 10
3604.9460364177498377
 20
307.1329254247972926
 30
0.0
 11
3601.0157750234839114
 21
307.1329254247972926
 31
0.0
  0
ARC
  5
BBB7
  8
0
 10
3601.0157750234839114
 20
307.1014293617972726
 30
0.0
 40
0.031496063000021
 50
90.0
 51
180.0000680358365059
  0
LINE
  5
BBB8
  8
0
 10
3600.9842789604840618
 20
307.1014293243973157
 30
0.0
 11
3600.9842791078749542
 21
306.9773048691005783
 31
0.0
  0
ARC
  5
BBB9
  8
0
 10
3601.0167526456289124
 20
306.9773049076612779
 30
0.0
 40
0.0324735377541943
 50
180.0000680358365059
 51
265.1084260899676224
  0
LINE
  5
BBBA
  8
0
 10
3601.0139836141838714
 20
306.9449496434972957
 30
0.0
 11
3603.2963268238340788
 21
306.8155779116972894
 31
0.0
  0
ARC
  5
BBBB
  8
0
 10
3603.2924306649338178
 20
306.7842606929506815
 30
0.0
 40
0.0315586476928432
 50
0.1699571233950607
 51
82.9082998423465654
  0
LINE
  5
BBBC
  8
0
 10
3603.3239891737839571
 20
306.7843543055896021
 30
0.0
 11
3603.3239891737839571
 21
306.7438842924458982
 31
0.0
  0
ARC
  5
BBBD
  8
0
 10
3602.5448869192368875
 20
306.6019783233626868
 30
0.0
 40
0.791920215111071
 50
0.448307139557342
 51
10.3227144847897492
  0
ARC
  5
BBBE
  8
0
 10
3602.5018179589651481
 20
306.6039540339378959
 30
0.0
 40
0.8349756010166363
 50
349.9531025931892145
 51
0.2896144699855104
  0
LINE
  5
BBBF
  8
0
 10
3603.323989450983845
 20
306.4582890346973159
 30
0.0
 11
3603.3239891736839127
 21
306.1877910698972869
 31
0.0
  0
ARC
  5
BBC0
  8
0
 10
3603.3436742130138555
 20
306.1877910697265861
 30
0.0
 40
0.0196850392292838
 50
179.999999503112889
 51
270.0000002126357117
  0
LINE
  5
BBC1
  8
0
 10
3603.3436742130861603
 20
306.168106030497313
 30
0.0
 11
3604.0481514553612215
 21
306.1681060331117123
 31
0.0
  0
ARC
  5
BBC2
  8
0
 10
3604.0481060772649471
 20
306.5618068465108195
 30
0.0
 40
0.3937008160142379
 50
270.0066039318729167
 51
294.9999976249388851
  0
LINE
  5
BBC3
  8
0
 10
3604.214491216983788
 20
306.2049927242973126
 30
0.0
 11
3604.9661666803681328
 21
306.555504775902989
 31
0.0
  0
LINE
  5
BBC4
  8
0
 10
3604.9661666803681328
 20
306.555504775902989
 30
0.0
 11
3604.9775324808838377
 21
306.5733454672736116
 31
0.0
  0
LINE
  5
BBC5
  8
0
 10
3604.9775324808838377
 20
306.5733454672736116
 30
0.0
 11
3604.9775324808838377
 21
307.1014293617972726
 31
0.0
  0
ARC
  5
BBC6
  8
0
 10
3604.9460364178839882
 20
307.1014293617972726
 30
0.0
 40
0.0314960629999988
 50
0.0000000000032569
 51
90.0
  0
ARC
  5
BBC7
  8
0
 10
3604.0468699088842186
 20
305.9559850471972027
 30
0.0
 40
0.8661417323000712
 50
7.9370563895849813
 51
35.2979626567099913
  0
LINE
  5
BBC8
  8
0
 10
3604.979515129884021
 20
306.075586345397312
 30
0.0
 11
3603.325931720583867
 21
306.075586345397312
 31
0.0
  0
ARC
  5
BBC9
  8
0
 10
3602.7198587884881817
 20
306.0884343253338784
 30
0.0
 40
0.6062090972655272
 50
287.1083937042135972
 51
358.7855838023888282
  0
ARC
  5
BBCA
  8
0
 10
3602.5269868814630172
 20
303.5238263321394925
 30
0.0
 40
0.8018303493967884
 50
355.1756377701082101
 51
48.9394020896874693
  0
LINE
  5
BBCB
  8
0
 10
3603.3259764976842234
 20
303.4563911604142845
 30
0.0
 11
3603.3231070275410275
 21
296.9030007770414272
 31
0.0
  0
LINE
  5
BBCC
  8
0
 10
3604.9766473779409353
 20
296.9030010931106744
 30
0.0
 11
3604.9768801625241395
 21
298.905975838084828
 31
0.0
  0
LINE
  5
BBCD
  8
0
 10
3604.9768801625241395
 20
298.905975838084828
 30
0.0
 11
3604.9795168480841312
 21
306.075586345397312
 31
0.0
  0
ARC
  5
BBCE
  8
0
 10
3602.3653561829000864
 20
306.9953453792866753
 30
0.0
 40
1.578920385655544
 50
273.1650991836497724
 51
289.7227745410208968
  0
ARC
  5
BBCF
  8
0
 10
3601.7884584643188646
 20
314.061687717498728
 30
0.0
 40
8.6683288288055831
 50
271.6841087037789748
 51
274.3936980376338965
  0
LINE
  5
BBD0
  8
0
 10
3603.4007773098719554
 20
306.075586345397312
 30
0.0
 11
3603.4188589052459974
 21
306.1681060307763005
 31
0.0
  0
ARC
  5
BBD1
  8
0
 10
3601.4000726711810785
 20
322.8399579802863855
 30
0.0
 40
16.1704907316429498
 50
276.8338999661895059
 51
278.9302771356860831
  0
ARC
  5
BBD2
  8
0
 10
3600.7108661509428202
 20
245.5161724146394988
 30
0.0
 40
61.4150459783203999
 50
88.0015514221982045
 51
89.4435380762309507
  0
ARC
  5
BBD3
  8
0
 10
3605.1425716385738269
 20
372.5222132102736055
 30
0.0
 40
65.6682905064894129
 50
268.0015514221981903
 51
268.9247390061553915
  0
ARC
  5
BBD4
  8
0
 10
3602.2135262144552144
 20
323.913924934452325
 30
0.0
 40
18.5166190407481217
 50
271.1225637132768043
 51
272.9732301216429846
  0
ARC
  5
BBD5
  8
0
 10
3603.0278344814710181
 20
308.3660811567634141
 30
0.0
 40
2.947474638799072
 50
272.8419146644617967
 51
280.0348882389911864
  0
ARC
  5
BBD6
  8
0
 10
3603.3971715512079754
 20
306.2788991644723069
 30
0.0
 40
0.827866528787899
 50
280.0348882389911864
 51
298.3886016637301282
  0
ARC
  5
BBD7
  8
0
 10
3603.4558222788250532
 20
306.1109803260858939
 30
0.0
 40
0.6528666566958616
 50
300.8676648515141778
 51
321.7185969701174031
  0
ARC
  5
BBD8
  8
0
 10
3603.4512648394847929
 20
306.0943917608256015
 30
0.0
 40
0.6463613699742541
 50
323.1233034558914028
 51
358.3327855700230771
  0
ARC
  5
BBD9
  8
0
 10
3602.0175987426391657
 20
314.8031966975555065
 30
0.0
 40
9.4189211311106877
 50
268.1412530983809006
 51
273.4005351697372816
  0
ARC
  5
BBDA
  8
0
 10
3602.3892204873991432
 20
294.2143634843691871
 30
0.0
 40
10.2733401859142095
 50
85.2065882037157962
 51
88.9565271883691082
  0
ARC
  5
BBDB
  8
0
 10
3603.1648740531582007
 20
303.2259037695428106
 30
0.0
 40
1.2286631315784149
 50
64.7910660377286263
 51
86.134944921720944
  0
ARC
  5
BBDC
  8
0
 10
3603.3989515150769876
 20
303.7895688294256047
 30
0.0
 40
0.6196290587156531
 50
28.5091675502379012
 51
62.1740222378311884
  0
ARC
  5
BBDD
  8
0
 10
3602.9317083881787767
 20
303.5315853160832944
 30
0.0
 40
1.1533558937042441
 50
6.8215270882997201
 51
28.6922679003010295
  0
ARC
  5
BBDE
  8
0
 10
3600.8893205459198725
 20
303.3006543707439278
 30
0.0
 40
3.2087423995826301
 50
358.7942751098688063
 51
6.5841717872572403
  0
LINE
  5
BBDF
  8
0
 10
3604.0973524848700436
 20
303.2331349990583931
 30
0.0
 11
3604.0973524848700436
 21
296.9144407305313962
 31
0.0
  0
LINE
  5
BBE0
  8
0
 10
3600.0094080809408297
 20
304.4093673185313946
 30
0.0
 11
3602.3417202621849356
 21
304.3402009585142878
 31
0.0
  0
ARC
  5
BBE1
  8
0
 10
3602.3425481644599131
 20
303.0403945660062277
 30
0.0
 40
1.299806656171242
 50
56.8315931809329484
 51
90.0364941271976704
  0
ARC
  5
BBE2
  8
0
 10
3570.8146563895661529
 20
1624.7920346413359312
 30
0.0
 40
1319.7644516608299909
 50
271.2161477376524772
 51
271.3558718365054006
  0
ARC
  5
BBE3
  8
0
 10
3603.3971715512079754
 20
306.2788991644724206
 30
0.0
 40
0.827866528787899
 50
280.0348882389911864
 51
298.3886016637301282
  0
ARC
  5
BBE4
  8
0
 10
3602.3892204873991432
 20
294.2143634843691871
 30
0.0
 40
10.2733401859142095
 50
85.2065882036895488
 51
88.9565271883691082
  0
ARC
  5
BBE5
  8
0
 10
3603.1648740531591102
 20
303.2259037695429242
 30
0.0
 40
1.2286631315784149
 50
64.7910660377286263
 51
86.134944921720944
  0
ARC
  5
BBE6
  8
0
 10
3603.3989515150769876
 20
303.7895688294257184
 30
0.0
 40
0.6196290587156531
 50
28.5091675502379012
 51
62.1740222378311884
  0
ARC
  5
BBE7
  8
0
 10
3602.9317083881801409
 20
303.5315853160834081
 30
0.0
 40
1.1533558937042441
 50
6.8215270882997201
 51
28.6922679003010295
  0
ARC
  5
BBE8
  8
0
 10
3600.8893205459198725
 20
303.3006543707439846
 30
0.0
 40
3.2087423995826301
 50
358.7942751098688063
 51
6.5841717872572403
  0
ARC
  5
BBE9
  8
0
 10
3598.9630999354008054
 20
228.1504981262519891
 30
0.0
 40
76.4209665105641847
 50
87.2900262344043654
 51
90.1245472140227122
  0
LINE
  5
BBEA
  8
0
 10
3598.7955456533741199
 20
304.5773626984920952
 30
0.0
 11
3598.7955456533741199
 21
305.2926115928488002
 31
0.0
  0
ARC
  5
BBEB
  8
0
 10
3598.8285237915770267
 20
305.2920187305974764
 30
0.0
 40
0.0329834668432017
 50
95.110393664690875
 51
178.9700799382027014
  0
ARC
  5
BF0A
  8
0
 10
3598.8278258548139092
 20
304.5751428692087757
 30
0.0
 40
0.0323564374898919
 50
176.0661048319537088
 51
255.8005162356479048
  0
ARC
  5
BF0B
  8
0
 10
3598.9957781562170567
 20
305.2389090498980977
 30
0.0
 40
0.7170414148142439
 50
255.8005162356479048
 51
258.4209077766259952
  0
ARC
  5
BF0C
  8
0
 10
3598.9995473892058726
 20
305.2573053998585237
 30
0.0
 40
0.7358199347023997
 50
258.4209077766259952
 51
262.9936812477394028
  0
ARC
  5
BF0D
  8
0
 10
3599.0428659934891584
 20
305.6097857506665036
 30
0.0
 40
1.09095216244675
 50
262.9936812477394028
 51
269.9889524314801861
  0
ARC
  5
BF0E
  8
0
 10
3599.0384149522278676
 20
282.5254414499950144
 30
0.0
 40
21.9933925673417505
 50
89.5862968368513748
 51
89.9889524314802856
  0
ARC
  5
BF0F
  8
0
 10
3599.2713641768918933
 20
300.4651429753764091
 30
0.0
 40
4.0537958996676711
 50
86.6951879095175713
 51
91.0480516111348521
  0
ARC
  5
BF10
  8
0
 10
3599.6459642349900605
 20
305.0217579159590855
 30
0.0
 40
0.6260373275953272
 50
233.4346544650028932
 51
247.2061094693162033
  0
ARC
  5
BF11
  8
0
 10
3599.6164386367668158
 20
304.9514983227285825
 30
0.0
 40
0.5498259676065784
 50
247.2061094693162033
 51
259.8897198867680913
  0
ARC
  5
BF12
  8
0
 10
3599.6354424030600967
 20
305.0580740975499907
 30
0.0
 40
0.6580827868472463
 50
259.8897198867680913
 51
266.9064674640169983
  0
ARC
  5
BF13
  8
0
 10
3599.6287092074740031
 20
304.9334887773269998
 30
0.0
 40
0.5333156520004811
 50
266.9064674640169983
 51
275.8086553831025185
  0
ARC
  5
BF14
  8
0
 10
3599.8193197292707737
 20
303.9986606100486028
 30
0.0
 40
0.4525633456584104
 50
65.1637738225288246
 51
70.5544961300363411
  0
ARC
  5
BF15
  8
0
 10
3599.5646859243670406
 20
303.2774175282002034
 30
0.0
 40
1.2174358564171379
 50
70.5544961300363411
 51
77.8385216782983349
  0
ARC
  5
BF16
  8
0
 10
3599.317457238696079
 20
302.130205923005974
 30
0.0
 40
2.390984530358887
 50
77.8385216782983349
 51
81.4894696924257573
  0
ARC
  5
BF17
  8
0
 10
3599.3942252260071655
 20
302.6432275187975165
 30
0.0
 40
1.8722509941149721
 50
81.4894696924257573
 51
86.6559336609596045
  0
LINE
  5
BF18
  8
0
 10
3599.9821814489100689
 20
304.4209041915391936
 30
0.0
 11
3599.9777234279408731
 21
304.4086472570314186
 31
0.0
  0
LINE
  5
BF19
  8
0
 10
3599.9777234279408731
 20
304.4086472570314186
 30
0.0
 11
3599.808601683148936
 21
304.4702025381956219
 31
0.0
  0
LINE
  5
BF1A
  8
0
 10
3599.8260407609159302
 20
304.4638552329660115
 30
0.0
 11
3599.8109024211421456
 21
304.4567961092313908
 31
0.0
  0
LINE
  5
BF1B
  8
0
 10
3599.8109024211421456
 20
304.4567961092313908
 30
0.0
 11
3599.7908957719528189
 21
304.4018282922639855
 31
0.0
  0
ARC
  5
BF1C
  8
0
 10
3599.7538999994330879
 20
304.4152936522344817
 30
0.0
 40
0.0393700787846506
 50
294.9999999163198936
 51
340.0000000281563075
  0
LINE
  5
BF1D
  8
0
 10
3599.7705385136418954
 20
304.3796122432314064
 30
0.0
 11
3599.7600876709288968
 21
304.3747389352589039
 31
0.0
  0
LINE
  5
BF1E
  8
0
 10
3599.7600876709288968
 20
304.3747389352589039
 30
0.0
 11
3599.3670015669740678
 21
304.517810576572117
 31
0.0
  0
LINE
  5
BF1F
  8
0
 10
3599.3157909121359808
 20
304.5156187125828069
 30
0.0
 11
3599.3261300830599794
 21
304.5152477485813165
 31
0.0
  0
LINE
  5
BF20
  8
0
 10
3599.3261300830599794
 20
304.5152477485813165
 30
0.0
 11
3599.343264535058097
 21
304.5047690640938072
 31
0.0
  0
LINE
  5
BF21
  8
0
 10
3599.343264535058097
 20
304.5047690640938072
 30
0.0
 11
3599.350085088753076
 21
304.4947307788158923
 31
0.0
  0
LINE
  5
BF22
  8
0
 10
3599.350085088753076
 20
304.4947307788158923
 30
0.0
 11
3599.3397674200828078
 21
304.4951608192253047
 31
0.0
  0
LINE
  5
BF23
  8
0
 10
3599.3397674200828078
 20
304.4951608192253047
 30
0.0
 11
3599.3226079905311963
 21
304.5055708791020948
 31
0.0
  0
LINE
  5
BF24
  8
0
 10
3599.3226079905311963
 20
304.5055708791020948
 30
0.0
 11
3599.3157909121359808
 21
304.5156187125828069
 31
0.0
  0
LINE
  5
BF25
  8
0
 10
3599.3430570057380464
 20
304.5091363376945992
 30
0.0
 11
3599.3538733517279979
 21
304.5100764016946755
 31
0.0
  0
LINE
  5
BF26
  8
0
 10
3599.3538733517279979
 20
304.5100764016946755
 30
0.0
 11
3599.3713390637108205
 21
304.5005078462481265
 31
0.0
  0
LINE
  5
BF27
  8
0
 10
3599.3713390637108205
 20
304.5005078462481265
 30
0.0
 11
3599.3780111355581539
 21
304.4900616109206908
 31
0.0
  0
LINE
  5
BF28
  8
0
 10
3599.3780111355581539
 20
304.4900616109206908
 30
0.0
 11
3599.3672244118151866
 21
304.4892029333598771
 31
0.0
  0
LINE
  5
BF29
  8
0
 10
3599.3672244118151866
 20
304.4892029333598771
 30
0.0
 11
3599.3497363387409678
 21
304.4987100521314005
 31
0.0
  0
LINE
  5
BF2A
  8
0
 10
3599.3497363387409678
 20
304.4987100521314005
 30
0.0
 11
3599.3430570058771991
 21
304.5091363377023868
 31
0.0
  0
LINE
  5
BF2B
  8
0
 10
3599.3373381807127771
 20
304.4934239952036137
 30
0.0
 11
3599.3475290081350977
 21
304.4926454611893973
 31
0.0
  0
LINE
  5
BF2C
  8
0
 10
3599.3475290081350977
 20
304.4926454611893973
 30
0.0
 11
3599.3650286213160143
 21
304.4831700485217993
 31
0.0
  0
LINE
  5
BF2D
  8
0
 10
3599.3650286213160143
 20
304.4831700485217993
 30
0.0
 11
3599.3719232969078803
 21
304.4745346300937854
 31
0.0
  0
LINE
  5
BF2E
  8
0
 10
3599.3719232969078803
 20
304.4745346300937854
 30
0.0
 11
3599.3621753771822114
 21
304.4753308244870027
 31
0.0
  0
LINE
  5
BF2F
  8
0
 10
3599.3621753771822114
 20
304.4753308244870027
 30
0.0
 11
3599.3446611578738157
 21
304.4847661071872267
 31
0.0
  0
LINE
  5
BF30
  8
0
 10
3599.3446611578738157
 20
304.4847661071872267
 30
0.0
 11
3599.3373381807127771
 21
304.4934239952037274
 31
0.0
  0
LINE
  5
BF31
  8
0
 10
3599.3110407513581777
 20
304.5025677529313839
 30
0.0
 11
3599.3207760346958821
 21
304.5005376216366813
 31
0.0
  0
LINE
  5
BF32
  8
0
 10
3599.3207760346958821
 20
304.5005376216366813
 30
0.0
 11
3599.3379480984231122
 21
304.4901622743819871
 31
0.0
  0
LINE
  5
BF33
  8
0
 10
3599.3379480984231122
 20
304.4901622743819871
 30
0.0
 11
3599.3454004371151314
 21
304.4818598043851239
 31
0.0
  0
LINE
  5
BF34
  8
0
 10
3599.3454004371151314
 20
304.4818598043851239
 30
0.0
 11
3599.3356728879780349
 21
304.483911184978183
 31
0.0
  0
LINE
  5
BF35
  8
0
 10
3599.3356728879780349
 20
304.483911184978183
 30
0.0
 11
3599.3184853567418031
 21
304.494244035631425
 31
0.0
  0
LINE
  5
BF36
  8
0
 10
3599.3184853567418031
 20
304.494244035631425
 30
0.0
 11
3599.3110407513381688
 21
304.5025677529533255
 31
0.0
  0
LINE
  5
BF37
  8
0
 10
3599.333617928547028
 20
304.4832026863217038
 30
0.0
 11
3599.3432248617118603
 21
304.4808199156278192
 31
0.0
  0
LINE
  5
BF38
  8
0
 10
3599.3432248617118603
 20
304.4808199156278192
 30
0.0
 11
3599.3607462369800487
 21
304.4714042940026957
 31
0.0
  0
LINE
  5
BF39
  8
0
 10
3599.3607462369800487
 20
304.4714042940026957
 30
0.0
 11
3599.3686689945170656
 21
304.4643942890662061
 31
0.0
  0
LINE
  5
BF3A
  8
0
 10
3599.3686689945170656
 20
304.4643942890662061
 30
0.0
 11
3599.333617928547028
 21
304.4832026863217038
 31
0.0
  0
LINE
  5
BF3B
  8
0
 10
3599.3599128536347962
 20
304.4740520482342845
 30
0.0
 11
3599.3677120987749731
 21
304.4667026958430824
 31
0.0
  0
LINE
  5
BF3C
  8
0
 10
3599.3677120987749731
 20
304.4667026958430824
 30
0.0
 11
3599.3855639230878296
 21
304.4581949753138019
 31
0.0
  0
LINE
  5
BF3D
  8
0
 10
3599.3855639230878296
 20
304.4581949753138019
 30
0.0
 11
3599.3950350471732236
 21
304.457066026758298
 31
0.0
  0
LINE
  5
BF3E
  8
0
 10
3599.3950350471732236
 20
304.457066026758298
 30
0.0
 11
3599.3878110117721008
 21
304.4643688004691739
 31
0.0
  0
LINE
  5
BF3F
  8
0
 10
3599.3878110117721008
 20
304.4643688004691739
 30
0.0
 11
3599.3699665991262009
 21
304.4728968843888879
 31
0.0
  0
LINE
  5
BF40
  8
0
 10
3599.3699665991262009
 20
304.4728968843888879
 30
0.0
 11
3599.3599128536347962
 21
304.4740520482342845
 31
0.0
  0
LINE
  5
BF41
  8
0
 10
3599.364577699604979
 20
304.4868686072506989
 30
0.0
 11
3599.3751112231980187
 21
304.4870316229852278
 31
0.0
  0
LINE
  5
BF42
  8
0
 10
3599.3751112231980187
 20
304.4870316229852278
 30
0.0
 11
3599.3930591445141545
 21
304.4787879269525206
 31
0.0
  0
LINE
  5
BF43
  8
0
 10
3599.3930591445141545
 20
304.4787879269525206
 30
0.0
 11
3599.4002426390088658
 21
304.4697468133080065
 31
0.0
  0
LINE
  5
BF44
  8
0
 10
3599.4002426390088658
 20
304.4697468133080065
 30
0.0
 11
3599.3896073764008179
 21
304.4693042715575189
 31
0.0
  0
LINE
  5
BF45
  8
0
 10
3599.3896073764008179
 20
304.4693042715575189
 30
0.0
 11
3599.3717690124321962
 21
304.4778489741951262
 31
0.0
  0
LINE
  5
BF46
  8
0
 10
3599.3717690124321962
 20
304.4778489741951262
 30
0.0
 11
3599.364577699604979
 21
304.4868686072506989
 31
0.0
  0
LINE
  5
BF47
  8
0
 10
3599.3871325851710026
 20
304.4674422948892811
 30
0.0
 11
3599.3976407461068447
 21
304.4675356274893261
 31
0.0
  0
LINE
  5
BF48
  8
0
 10
3599.3976407461068447
 20
304.4675356274893261
 30
0.0
 11
3599.4158090801188337
 21
304.459897510204712
 31
0.0
  0
LINE
  5
BF49
  8
0
 10
3599.4158090801188337
 20
304.459897510204712
 30
0.0
 11
3599.4234740351448636
 21
304.4521791986617814
 31
0.0
  0
LINE
  5
BF4A
  8
0
 10
3599.4234740351448636
 20
304.4521791986617814
 30
0.0
 11
3599.4129780732328072
 21
304.4521193823023282
 31
0.0
  0
LINE
  5
BF4B
  8
0
 10
3599.4129780732328072
 20
304.4521193823023282
 30
0.0
 11
3599.3948050078302003
 21
304.4597445004017118
 31
0.0
  0
LINE
  5
BF4C
  8
0
 10
3599.3948050078302003
 20
304.4597445004017118
 30
0.0
 11
3599.3871325851710026
 21
304.4674422948892811
 31
0.0
  0
LINE
  5
BF4D
  8
0
 10
3599.3927753682960429
 20
304.4829457141764806
 30
0.0
 11
3599.403910590669966
 21
304.4847618837088135
 31
0.0
  0
LINE
  5
BF4E
  8
0
 10
3599.403910590669966
 20
304.4847618837088135
 30
0.0
 11
3599.4220679586069309
 21
304.4770936372369761
 31
0.0
  0
LINE
  5
BF4F
  8
0
 10
3599.4220679586069309
 20
304.4770936372369761
 30
0.0
 11
3599.4290974505329359
 21
304.4676294054895038
 31
0.0
  0
LINE
  5
BF50
  8
0
 10
3599.4290974505329359
 20
304.4676294054895038
 30
0.0
 11
3599.4179873103548744
 21
304.4658821485688804
 31
0.0
  0
LINE
  5
BF51
  8
0
 10
3599.4179873103548744
 20
304.4658821485688804
 30
0.0
 11
3599.399822711698107
 21
304.4735305284885953
 31
0.0
  0
LINE
  5
BF52
  8
0
 10
3599.399822711698107
 20
304.4735305284885953
 30
0.0
 11
3599.3927753682960429
 21
304.4829457141764806
 31
0.0
  0
LINE
  5
BF53
  8
0
 10
3599.3713056892479472
 20
304.505353606904805
 30
0.0
 11
3599.3826171787532076
 21
304.5076540664616118
 31
0.0
  0
LINE
  5
BF54
  8
0
 10
3599.3826171787532076
 20
304.5076540664616118
 30
0.0
 11
3599.4004166376248577
 21
304.4990024728841718
 31
0.0
  0
LINE
  5
BF55
  8
0
 10
3599.4004166376248577
 20
304.4990024728841718
 30
0.0
 11
3599.406922654167829
 21
304.4881000041174843
 31
0.0
  0
LINE
  5
BF56
  8
0
 10
3599.406922654167829
 20
304.4881000041174843
 30
0.0
 11
3599.3956487786408616
 21
304.4859028882314078
 31
0.0
  0
LINE
  5
BF57
  8
0
 10
3599.3956487786408616
 20
304.4859028882314078
 30
0.0
 11
3599.3778316067578089
 21
304.4945058153547848
 31
0.0
  0
LINE
  5
BF58
  8
0
 10
3599.3778316067578089
 20
304.4945058153547848
 30
0.0
 11
3599.3713056892470377
 21
304.5053536069046913
 31
0.0
  0
LINE
  5
BF59
  8
0
 10
3599.4219625155610629
 20
304.481741391112223
 30
0.0
 11
3599.4336024753938545
 21
304.4849443155516724
 31
0.0
  0
LINE
  5
BF5A
  8
0
 10
3599.4336024753938545
 20
304.4849443155516724
 30
0.0
 11
3599.4521003616300732
 21
304.4782116355648895
 31
0.0
  0
LINE
  5
BF5B
  8
0
 10
3599.4521003616300732
 20
304.4782116355648895
 30
0.0
 11
3599.4589582881221759
 21
304.4682760310979006
 31
0.0
  0
LINE
  5
BF5C
  8
0
 10
3599.4589582881221759
 20
304.4682760310979006
 30
0.0
 11
3599.4473485253970466
 21
304.4651560725999957
 31
0.0
  0
LINE
  5
BF5D
  8
0
 10
3599.4473485253970466
 20
304.4651560725999957
 30
0.0
 11
3599.4288506390589646
 21
304.471888752522716
 31
0.0
  0
LINE
  5
BF5E
  8
0
 10
3599.4288506390589646
 20
304.471888752522716
 30
0.0
 11
3599.4219625155610629
 21
304.481741391112223
 31
0.0
  0
LINE
  5
BF5F
  8
0
 10
3599.4152923084961913
 20
304.4634151479311868
 30
0.0
 11
3599.4262693744408352
 21
304.4647967862313749
 31
0.0
  0
LINE
  5
BF60
  8
0
 10
3599.4262693744408352
 20
304.4647967862313749
 30
0.0
 11
3599.4447672607498134
 21
304.4580641061659207
 31
0.0
  0
LINE
  5
BF61
  8
0
 10
3599.4447672607498134
 20
304.4580641061659207
 30
0.0
 11
3599.4522880810750394
 21
304.4499497879771184
 31
0.0
  0
LINE
  5
BF62
  8
0
 10
3599.4522880810750394
 20
304.4499497879771184
 30
0.0
 11
3599.4413263036849457
 21
304.448610154701214
 31
0.0
  0
LINE
  5
BF63
  8
0
 10
3599.4413263036849457
 20
304.448610154701214
 30
0.0
 11
3599.422828417547862
 21
304.4553428346504234
 31
0.0
  0
LINE
  5
BF64
  8
0
 10
3599.422828417547862
 20
304.4553428346504234
 30
0.0
 11
3599.4152923085421207
 21
304.4634151479356774
 31
0.0
  0
LINE
  5
BF65
  8
0
 10
3599.4444216012730067
 20
304.4620518706960866
 30
0.0
 11
3599.4558899955409288
 21
304.4647834226313989
 31
0.0
  0
LINE
  5
BF66
  8
0
 10
3599.4558899955409288
 20
304.4647834226313989
 30
0.0
 11
3599.4747284001118715
 21
304.4589863089162236
 31
0.0
  0
LINE
  5
BF67
  8
0
 10
3599.4747284001118715
 20
304.4589863089162236
 30
0.0
 11
3599.482091063999178
 21
304.4504374594425258
 31
0.0
  0
LINE
  5
BF68
  8
0
 10
3599.482091063999178
 20
304.4504374594425258
 30
0.0
 11
3599.4706405211559286
 21
304.4477549538719927
 31
0.0
  0
LINE
  5
BF69
  8
0
 10
3599.4706405211559286
 20
304.4477549538719927
 30
0.0
 11
3599.4518093473411682
 21
304.4535719338314266
 31
0.0
  0
LINE
  5
BF6A
  8
0
 10
3599.4518093473411682
 20
304.4535719338314266
 30
0.0
 11
3599.4444216012798279
 21
304.4620518706863095
 31
0.0
  0
LINE
  5
BF6B
  8
0
 10
3599.438296332947175
 20
304.4467117540855838
 30
0.0
 11
3599.4496311170028093
 21
304.4475872955143245
 31
0.0
  0
LINE
  5
BF6C
  8
0
 10
3599.4496311170028093
 20
304.4475872955143245
 30
0.0
 11
3599.4684585556619822
 21
304.4417600527651757
 31
0.0
  0
LINE
  5
BF6D
  8
0
 10
3599.4684585556619822
 20
304.4417600527651757
 30
0.0
 11
3599.4764482808850516
 21
304.4349340403076098
 31
0.0
  0
LINE
  5
BF6E
  8
0
 10
3599.4764482808850516
 20
304.4349340403076098
 30
0.0
 11
3599.4656228171947987
 21
304.4339689257523105
 31
0.0
  0
LINE
  5
BF6F
  8
0
 10
3599.4656228171947987
 20
304.4339689257523105
 30
0.0
 11
3599.4468001100422043
 21
304.4398091676313811
 31
0.0
  0
LINE
  5
BF70
  8
0
 10
3599.4468001100422043
 20
304.4398091676313811
 30
0.0
 11
3599.438296332947175
 21
304.4467117540855838
 31
0.0
  0
LINE
  5
BF71
  8
0
 10
3599.4106652335808576
 20
304.4507023638960845
 30
0.0
 11
3599.4209214255861298
 21
304.4501034174855931
 31
0.0
  0
LINE
  5
BF72
  8
0
 10
3599.4209214255861298
 20
304.4501034174855931
 30
0.0
 11
3599.4394193117827854
 21
304.4433707372176059
 31
0.0
  0
LINE
  5
BF73
  8
0
 10
3599.4394193117827854
 20
304.4433707372176059
 30
0.0
 11
3599.4476610060669373
 21
304.4372370039324096
 31
0.0
  0
LINE
  5
BF74
  8
0
 10
3599.4476610060669373
 20
304.4372370039324096
 30
0.0
 11
3599.4372950397041677
 21
304.4375343476413036
 31
0.0
  0
LINE
  5
BF75
  8
0
 10
3599.4372950397041677
 20
304.4375343476413036
 30
0.0
 11
3599.419282104148806
 21
304.4440814368564929
 31
0.0
  0
LINE
  5
BF76
  8
0
 10
3599.419282104148806
 20
304.4440814368564929
 30
0.0
 11
3599.410665233517193
 21
304.4507023639498016
 31
0.0
  0
LINE
  5
BF77
  8
0
 10
3599.3834594730410572
 20
304.4573505020313746
 30
0.0
 11
3599.3932107777109195
 21
304.455862251904307
 31
0.0
  0
LINE
  5
BF78
  8
0
 10
3599.3932107777109195
 20
304.455862251904307
 30
0.0
 11
3599.41155983229919
 21
304.4482227977661069
 31
0.0
  0
LINE
  5
BF79
  8
0
 10
3599.41155983229919
 20
304.4482227977661069
 30
0.0
 11
3599.4198129436717863
 21
304.4421204325336134
 31
0.0
  0
LINE
  5
BF7A
  8
0
 10
3599.4198129436717863
 20
304.4421204325336134
 30
0.0
 11
3599.3834594750419456
 21
304.4573505017261255
 31
0.0
  0
LINE
  5
BF7B
  8
0
 10
3599.4351370944409609
 20
304.436542897831373
 30
0.0
 11
3599.4453818692431923
 21
304.4359125830562789
 31
0.0
  0
LINE
  5
BF7C
  8
0
 10
3599.4453818692431923
 20
304.4359125830562789
 30
0.0
 11
3599.4642022569842084
 21
304.430065968485394
 31
0.0
  0
LINE
  5
BF7D
  8
0
 10
3599.4642022569842084
 20
304.430065968485394
 30
0.0
 11
3599.472775168669159
 21
304.4248422474038875
 31
0.0
  0
LINE
  5
BF7E
  8
0
 10
3599.472775168669159
 20
304.4248422474038875
 30
0.0
 11
3599.4351370944409609
 21
304.436542897831373
 31
0.0
  0
LINE
  5
BF7F
  8
0
 10
3599.4632532226760304
 20
304.4323959739990073
 30
0.0
 11
3599.4739529718422091
 21
304.4330156910314145
 31
0.0
  0
LINE
  5
BF80
  8
0
 10
3599.4739529718422091
 20
304.4330156910314145
 30
0.0
 11
3599.4931043316441901
 21
304.4280784150492991
 31
0.0
  0
LINE
  5
BF81
  8
0
 10
3599.4931043316441901
 20
304.4280784150492991
 30
0.0
 11
3599.5009430401519239
 21
304.4224488646161149
 31
0.0
  0
LINE
  5
BF82
  8
0
 10
3599.5009430401519239
 20
304.4224488646161149
 30
0.0
 11
3599.4908498314580356
 21
304.4218842264771183
 31
0.0
  0
LINE
  5
BF83
  8
0
 10
3599.4908498314580356
 20
304.4218842264771183
 30
0.0
 11
3599.4717058831802206
 21
304.4268418659165718
 31
0.0
  0
LINE
  5
BF84
  8
0
 10
3599.4717058831802206
 20
304.4268418659165718
 30
0.0
 11
3599.4632532226009971
 21
304.4323959739969041
 31
0.0
  0
LINE
  5
BF85
  8
0
 10
3599.4678867128300226
 20
304.445126383883121
 30
0.0
 11
3599.479201104727963
 21
304.4474348175209002
 31
0.0
  0
LINE
  5
BF86
  8
0
 10
3599.479201104727963
 20
304.4474348175209002
 30
0.0
 11
3599.4983704564938307
 21
304.4425469741652819
 31
0.0
  0
LINE
  5
BF87
  8
0
 10
3599.4983704564938307
 20
304.4425469741652819
 30
0.0
 11
3599.5062133184192135
 21
304.4353174579013057
 31
0.0
  0
LINE
  5
BF88
  8
0
 10
3599.5062133184192135
 20
304.4353174579013057
 30
0.0
 11
3599.4949067449520044
 21
304.4330305048595733
 31
0.0
  0
LINE
  5
BF89
  8
0
 10
3599.4949067449520044
 20
304.4330305048595733
 30
0.0
 11
3599.475749336501849
 21
304.4379511621821734
 31
0.0
  0
LINE
  5
BF8A
  8
0
 10
3599.475749336501849
 20
304.4379511621821734
 30
0.0
 11
3599.4678867128391175
 21
304.445126383874026
 31
0.0
  0
LINE
  5
BF8B
  8
0
 10
3599.4745667279980808
 20
304.4634795746424061
 30
0.0
 11
3599.4865585977559022
 21
304.4676493635706152
 31
0.0
  0
LINE
  5
BF8C
  8
0
 10
3599.4865585977559022
 20
304.4676493635706152
 30
0.0
 11
3599.5057549113271307
 21
304.4628355969932159
 31
0.0
  0
LINE
  5
BF8D
  8
0
 10
3599.5057549113271307
 20
304.4628355969932159
 30
0.0
 11
3599.5129413080630911
 21
304.4538024574903829
 31
0.0
  0
LINE
  5
BF8E
  8
0
 10
3599.5129413080630911
 20
304.4538024574903829
 30
0.0
 11
3599.5009693393672023
 21
304.4496873460269057
 31
0.0
  0
LINE
  5
BF8F
  8
0
 10
3599.5009693393672023
 20
304.4496873460269057
 30
0.0
 11
3599.4817907387491687
 21
304.454549778769092
 31
0.0
  0
LINE
  5
BF90
  8
0
 10
3599.4817907387491687
 20
304.454549778769092
 30
0.0
 11
3599.4745667279980808
 21
304.4634795746424061
 31
0.0
  0
LINE
  5
BF91
  8
0
 10
3599.4979751327318809
 20
304.4463982868019798
 30
0.0
 11
3599.5098009470289071
 21
304.4501118421977139
 31
0.0
  0
LINE
  5
BF92
  8
0
 10
3599.5098009470289071
 20
304.4501118421977139
 30
0.0
 11
3599.5293310074198416
 21
304.4462150376721183
 31
0.0
  0
LINE
  5
BF93
  8
0
 10
3599.5293310074198416
 20
304.4462150376721183
 30
0.0
 11
3599.5370125477238616
 21
304.4385422936546206
 31
0.0
  0
LINE
  5
BF94
  8
0
 10
3599.5370125477238616
 20
304.4385422936546206
 30
0.0
 11
3599.5252005823272157
 21
304.4348474722689275
 31
0.0
  0
LINE
  5
BF95
  8
0
 10
3599.5252005823272157
 20
304.4348474722689275
 30
0.0
 11
3599.5056862952701522
 21
304.4388069293021886
 31
0.0
  0
LINE
  5
BF96
  8
0
 10
3599.5056862952701522
 20
304.4388069293021886
 30
0.0
 11
3599.4979751327318809
 21
304.4463982868019798
 31
0.0
  0
LINE
  5
BF97
  8
0
 10
3599.4923161523638555
 20
304.4308503661080749
 30
0.0
 11
3599.503490504626825
 21
304.4327740444160213
 31
0.0
  0
LINE
  5
BF98
  8
0
 10
3599.503490504626825
 20
304.4327740444160213
 30
0.0
 11
3599.5229866639538159
 21
304.4287840971679771
 31
0.0
  0
LINE
  5
BF99
  8
0
 10
3599.5229866639538159
 20
304.4287840971679771
 30
0.0
 11
3599.5312937226540271
 21
304.4228299511904083
 31
0.0
  0
LINE
  5
BF9A
  8
0
 10
3599.5312937226540271
 20
304.4228299511904083
 30
0.0
 11
3599.5201188137189092
 21
304.4209047431174895
 31
0.0
  0
LINE
  5
BF9B
  8
0
 10
3599.5201188137189092
 20
304.4209047431174895
 30
0.0
 11
3599.5006372604148055
 21
304.4249348203845216
 31
0.0
  0
LINE
  5
BF9C
  8
0
 10
3599.5006372604148055
 20
304.4249348203845216
 30
0.0
 11
3599.4923161523420276
 21
304.430850366025993
 31
0.0
  0
LINE
  5
BF9D
  8
0
 10
3599.4888493001922143
 20
304.4206168035314022
 30
0.0
 11
3599.499208120305866
 21
304.4210082899558074
 31
0.0
  0
LINE
  5
BF9E
  8
0
 10
3599.499208120305866
 20
304.4210082899558074
 30
0.0
 11
3599.5186825174127989
 21
304.4169585516373218
 31
0.0
  0
LINE
  5
BF9F
  8
0
 10
3599.5186825174127989
 20
304.4169585516373218
 30
0.0
 11
3599.527573470572861
 21
304.4126086423261199
 31
0.0
  0
LINE
  5
BFA0
  8
0
 10
3599.527573470572861
 20
304.4126086423261199
 30
0.0
 11
3599.4888493001922143
 21
304.4206168035314022
 31
0.0
  0
LINE
  5
BFA1
  8
0
 10
3599.5176843574040504
 20
304.4191535855296138
 30
0.0
 11
3599.5287299048241039
 21
304.4207233756071105
 31
0.0
  0
LINE
  5
BFA2
  8
0
 10
3599.5287299048241039
 20
304.4207233756071105
 30
0.0
 11
3599.5485536135702205
 21
304.4176333628295765
 31
0.0
  0
LINE
  5
BFA3
  8
0
 10
3599.5485536135702205
 20
304.4176333628295765
 30
0.0
 11
3599.5573162165828762
 21
304.4129308141414185
 31
0.0
  0
LINE
  5
BFA4
  8
0
 10
3599.5573162165828762
 20
304.4129308141414185
 30
0.0
 11
3599.5462629356238722
 21
304.4113397769460789
 31
0.0
  0
LINE
  5
BFA5
  8
0
 10
3599.5462629356238722
 20
304.4113397769460789
 30
0.0
 11
3599.5264546944458743
 21
304.4144722861328205
 31
0.0
  0
LINE
  5
BFA6
  8
0
 10
3599.5264546944458743
 20
304.4144722861328205
 30
0.0
 11
3599.5176843574759005
 21
304.4191535855376856
 31
0.0
  0
LINE
  5
BFA7
  8
0
 10
3599.5223690089701449
 20
304.432024559997501
 30
0.0
 11
3599.5340463415550403
 21
304.435330165289372
 31
0.0
  0
LINE
  5
BFA8
  8
0
 10
3599.5340463415550403
 20
304.435330165289372
 30
0.0
 11
3599.5539076619970729
 21
304.4323434897598872
 31
0.0
  0
LINE
  5
BFA9
  8
0
 10
3599.5539076619970729
 20
304.4323434897598872
 30
0.0
 11
3599.562066377409792
 21
304.4259817737714116
 31
0.0
  0
LINE
  5
BFAA
  8
0
 10
3599.562066377409792
 20
304.4259817737714116
 30
0.0
 11
3599.5503855695410493
 21
304.4226666203314267
 31
0.0
  0
LINE
  5
BFAB
  8
0
 10
3599.5503855695410493
 20
304.4226666203314267
 30
0.0
 11
3599.5305492263501037
 21
304.4257219205150022
 31
0.0
  0
LINE
  5
BFAC
  8
0
 10
3599.5305492263501037
 20
304.4257219205150022
 30
0.0
 11
3599.5223690089701449
 21
304.432024559997501
 31
0.0
  0
LINE
  5
BFAD
  8
0
 10
3599.5397093471469816
 20
304.4549500853760264
 30
0.0
 11
3599.5293963891290332
 21
304.4506992748956122
 31
0.0
  0
LINE
  5
BFAE
  8
0
 10
3599.5293963891290332
 20
304.4506992748956122
 30
0.0
 11
3599.536671107940947
 21
304.4425416516314158
 31
0.0
  0
LINE
  5
BFAF
  8
0
 10
3599.536671107940947
 20
304.4425416516314158
 30
0.0
 11
3599.5565517985019142
 21
304.4396081953223074
 31
0.0
  0
LINE
  5
BFB0
  8
0
 10
3599.5565517985019142
 20
304.4396081953223074
 30
0.0
 11
3599.569356146841983
 21
304.4441595327480741
 31
0.0
  0
LINE
  5
BFB1
  8
0
 10
3599.5656937452399688
 20
304.4408853410290021
 30
0.0
 11
3599.5534738603778351
 21
304.4360890857315098
 31
0.0
  0
LINE
  5
BFB2
  8
0
 10
3599.5534738603778351
 20
304.4360890857315098
 30
0.0
 11
3599.5615006526659272
 21
304.4293649138007254
 31
0.0
  0
LINE
  5
BFB3
  8
0
 10
3599.5615006526659272
 20
304.4293649138007254
 30
0.0
 11
3599.5817162714411097
 21
304.427351665431388
 31
0.0
  0
LINE
  5
BFB4
  8
0
 10
3599.5817162714411097
 20
304.427351665431388
 30
0.0
 11
3599.5939442123799381
 21
304.4321700544447822
 31
0.0
  0
LINE
  5
BFB5
  8
0
 10
3599.5939442123799381
 20
304.4321700544447822
 30
0.0
 11
3599.5873620949992073
 21
304.4376059035803905
 31
0.0
  0
LINE
  5
BFB6
  8
0
 10
3599.5656937415142238
 20
304.4408853395664778
 30
0.0
 11
3599.5832189714237757
 21
304.4391138772382988
 31
0.0
  0
LINE
  5
BFB7
  8
0
 10
3599.5477211590500701
 20
304.4202836686854994
 30
0.0
 11
3599.5587291044871563
 21
304.4230700566276937
 31
0.0
  0
LINE
  5
BFB8
  8
0
 10
3599.5587291044871563
 20
304.4230700566276937
 30
0.0
 11
3599.5794595927818591
 21
304.4211514917431032
 31
0.0
  0
LINE
  5
BFB9
  8
0
 10
3599.5794595927818591
 20
304.4211514917431032
 30
0.0
 11
3599.5880855094069375
 21
304.4160734003563107
 31
0.0
  0
LINE
  5
BFBA
  8
0
 10
3599.5880855094069375
 20
304.4160734003563107
 30
0.0
 11
3599.5765293508638933
 21
304.4131007180944266
 31
0.0
  0
LINE
  5
BFBB
  8
0
 10
3599.5765293508638933
 20
304.4131007180944266
 30
0.0
 11
3599.5563599875417822
 21
304.4152410525314281
 31
0.0
  0
LINE
  5
BFBC
  8
0
 10
3599.5563599875417822
 20
304.4152410525314281
 30
0.0
 11
3599.5477211590500701
 21
304.4202836686854994
 31
0.0
  0
LINE
  5
BFBD
  8
0
 10
3599.5788046551770094
 20
304.4242895214903797
 30
0.0
 11
3599.590883754546212
 21
304.4286989720872043
 31
0.0
  0
LINE
  5
BFBE
  8
0
 10
3599.590883754546212
 20
304.4286989720872043
 30
0.0
 11
3599.6114813376862003
 21
304.4277351616543115
 31
0.0
  0
LINE
  5
BFBF
  8
0
 10
3599.6114813376862003
 20
304.4277351616543115
 30
0.0
 11
3599.6199589417979041
 21
304.4222495850044083
 31
0.0
  0
LINE
  5
BFC0
  8
0
 10
3599.6199589417979041
 20
304.4222495850044083
 30
0.0
 11
3599.6078596022889542
 21
304.4177845256728006
 31
0.0
  0
LINE
  5
BFC1
  8
0
 10
3599.6078596022889542
 20
304.4177845256728006
 30
0.0
 11
3599.5873025047530973
 21
304.4188595687637076
 31
0.0
  0
LINE
  5
BFC2
  8
0
 10
3599.5873025047530973
 20
304.4188595687637076
 30
0.0
 11
3599.5788046551419939
 21
304.4242895214784994
 31
0.0
  0
LINE
  5
BFC3
  8
0
 10
3599.5740194774780321
 20
304.4111423535824201
 30
0.0
 11
3599.5854406548560291
 21
304.4137441783324221
 31
0.0
  0
LINE
  5
BFC4
  8
0
 10
3599.5854406548560291
 20
304.4137441783324221
 30
0.0
 11
3599.6059773186821076
 21
304.4126129937874907
 31
0.0
  0
LINE
  5
BFC5
  8
0
 10
3599.6059773186821076
 20
304.4126129937874907
 30
0.0
 11
3599.6150677719920168
 21
304.4088112066302756
 31
0.0
  0
LINE
  5
BFC6
  8
0
 10
3599.6150677719920168
 20
304.4088112066302756
 30
0.0
 11
3599.6036250952420232
 21
304.4061503127342121
 31
0.0
  0
LINE
  5
BFC7
  8
0
 10
3599.6036250952420232
 20
304.4061503127342121
 30
0.0
 11
3599.5831134067589119
 21
304.4073501165817106
 31
0.0
  0
LINE
  5
BFC8
  8
0
 10
3599.5831134067589119
 20
304.4073501165817106
 30
0.0
 11
3599.5740194774780321
 21
304.4111423535824201
 31
0.0
  0
LINE
  5
BFC9
  8
0
 10
3599.6051066179547888
 20
304.4151582189585952
 30
0.0
 11
3599.6170604843409819
 21
304.4192235947314202
 31
0.0
  0
LINE
  5
BFCA
  8
0
 10
3599.6170604843409819
 20
304.4192235947314202
 30
0.0
 11
3599.6379252939791513
 21
304.4192024042064872
 31
0.0
  0
LINE
  5
BFCB
  8
0
 10
3599.63786316634787
 20
304.4192024673038759
 30
0.0
 11
3599.6469670087421946
 21
304.4150582882174945
 31
0.0
  0
LINE
  5
BFCC
  8
0
 10
3599.6469670087421946
 20
304.4150582882174945
 30
0.0
 11
3599.6349815269809369
 21
304.4109060499005182
 31
0.0
  0
LINE
  5
BFCD
  8
0
 10
3599.6349815269809369
 20
304.4109060499005182
 30
0.0
 11
3599.6140710844420028
 21
304.4110102859314111
 31
0.0
  0
LINE
  5
BFCE
  8
0
 10
3599.6140710844420028
 20
304.4110102859314111
 30
0.0
 11
3599.6051066180980342
 21
304.4151582190032741
 31
0.0
  0
LINE
  5
BFCF
  8
0
 10
3599.6012660229489484
 20
304.4046062710568208
 30
0.0
 11
3599.612575330781965
 21
304.4069007366571213
 31
0.0
  0
LINE
  5
BFD0
  8
0
 10
3599.612575330781965
 20
304.4069007366571213
 30
0.0
 11
3599.6334664034197885
 21
304.4067432822703836
 31
0.0
  0
LINE
  5
BFD1
  8
0
 10
3599.6334664034197885
 20
304.4067432822703836
 30
0.0
 11
3599.6430259390590436
 21
304.4042302880105808
 31
0.0
  0
LINE
  5
BFD2
  8
0
 10
3599.6430259390590436
 20
304.4042302880105808
 30
0.0
 11
3599.6012660229489484
 21
304.4046062710568208
 31
0.0
  0
LINE
  5
BFD3
  8
0
 10
3599.6553097872929357
 20
304.4128749660868039
 30
0.0
 11
3599.6442242052057736
 21
304.4124599531991748
 31
0.0
  0
LINE
  5
BFD4
  8
0
 10
3599.6442242052057736
 20
304.4124599531991748
 30
0.0
 11
3599.6323819751560222
 21
304.4087012959013236
 31
0.0
  0
LINE
  5
BFD5
  8
0
 10
3599.6323819751560222
 20
304.4087012959013236
 30
0.0
 11
3599.6418159005929738
 21
304.4058431908566718
 31
0.0
  0
LINE
  5
BFD6
  8
0
 10
3599.6418159005929738
 20
304.4058431908566718
 30
0.0
 11
3599.6557792709231762
 21
304.4063559457384258
 31
0.0
  0
LINE
  5
BFD7
  8
0
 10
3599.6557792709231762
 20
304.4063559457384258
 30
0.0
 11
3599.6630974906502161
 21
304.4067586742547178
 31
0.0
  0
LINE
  5
BFD8
  8
0
 10
3599.6630974906502161
 20
304.4067586742547178
 30
0.0
 11
3599.6680104475831286
 21
304.4082523037859005
 31
0.0
  0
LINE
  5
BFD9
  8
0
 10
3599.6697932356069032
 20
304.4076034220113911
 30
0.0
 11
3599.6606484568410451
 21
304.4049674651313921
 31
0.0
  0
LINE
  5
BFDA
  8
0
 10
3599.6606484568410451
 20
304.4049674651313921
 30
0.0
 11
3599.6748075795380828
 21
304.4057783500765026
 31
0.0
  0
LINE
  5
BFDB
  8
0
 10
3599.5842787808228422
 20
304.4056144996956732
 30
0.0
 11
3599.5753118144739346
 21
304.4089673298760204
 31
0.0
  0
LINE
  5
BFDC
  8
0
 10
3599.5753118144739346
 20
304.4089673298760204
 30
0.0
 11
3599.5549057848270422
 21
304.411245663473494
 31
0.0
  0
LINE
  5
BFDD
  8
0
 10
3599.5549057848270422
 20
304.411245663473494
 30
0.0
 11
3599.5439799352798218
 21
304.4100047409202148
 31
0.0
  0
LINE
  5
BFDE
  8
0
 10
3599.5439799352798218
 20
304.4100047409202148
 30
0.0
 11
3599.5842787809069705
 21
304.4056144997707065
 31
0.0
  0
LINE
  5
BFDF
  8
0
 10
3599.506261323318995
 20
304.4671241704419913
 30
0.0
 11
3599.5128349832098138
 21
304.4584477882469855
 31
0.0
  0
LINE
  5
BFE0
  8
0
 10
3599.5128349832098138
 20
304.4584477882469855
 30
0.0
 11
3599.5323821789529575
 21
304.4545980624641857
 31
0.0
  0
LINE
  5
BFE1
  8
0
 10
3599.5323821789529575
 20
304.4545980624641857
 30
0.0
 11
3599.5361812815121993
 21
304.4562341962516143
 31
0.0
  0
LINE
  5
BFE2
  8
0
 10
3599.4568772798979808
 20
304.4850984922911152
 30
0.0
 11
3599.452618661942779
 21
304.4835442273219996
 31
0.0
  0
LINE
  5
BFE3
  8
0
 10
3599.452618661942779
 20
304.4835442273219996
 30
0.0
 11
3599.4588979958421078
 21
304.4730478352959722
 31
0.0
  0
LINE
  5
BFE4
  8
0
 10
3599.4588979958421078
 20
304.4730478352959722
 30
0.0
 11
3599.4778691526980765
 21
304.4676154559691099
 31
0.0
  0
LINE
  5
BFE5
  8
0
 10
3599.4778691526980765
 20
304.4676154559691099
 30
0.0
 11
3599.4898864525771387
 21
304.471855113537174
 31
0.0
  0
LINE
  5
BFE6
  8
0
 10
3599.4898864525771387
 20
304.471855113537174
 30
0.0
 11
3599.4887924809099786
 21
304.4734823091047247
 31
0.0
  0
LINE
  5
BFE7
  8
0
 10
3599.4343592536870347
 20
304.4932943835647166
 30
0.0
 11
3599.4368641203132029
 21
304.4889681552978118
 31
0.0
  0
LINE
  5
BFE8
  8
0
 10
3599.4368641203132029
 20
304.4889681552978118
 30
0.0
 11
3599.4250759588549045
 21
304.4853580500674752
 31
0.0
  0
LINE
  5
BFE9
  8
0
 10
3599.4250759588549045
 20
304.4853580500674752
 30
0.0
 11
3599.4068114618989966
 21
304.4932311293973157
 31
0.0
  0
LINE
  5
BFEA
  8
0
 10
3599.4068114618989966
 20
304.4932311293973157
 30
0.0
 11
3599.4005707569381229
 21
304.5043633681862048
 31
0.0
  0
LINE
  5
BFEB
  8
0
 10
3599.4005707569381229
 20
304.5043633681862048
 30
0.0
 11
3599.4024522751537916
 21
304.5049075740137141
 31
0.0
  0
LINE
  5
BFEC
  8
0
 10
3599.3576386000331695
 20
304.5180207085525126
 30
0.0
 11
3599.3743730999890431
 21
304.5088437924136997
 31
0.0
  0
LINE
  5
BFED
  8
0
 10
3599.3743730999890431
 20
304.5088437924136997
 30
0.0
 11
3599.3850370017189562
 21
304.5112462151641921
 31
0.0
  0
LINE
  5
BFEE
  8
0
 10
3599.3542746949651701
 20
304.5180909200403221
 30
0.0
 11
3599.3568434119551966
 21
304.5132991191914016
 31
0.0
  0
LINE
  5
BFEF
  8
0
 10
3599.3568434119551966
 20
304.5132991191914016
 30
0.0
 11
3599.3458893015417743
 21
304.5119805504314172
 31
0.0
  0
LINE
  5
BFF0
  8
0
 10
3599.3458893015417743
 20
304.5119805504314172
 30
0.0
 11
3599.335109554668179
 21
304.5184376504494139
 31
0.0
  0
LINE
  5
BFF1
  8
0
 10
3599.3054531810048502
 20
304.5187955426250141
 30
0.0
 11
3599.316162678206183
 21
304.511702675272204
 31
0.0
  0
LINE
  5
BFF2
  8
0
 10
3599.316162678206183
 20
304.511702675272204
 30
0.0
 11
3599.3225513710081032
 21
304.5021112021613021
 31
0.0
  0
LINE
  5
BFF3
  8
0
 10
3599.3225513710081032
 20
304.5021112021613021
 30
0.0
 11
3599.3132582579069094
 21
304.5037228459602261
 31
0.0
  0
LINE
  5
BFF4
  8
0
 10
3599.3132582579069094
 20
304.5037228459602261
 30
0.0
 11
3599.2999082939932123
 21
304.5126372082913235
 31
0.0
  0
LINE
  5
BFF5
  8
0
 10
3599.2999082939932123
 20
304.5126372082913235
 30
0.0
 11
3599.2964318487411219
 21
304.515047871531408
 31
0.0
  0
LINE
  5
BFF6
  8
0
 10
3599.2964318487411219
 20
304.515047871531408
 30
0.0
 11
3599.2935660638709123
 21
304.51887807678321
 31
0.0
  0
LINE
  5
BFF7
  8
0
 10
3599.2916970160758865
 20
304.5188878824732228
 30
0.0
 11
3599.2970957108282164
 21
304.5119343618017069
 31
0.0
  0
LINE
  5
BFF8
  8
0
 10
3599.2970957108282164
 20
304.5119343618017069
 30
0.0
 11
3599.2876917538528687
 21
304.5148748047755021
 31
0.0
  0
LINE
  5
BFF9
  8
0
 10
3599.2876917538528687
 20
304.5148748047755021
 30
0.0
 11
3599.2820864960949621
 21
304.5189246947136894
 31
0.0
  0
LINE
  5
BFFA
  8
0
 10
3599.2856833924479361
 20
304.5142943332269851
 30
0.0
 11
3599.2949650116788689
 21
304.5110177700497047
 31
0.0
  0
LINE
  5
BFFB
  8
0
 10
3599.2949650116788689
 20
304.5110177700497047
 30
0.0
 11
3599.3118040552180901
 21
304.4997274570022228
 31
0.0
  0
LINE
  5
BFFC
  8
0
 10
3599.3118040552180901
 20
304.4997274570022228
 30
0.0
 11
3599.3193760919061788
 21
304.4917538544640934
 31
0.0
  0
LINE
  5
BFFD
  8
0
 10
3599.3193760919061788
 20
304.4917538544640934
 30
0.0
 11
3599.2856833924479361
 21
304.5142943332269851
 31
0.0
  0
LINE
  5
BFFE
  8
0
 10
3599.7908957719409955
 20
304.4018282922314143
 30
0.0
 11
3599.4845489562371768
 21
304.5133294145140894
 31
0.0
  0
ARC
  5
C00A
  8
0
 10
3605.0763565211241257
 20
296.9114574152554269
 30
0.0
 40
0.0992609957923271
 50
182.5415883297071957
 51
198.8452792006216896
  0
LINE
  5
C00B
  8
0
 10
3604.9824164817591736
 20
296.8793947533313826
 30
0.0
 11
3605.0726154503590806
 21
296.5915749690313987
 31
0.0
  0
ARC
  5
C00C
  8
0
 10
3605.0199730722338245
 20
296.5738506263322734
 30
0.0
 40
0.0555461276662153
 50
358.1924797738939219
 51
18.6080410841105
  0
LINE
  5
C00D
  8
0
 10
3605.0754915617580991
 20
296.5720985933314182
 30
0.0
 11
3605.0754915617580991
 21
296.5426846354313852
 31
0.0
  0
LINE
  5
C00E
  8
0
 10
3605.0754915617580991
 20
296.5426846354313852
 30
0.0
 11
3603.2251239391589479
 21
296.5426846354313852
 31
0.0
  0
LINE
  5
C00F
  8
0
 10
3603.2251239391589479
 20
296.5426846354313852
 30
0.0
 11
3603.2251239391589479
 21
296.5720972728313996
 31
0.0
  0
ARC
  5
C010
  8
0
 10
3603.2899150345979251
 20
296.5720972728313996
 30
0.0
 40
0.0647910954396851
 50
162.5315330822099895
 51
180.0
  0
LINE
  5
C011
  8
0
 10
3603.2281119553581448
 20
296.5915463202313731
 30
0.0
 11
3603.3182287733898193
 21
296.879406067949617
 31
0.0
  0
ARC
  5
C012
  8
0
 10
3603.2325126275568437
 20
296.9101912102261736
 30
0.0
 40
0.0910767952963552
 50
340.2441375715724803
 51
1.4313032041203371
  0
LINE
  5
C013
  8
0
 10
3605.0755165537580069
 20
296.5720972722833721
 30
0.0
 11
3603.2251239391589479
 21
296.5720972722833721
 31
0.0
  0
LINE
  5
C014
  8
0
 10
3604.9771815209560373
 20
296.9144390353268932
 30
0.0
 11
3603.3235490355209549
 21
296.9144390353268932
 31
0.0
  0
ENDSEC
  0
EOF
