  0
SECTION
  2
HEADER
  9
$ACADVER
  1
AC1009
  9
$INSBASE
 10
420.0385664563457908
 20
51.7101823181098581
 30
0.0
  9
$EXTMIN
 10
413.39241885288601
 20
51.7059992162608566
 30
-0.0000000000000058
  9
$EXTMAX
 10
421.051647627359614
 20
59.3178086320014515
 30
0.0000000000000104
  9
$LIMMIN
 10
0.0
 20
0.0
  9
$LIMMAX
 10
11.6929133858000007
 20
8.2677165353999982
  9
$ORTHOMODE
 70
     0
  9
$REGENMODE
 70
     1
  9
$FILLMODE
 70
     1
  9
$QTEXTMODE
 70
     0
  9
$MIRRTEXT
 70
     0
  9
$DRAGMODE
 70
     2
  9
$LTSCALE
 40
0.6431102362
  9
$OSMODE
 70
  4095
  9
$ATTMODE
 70
     1
  9
$TEXTSIZE
 40
0.2
  9
$TRACEWID
 40
0.05
  9
$TEXTSTYLE
  7
STANDARD
  9
$CLAYER
  8
0
  9
$CELTYPE
  6
BYLAYER
  9
$CECOLOR
 62
   256
  9
$DIMSCALE
 40
1.0
  9
$DIMASZ
 40
0.1875
  9
$DIMEXO
 40
0.0625
  9
$DIMDLI
 40
0.4443307087
  9
$DIMRND
 40
0.0
  9
$DIMDLE
 40
0.0
  9
$DIMEXE
 40
0.125
  9
$DIMTP
 40
0.01
  9
$DIMTM
 40
0.01
  9
$DIMTXT
 40
1.0
  9
$DIMCEN
 40
0.1052362205
  9
$DIMTSZ
 40
0.0
  9
$DIMTOL
 70
     1
  9
$DIMLIM
 70
     0
  9
$DIMTIH
 70
     0
  9
$DIMTOH
 70
     1
  9
$DIMSE1
 70
     0
  9
$DIMSE2
 70
     0
  9
$DIMTAD
 70
     0
  9
$DIMZIN
 70
     0
  9
$DIMBLK
  1

  9
$DIMASO
 70
     1
  9
$DIMSHO
 70
     1
  9
$DIMPOST
  1
\X
  9
$DIMAPOST
  1

  9
$DIMALT
 70
     1
  9
$DIMALTD
 70
     2
  9
$DIMALTF
 40
25.3999999999999986
  9
$DIMLFAC
 40
1.0
  9
$DIMTOFL
 70
     0
  9
$DIMTVP
 40
0.0
  9
$DIMTIX
 70
     0
  9
$DIMSOXD
 70
     0
  9
$DIMSAH
 70
     0
  9
$DIMBLK1
  1

  9
$DIMBLK2
  1

  9
$DIMSTYLE
  2
STANDARD
  9
$DIMCLRD
 70
     0
  9
$DIMCLRE
 70
     0
  9
$DIMCLRT
 70
     0
  9
$DIMTFAC
 40
1.0
  9
$DIMGAP
 40
0.09
  9
$LUNITS
 70
     2
  9
$LUPREC
 70
     4
  9
$SKETCHINC
 40
0.1
  9
$FILLETRAD
 40
0.0
  9
$AUNITS
 70
     0
  9
$AUPREC
 70
     0
  9
$MENU
  1
.
  9
$ELEVATION
 40
0.0
  9
$PELEVATION
 40
0.0
  9
$THICKNESS
 40
0.0
  9
$LIMCHECK
 70
     0
  9
$BLIPMODE
 70
     0
  9
$CHAMFERA
 40
0.0
  9
$CHAMFERB
 40
0.0
  9
$SKPOLY
 70
     0
  9
$TDCREATE
 40
2458172.5207638889551163
  9
$TDUPDATE
 40
2459207.8905787039548159
  9
$TDINDWG
 40
0.0663159491
  9
$TDUSRTIMER
 40
0.0663159491
  9
$USRTIMER
 70
     1
  9
$ANGBASE
 50
0.0
  9
$ANGDIR
 70
     0
  9
$PDMODE
 70
     0
  9
$PDSIZE
 40
0.3125
  9
$PLINEWID
 40
0.0
  9
$COORDS
 70
     1
  9
$SPLFRAME
 70
     0
  9
$SPLINETYPE
 70
     6
  9
$SPLINESEGS
 70
     8
  9
$ATTDIA
 70
     1
  9
$ATTREQ
 70
     1
  9
$HANDLING
 70
     1
  9
$HANDSEED
  5
1BFA
  9
$SURFTAB1
 70
     6
  9
$SURFTAB2
 70
     6
  9
$SURFTYPE
 70
     6
  9
$SURFU
 70
     6
  9
$SURFV
 70
     6
  9
$UCSNAME
  2

  9
$UCSORG
 10
0.0
 20
0.0
 30
0.0
  9
$UCSXDIR
 10
1.0
 20
0.0
 30
0.0
  9
$UCSYDIR
 10
0.0
 20
1.0
 30
0.0
  9
$PUCSNAME
  2

  9
$PUCSORG
 10
0.0
 20
0.0
 30
0.0
  9
$PUCSXDIR
 10
1.0
 20
0.0
 30
0.0
  9
$PUCSYDIR
 10
0.0
 20
1.0
 30
0.0
  9
$USERI1
 70
     0
  9
$USERI2
 70
     0
  9
$USERI3
 70
     0
  9
$USERI4
 70
     0
  9
$USERI5
 70
     0
  9
$USERR1
 40
0.0
  9
$USERR2
 40
0.0
  9
$USERR3
 40
0.0
  9
$USERR4
 40
0.0
  9
$USERR5
 40
0.0
  9
$WORLDVIEW
 70
     1
  9
$SHADEDGE
 70
     3
  9
$SHADEDIF
 70
    70
  9
$TILEMODE
 70
     1
  9
$MAXACTVP
 70
    64
  9
$PLIMCHECK
 70
     0
  9
$PEXTMIN
 10
1.0000000000000000E+20
 20
1.0000000000000000E+20
 30
1.0000000000000000E+20
  9
$PEXTMAX
 10
-1.0000000000000000E+20
 20
-1.0000000000000000E+20
 30
-1.0000000000000000E+20
  9
$PLIMMIN
 10
0.0
 20
0.0
  9
$PLIMMAX
 10
12.0
 20
9.0
  9
$UNITMODE
 70
     0
  9
$VISRETAIN
 70
     1
  9
$PLINEGEN
 70
     0
  9
$PSLTSCALE
 70
     1
  0
ENDSEC
  0
SECTION
  2
TABLES
  0
TABLE
  2
VPORT
 70
     1
  0
VPORT
  2
*ACTIVE
 70
     0
 10
0.0
 20
0.0
 11
1.0
 21
1.0
 12
28.3370958870025298
 22
0.5397910243124926
 13
0.0
 23
0.0
 14
1.0
 24
1.0
 15
0.0
 25
0.0
 16
0.0
 26
0.0
 36
22.8341198402881993
 17
388.8849373531202787
 27
54.9721128998186686
 37
0.0
 40
7.7098155455569968
 41
2.9182795698924728
 42
50.0
 43
0.0
 44
0.0
 50
0.0
 51
0.0
 71
     0
 72
   100
 73
     1
 74
     1
 75
     0
 76
     0
 77
     0
 78
     0
  0
ENDTAB
  0
TABLE
  2
LTYPE
 70
     3
  0
LTYPE
  2
CONTINUOUS
 70
     0
  3
Solid line
 72
    65
 73
     0
 40
0.0
  0
LTYPE
  2
PHANTOM2
 70
     0
  3
___ _ _ ___ _ _ ___ _ _ ___ _ _
 72
    65
 73
     6
 40
1.25
 49
0.625
 49
-0.125
 49
0.125
 49
-0.125
 49
0.125
 49
-0.125
  0
ENDTAB
  0
TABLE
  2
LAYER
 70
     2
  0
LAYER
  2
0
 70
     0
 62
   255
  6
CONTINUOUS
  0
LAYER
  2
DEFPOINTS
 70
     0
 62
     7
  6
CONTINUOUS
  0
ENDTAB
  0
TABLE
  2
STYLE
 70
     1
  0
STYLE
  2
STANDARD
 70
     0
 40
0.0
 41
0.8
 50
0.0
 71
     0
 42
0.2
  3
txt
  4

  0
ENDTAB
  0
TABLE
  2
VIEW
 70
     0
  0
ENDTAB
  0
TABLE
  2
UCS
 70
     0
  0
ENDTAB
  0
TABLE
  2
APPID
 70
    10
  0
APPID
  2
ACAD
 70
     0
  0
APPID
  2
ACAD_MLEADERVER
 70
     0
  0
APPID
  2
ACAD_EXEMPT_FROM_CAD_STANDARDS
 70
     0
  0
APPID
  2
ACAD_DSTYLE_DIMJAG
 70
     0
  0
APPID
  2
ACAD_DSTYLE_DIMTALN
 70
     0
  0
APPID
  2
ACAD_NAV_VCDISPLAY
 70
     0
  0
APPID
  2
ACAECLAYERSTANDARD
 70
     0
  0
APPID
  2
ACCMTRANSPARENCY
 70
     0
  0
APPID
  2
DCO15
 70
     0
  0
APPID
  2
ACDBATTR
 70
     0
  0
ENDTAB
  0
TABLE
  2
DIMSTYLE
 70
     2
  0
DIMSTYLE
  2
STANDARD
 70
     0
  3

  4

  5

  6

  7

 40
1.0
 41
0.1875
 42
0.0625
 43
0.38
 44
0.125
 45
0.0
 46
0.0
 47
0.01
 48
0.01
140
0.15625
141
0.09
142
0.0
143
25.3999999999999986
144
1.0
145
0.0
146
1.0
147
0.09
 71
     1
 72
     0
 73
     1
 74
     1
 75
     0
 76
     0
 77
     0
 78
     4
170
     0
171
     2
172
     0
173
     0
174
     0
175
     0
176
     0
177
     0
178
     0
  0
ENDTAB
  0
ENDSEC
  0
SECTION
  2
BLOCKS
  0
BLOCK
  8
0
  2
$MODEL_SPACE
 70
     0
 10
0.0
 20
0.0
 30
0.0
  3
$MODEL_SPACE
  1

  0
ENDBLK
  5
21
  8
0
  0
BLOCK
 67
     1
  8
0
  2
$PAPER_SPACE
 70
     0
 10
0.0
 20
0.0
 30
0.0
  3
$PAPER_SPACE
  1

  0
ENDBLK
  5
1D
 67
     1
  8
0
  0
ENDSEC
  0
SECTION
  2
ENTITIES
  0
ATTDEF
  5
829
  8
DEFPOINTS
 10
420.0353969923863247
 20
51.7141879343002273
 30
0.0
 40
0.001
  1
K-73158BR-4ND
  3

  2
MODELNUMBER
 70
     0
1001
ACDBATTR
1070
     0
1070
     1
  0
ATTDEF
  5
82A
  8
DEFPOINTS
 10
420.0353969923863247
 20
51.7125212676335622
 30
0.0
 40
0.001
  1
COMPOSED
  3

  2
TRADENAME
 70
     0
1001
ACDBATTR
1070
     0
1070
     1
  0
ATTDEF
  5
82B
  8
DEFPOINTS
 10
420.0353969923863247
 20
51.710854600966897
 30
0.0
 40
0.001
  1
BATHROOM SINK FAUCET
  3

  2
PRODUCT
 70
     0
1001
ACDBATTR
1070
     0
1070
     1
  0
LINE
  5
19DA
  8
0
 10
413.4112225484958003
 20
55.959350000809863
 30
0.0
 11
413.4282600980959046
 21
56.4472415856098593
 31
0.0
  0
LINE
  5
19DB
  8
0
 10
419.0346294484958207
 20
51.8479775937098708
 30
0.0
 11
419.0346294484958207
 21
51.7101823181098581
 31
0.0
  0
LINE
  5
19DC
  8
0
 10
419.1921097633958766
 20
55.6933518881098593
 30
0.0
 11
419.1921097633958766
 21
51.8991586961098577
 31
0.0
  0
LINE
  5
19DE
  8
0
 10
419.0346294484958207
 20
51.7101823181098581
 30
0.0
 11
421.0425034641958177
 21
51.7101823181098581
 31
0.0
  0
LINE
  5
19DF
  8
0
 10
421.022818424795787
 20
51.8676626331098731
 30
0.0
 11
419.0543144877958071
 21
51.8676626331098731
 31
0.0
  0
LINE
  5
19E0
  8
0
 10
419.8732121256458072
 20
59.2829929659098482
 30
0.0
 11
419.8732121256458072
 21
56.8341740683098493
 31
0.0
  0
LINE
  5
19E1
  8
0
 10
419.949983779195918
 20
56.7948039895326602
 30
0.0
 11
419.949983779195918
 21
56.4955914029056387
 31
0.0
  0
LINE
  5
19E2
  8
0
 10
420.1271491334957773
 20
56.7948039895301733
 30
0.0
 11
420.1271491334957773
 21
56.4955914029416206
 31
0.0
  0
LINE
  5
19E3
  8
0
 10
420.2039207870457744
 20
59.2829929659098482
 30
0.0
 11
420.2039207870457744
 21
56.8341740683098493
 31
0.0
  0
LINE
  5
19E5
  8
0
 10
420.8850231491957743
 20
51.8991586961098577
 30
0.0
 11
420.8850231491957743
 21
55.6364274402098502
 31
0.0
  0
LINE
  5
19E6
  8
0
 10
420.8850231491957743
 20
55.699461951709857
 30
0.0
 11
420.8850231491957743
 21
56.1879485057098478
 31
0.0
  0
LINE
  5
19E7
  8
0
 10
421.0425034641958177
 20
51.8479775937098708
 30
0.0
 11
421.0425034641958177
 21
51.7101823181098581
 31
0.0
  0
LINE
  5
19EB
  8
0
 10
413.4416002281957958
 20
55.9267739276098581
 30
0.0
 11
420.8523779878586879
 21
55.6679835921945099
 31
0.0
  0
LINE
  5
19EC
  8
0
 10
420.2039207869959228
 20
56.466105414009867
 30
0.0
 11
419.873212125595785
 21
56.466105414009867
 31
0.0
  0
LINE
  5
19ED
  8
0
 10
413.4608361712959095
 20
56.4776192653098619
 30
0.0
 11
420.8545764032343754
 21
56.219424450266402
 31
0.0
  0
LINE
  5
19EE
  8
0
 10
419.8928971650458948
 20
56.8144890289098399
 30
0.0
 11
420.1842357477459018
 21
56.8144890289098399
 31
0.0
  0
LINE
  5
19EF
  8
0
 10
420.1724247240458112
 20
59.3144890289098399
 30
0.0
 11
419.9047081886458272
 21
59.3144890289098399
 31
0.0
  0
ARC
  5
19F2
  8
0
 10
420.8535270861958111
 20
51.8991586961098577
 30
0.0
 40
0.031496063
 50
270.0
 51
0.0
  0
ARC
  5
19F3
  8
0
 10
419.2236058263958967
 20
51.8991586961098577
 30
0.0
 40
0.031496063
 50
180.0
 51
270.0
  0
ARC
  5
19F4
  8
0
 10
421.022818424795787
 20
51.8479775937098708
 30
0.0
 40
0.0196850394
 50
0.0
 51
90.0
  0
ARC
  5
19F5
  8
0
 10
419.0543144877958071
 20
51.8479775937098708
 30
0.0
 40
0.0196850394
 50
90.0
 51
180.0
  0
ARC
  5
19F8
  8
0
 10
413.4597369744957973
 20
56.4461423889098484
 30
0.0
 40
0.031496063
 50
87.9999999999996163
 51
177.9999999999996021
  0
ARC
  5
19F9
  8
0
 10
413.4426994248959204
 20
55.9582508040098574
 30
0.0
 40
0.031496063
 50
177.9999999999996021
 51
267.9999999999996021
  0
ARC
  5
19FA
  8
0
 10
419.223523277696188
 20
55.6934317545905984
 30
0.0
 40
0.0314136158273945
 50
87.9638149409584145
 51
180.1456698657891025
  0
ARC
  5
19FB
  8
0
 10
419.8928971650458948
 20
56.8341740683098493
 30
0.0
 40
0.0196850394
 50
180.0
 51
270.0
  0
ARC
  5
19FC
  8
0
 10
419.9302987396595199
 20
56.7948039895326602
 30
0.0
 40
0.0196850395863848
 50
0.0
 51
89.9916472622823989
  0
ARC
  5
19FD
  8
0
 10
419.9302987394452771
 20
56.4955914029056387
 30
0.0
 40
0.0196850397505788
 50
270.0100919513507733
 51
0.0
  0
ARC
  5
19FE
  8
0
 10
419.873212125595785
 20
56.4621684061098605
 30
0.0
 40
0.0039370079
 50
90.0
 51
139.7858289826990017
  0
ARC
  5
19FF
  8
0
 10
420.8495438179994039
 20
55.6323876622388198
 30
0.0
 40
0.0357085808763096
 50
6.4958849717056424
 51
85.447678277233365
  0
ARC
  5
1A00
  8
0
 10
420.8534453104377917
 20
55.6995434935272584
 30
0.0
 40
0.0315779440385541
 50
268.063057485663478
 51
359.8520484051244921
  0
ARC
  5
1A01
  8
0
 10
420.8534381354704124
 20
56.1878598292159808
 30
0.0
 40
0.0315851382070595
 50
0.1608603224474434
 51
87.9347228575292945
  0
ARC
  5
1A02
  8
0
 10
420.0385664562958823
 20
56.3223630447098529
 30
0.0
 40
0.2204724409
 50
358.8045623606943195
 51
40.2141710173980869
  0
ARC
  5
1A03
  8
0
 10
420.0385664562958823
 20
56.3223630447098529
 30
0.0
 40
0.2204724409
 50
139.7858289826019131
 51
177.1954376218598952
  0
ARC
  5
1A04
  8
0
 10
420.1842357477459018
 20
56.8341740683098493
 30
0.0
 40
0.0196850394
 50
270.0
 51
0.0
  0
ARC
  5
1A05
  8
0
 10
420.1468341731381884
 20
56.7948039895301733
 30
0.0
 40
0.0196850395923729
 50
90.0084225166706631
 51
180.0
  0
ARC
  5
1A06
  8
0
 10
420.1468341733333887
 20
56.4955914029416206
 30
0.0
 40
0.0196850398374977
 50
180.0
 51
269.9890991354035918
  0
ARC
  5
1A07
  8
0
 10
420.2039207869959228
 20
56.4621684061098605
 30
0.0
 40
0.0039370079
 50
40.2141710173009415
 51
90.0
  0
ARC
  5
1A08
  8
0
 10
420.1724247240458112
 20
59.2829929659098482
 30
0.0
 40
0.031496063
 50
0.0
 51
90.0
  0
ARC
  5
1A09
  8
0
 10
419.9047081886458272
 20
59.2829929659098482
 30
0.0
 40
0.031496063
 50
90.0
 51
180.0
  0
LINE
  5
1A0C
  8
0
 10
420.2708148530958283
 20
56.3173504691098614
 30
0.0
 11
419.8063504679959124
 21
56.3335699229098594
 31
0.0
  0
LINE
  5
1A0D
  8
0
 10
419.5456519781957923
 20
56.3111270935098531
 30
0.0
 11
420.5292803533957908
 21
56.2767780337098529
 31
0.0
  0
LINE
  5
1A0E
  8
0
 10
419.5243735956958062
 20
56.2658758725098522
 30
0.0
 11
419.5252653144565897
 21
56.2917180299141933
 31
0.0
  0
LINE
  5
1A0F
  8
0
 10
420.5473503372958248
 20
56.2301527375098615
 30
0.0
 11
420.5482784100005915
 21
56.2564175687096935
 31
0.0
  0
LINE
  5
1A10
  8
0
 10
420.273677072224416
 20
56.2857034512297929
 30
0.0
 11
420.2782551215610169
 21
56.3078436919921472
 31
0.0
  0
LINE
  5
1A11
  8
0
 10
419.80125524564221
 20
56.3022012307145729
 30
0.0
 11
419.7983835891823787
 21
56.323823331446178
 31
0.0
  0
LINE
  5
1A12
  8
0
 10
419.890987201623318
 20
56.475906351809833
 30
0.0
 11
420.1862042515958251
 21
56.4759063517098667
 31
0.0
  0
ARC
  5
1A13
  8
0
 10
420.1862042515958251
 20
56.4660638321098602
 30
0.0
 40
0.0098425197000021
 50
0.2420594048933745
 51
90.0000000000195257
  0
ARC
  5
1A14
  8
0
 10
419.8909289707848984
 20
56.4660636725538296
 30
0.0
 40
0.0098428515069536
 50
89.6610331119800179
 51
179.7570199622358018
  0
ARC
  5
1A15
  8
0
 10
420.2705531555067182
 20
56.3094807881030519
 30
0.0
 40
0.0078740310373684
 50
348.0000520414989182
 51
88.0953936938129374
  0
ARC
  5
1A16
  8
0
 10
419.8060303353885274
 20
56.3257022344749814
 30
0.0
 40
0.0078741987652464
 50
87.6699465453781244
 51
193.8048193609450038
  0
ARC
  5
1A17
  8
0
 10
420.5286053560151913
 20
56.2571045643990004
 30
0.0
 40
0.0196850454962346
 50
358.0000072549879064
 51
88.0349507452452258
  0
ARC
  5
1A18
  8
0
 10
419.5449557129193181
 20
56.2914471446166118
 30
0.0
 40
0.0196922617740288
 50
87.9737534019872243
 51
179.2118186294979125
  0
LINE
  5
1A19
  8
0
 10
414.3564560497359253
 20
55.7569471903097025
 30
0.0
 11
413.793823432243812
 21
55.7765947542452167
 31
0.0
  0
LINE
  5
1A1A
  8
0
 10
413.7240394911958106
 20
55.8656986316098667
 30
0.0
 11
414.4322690239959002
 21
55.8409667113098607
 31
0.0
  0
LINE
  5
1A1B
  8
0
 10
414.4322690239959002
 20
55.8409667113098607
 30
0.0
 11
414.4466460648774273
 21
55.8916769165244105
 31
0.0
  0
LINE
  5
1A1C
  8
0
 10
413.7240394911958106
 20
55.8656986316098667
 30
0.0
 11
413.7132348177207746
 21
55.9172882286976503
 31
0.0
  0
ARC
  5
1A1D
  8
0
 10
413.9120739112876777
 20
55.8804070831345783
 30
0.0
 40
0.1573536635146395
 50
185.7656218627672047
 51
221.2799609272811097
  0
ARC
  5
1A1E
  8
0
 10
414.24559719639592
 20
55.8687969299098626
 30
0.0
 40
0.1574803149999904
 50
314.7450784214972259
 51
350.2271807141875115
  0
ENDSEC
  0
EOF
