  0
SECTION
  2
HEADER
  9
$ACADVER
  1
AC1009
  9
$INSBASE
 10
3468.1994139101848305
 20
169.4429140001606982
 30
0.0
  9
$EXTMIN
 10
3465.8234296582859315
 20
167.7263785670606921
 30
0.0
  9
$EXTMAX
 10
3470.5753981621860476
 20
169.4480111932261934
 30
0.0
  9
$LIMMIN
 10
0.0
 20
0.0
  9
$LIMMAX
 10
11.6929133858000007
 20
8.2677165353999982
  9
$ORTHOMODE
 70
     0
  9
$REGENMODE
 70
     1
  9
$FILLMODE
 70
     1
  9
$QTEXTMODE
 70
     0
  9
$MIRRTEXT
 70
     0
  9
$DRAGMODE
 70
     2
  9
$LTSCALE
 40
0.6431102362
  9
$OSMODE
 70
  4095
  9
$ATTMODE
 70
     1
  9
$TEXTSIZE
 40
0.2
  9
$TRACEWID
 40
0.05
  9
$TEXTSTYLE
  7
STANDARD
  9
$CLAYER
  8
0
  9
$CELTYPE
  6
BYLAYER
  9
$CECOLOR
 62
   256
  9
$DIMSCALE
 40
1.0
  9
$DIMASZ
 40
0.1875
  9
$DIMEXO
 40
0.0625
  9
$DIMDLI
 40
0.4443307087
  9
$DIMRND
 40
0.0
  9
$DIMDLE
 40
0.0
  9
$DIMEXE
 40
0.125
  9
$DIMTP
 40
0.01
  9
$DIMTM
 40
0.01
  9
$DIMTXT
 40
2.0
  9
$DIMCEN
 40
0.1052362205
  9
$DIMTSZ
 40
0.0
  9
$DIMTOL
 70
     1
  9
$DIMLIM
 70
     0
  9
$DIMTIH
 70
     1
  9
$DIMTOH
 70
     1
  9
$DIMSE1
 70
     0
  9
$DIMSE2
 70
     0
  9
$DIMTAD
 70
     0
  9
$DIMZIN
 70
     0
  9
$DIMBLK
  1

  9
$DIMASO
 70
     1
  9
$DIMSHO
 70
     1
  9
$DIMPOST
  1
\X
  9
$DIMAPOST
  1

  9
$DIMALT
 70
     1
  9
$DIMALTD
 70
     2
  9
$DIMALTF
 40
25.3999999999999986
  9
$DIMLFAC
 40
1.0
  9
$DIMTOFL
 70
     0
  9
$DIMTVP
 40
0.0
  9
$DIMTIX
 70
     0
  9
$DIMSOXD
 70
     0
  9
$DIMSAH
 70
     0
  9
$DIMBLK1
  1

  9
$DIMBLK2
  1

  9
$DIMSTYLE
  2
STANDARD
  9
$DIMCLRD
 70
     0
  9
$DIMCLRE
 70
     0
  9
$DIMCLRT
 70
     0
  9
$DIMTFAC
 40
1.0
  9
$DIMGAP
 40
0.09
  9
$LUNITS
 70
     2
  9
$LUPREC
 70
     4
  9
$SKETCHINC
 40
0.1
  9
$FILLETRAD
 40
0.0
  9
$AUNITS
 70
     0
  9
$AUPREC
 70
     0
  9
$MENU
  1
.
  9
$ELEVATION
 40
0.0
  9
$PELEVATION
 40
0.0
  9
$THICKNESS
 40
0.0
  9
$LIMCHECK
 70
     0
  9
$BLIPMODE
 70
     0
  9
$CHAMFERA
 40
0.0
  9
$CHAMFERB
 40
0.0
  9
$SKPOLY
 70
     0
  9
$TDCREATE
 40
2458060.468368056230247
  9
$TDUPDATE
 40
2459149.5465162037871778
  9
$TDINDWG
 40
0.5416158565
  9
$TDUSRTIMER
 40
0.5416158565
  9
$USRTIMER
 70
     1
  9
$ANGBASE
 50
0.0
  9
$ANGDIR
 70
     0
  9
$PDMODE
 70
     0
  9
$PDSIZE
 40
0.3125
  9
$PLINEWID
 40
0.0
  9
$COORDS
 70
     1
  9
$SPLFRAME
 70
     0
  9
$SPLINETYPE
 70
     6
  9
$SPLINESEGS
 70
     8
  9
$ATTDIA
 70
     1
  9
$ATTREQ
 70
     1
  9
$HANDLING
 70
     1
  9
$HANDSEED
  5
B3D5
  9
$SURFTAB1
 70
     6
  9
$SURFTAB2
 70
     6
  9
$SURFTYPE
 70
     6
  9
$SURFU
 70
     6
  9
$SURFV
 70
     6
  9
$UCSNAME
  2

  9
$UCSORG
 10
0.0
 20
0.0
 30
0.0
  9
$UCSXDIR
 10
1.0
 20
0.0
 30
0.0
  9
$UCSYDIR
 10
0.0
 20
1.0
 30
0.0
  9
$PUCSNAME
  2

  9
$PUCSORG
 10
0.0
 20
0.0
 30
0.0
  9
$PUCSXDIR
 10
1.0
 20
0.0
 30
0.0
  9
$PUCSYDIR
 10
0.0
 20
1.0
 30
0.0
  9
$USERI1
 70
     0
  9
$USERI2
 70
     0
  9
$USERI3
 70
     0
  9
$USERI4
 70
     0
  9
$USERI5
 70
     0
  9
$USERR1
 40
0.0
  9
$USERR2
 40
0.0
  9
$USERR3
 40
0.0
  9
$USERR4
 40
0.0
  9
$USERR5
 40
0.0
  9
$WORLDVIEW
 70
     1
  9
$SHADEDGE
 70
     3
  9
$SHADEDIF
 70
    70
  9
$TILEMODE
 70
     1
  9
$MAXACTVP
 70
    64
  9
$PLIMCHECK
 70
     0
  9
$PEXTMIN
 10
1.0000000000000000E+20
 20
1.0000000000000000E+20
 30
1.0000000000000000E+20
  9
$PEXTMAX
 10
-1.0000000000000000E+20
 20
-1.0000000000000000E+20
 30
-1.0000000000000000E+20
  9
$PLIMMIN
 10
0.0
 20
0.0
  9
$PLIMMAX
 10
12.0
 20
9.0
  9
$UNITMODE
 70
     0
  9
$VISRETAIN
 70
     1
  9
$PLINEGEN
 70
     0
  9
$PSLTSCALE
 70
     1
  0
ENDSEC
  0
SECTION
  2
TABLES
  0
TABLE
  2
VPORT
 70
     1
  0
VPORT
  2
*ACTIVE
 70
     0
 10
0.0
 20
0.0
 11
1.0
 21
1.0
 12
0.0
 22
0.0
 13
0.0
 23
0.0
 14
1.0
 24
1.0
 15
0.0
 25
0.0
 16
0.0
 26
0.0
 36
18.5445004981356014
 17
3468.1994628906259095
 27
168.5958165096990058
 37
0.0
 40
5.0483662324285641
 41
2.888719512195121
 42
50.0
 43
0.0
 44
0.0
 50
0.0
 51
0.0
 71
     0
 72
   100
 73
     1
 74
     1
 75
     0
 76
     0
 77
     0
 78
     0
  0
ENDTAB
  0
TABLE
  2
LTYPE
 70
     2
  0
LTYPE
  2
CONTINUOUS
 70
     0
  3
Solid line
 72
    65
 73
     0
 40
0.0
  0
LTYPE
  2
PHANTOM2
 70
     0
  3
___ _ _ ___ _ _ ___ _ _ ___ _ _
 72
    65
 73
     6
 40
1.25
 49
0.625
 49
-0.125
 49
0.125
 49
-0.125
 49
0.125
 49
-0.125
  0
ENDTAB
  0
TABLE
  2
LAYER
 70
     2
  0
LAYER
  2
0
 70
     0
 62
   255
  6
CONTINUOUS
  0
LAYER
  2
DEFPOINTS
 70
     0
 62
     7
  6
CONTINUOUS
  0
ENDTAB
  0
TABLE
  2
STYLE
 70
     1
  0
STYLE
  2
STANDARD
 70
     0
 40
0.0
 41
0.8
 50
0.0
 71
     0
 42
0.2
  3
txt
  4

  0
ENDTAB
  0
TABLE
  2
VIEW
 70
     0
  0
ENDTAB
  0
TABLE
  2
UCS
 70
     0
  0
ENDTAB
  0
TABLE
  2
APPID
 70
     9
  0
APPID
  2
ACAD
 70
     0
  0
APPID
  2
ACAD_MLEADERVER
 70
     0
  0
APPID
  2
ACAD_EXEMPT_FROM_CAD_STANDARDS
 70
     0
  0
APPID
  2
ACAD_NAV_VCDISPLAY
 70
     0
  0
APPID
  2
ACAECLAYERSTANDARD
 70
     0
  0
APPID
  2
ACCMTRANSPARENCY
 70
     0
  0
APPID
  2
ACAD_DSTYLE_DIMJAG
 70
     0
  0
APPID
  2
ACAD_DSTYLE_DIMTALN
 70
     0
  0
APPID
  2
ACDBATTR
 70
     0
  0
ENDTAB
  0
TABLE
  2
DIMSTYLE
 70
     1
  0
DIMSTYLE
  2
STANDARD
 70
     0
  3

  4

  5

  6

  7

 40
1.0
 41
0.1875
 42
0.0625
 43
0.38
 44
0.125
 45
0.0
 46
0.0
 47
0.01
 48
0.01
140
0.15625
141
0.09
142
0.0
143
25.3999999999999986
144
1.0
145
0.0
146
1.0
147
0.09
 71
     1
 72
     0
 73
     1
 74
     1
 75
     0
 76
     0
 77
     0
 78
     4
170
     0
171
     2
172
     0
173
     0
174
     0
175
     0
176
     0
177
     0
178
     0
  0
ENDTAB
  0
ENDSEC
  0
SECTION
  2
BLOCKS
  0
BLOCK
  8
0
  2
$MODEL_SPACE
 70
     0
 10
0.0
 20
0.0
 30
0.0
  3
$MODEL_SPACE
  1

  0
ENDBLK
  5
21
  8
0
  0
BLOCK
 67
     1
  8
0
  2
$PAPER_SPACE
 70
     0
 10
0.0
 20
0.0
 30
0.0
  3
$PAPER_SPACE
  1

  0
ENDBLK
  5
1D
 67
     1
  8
0
  0
BLOCK
  8
0
  2
_FILLED
 70
     0
 10
0.0
 20
0.0
 30
0.0
  3
_FILLED
  1

  0
SOLID
  5
A110
  8
0
  6
BYBLOCK
 62
     0
 10
0.0
 20
0.0
 30
0.0
 11
-1.0
 21
0.1666666667
 31
0.0
 12
-1.0
 22
-0.1666666667
 32
0.0
 13
-1.0
 23
-0.1666666667
 33
0.0
  0
ENDBLK
  5
A111
  8
0
  6
BYBLOCK
 62
     0
  0
ENDSEC
  0
SECTION
  2
ENTITIES
  0
ATTDEF
  5
8DE4
  8
DEFPOINTS
 10
3468.2044273571491431
 20
169.4470111932261034
 30
0.0
 40
0.001
  1
K-73146BR
  3

  2
MODELNUMBER
 70
     0
1001
ACDBATTR
1070
     0
1070
     1
  0
ATTDEF
  5
8DE5
  8
DEFPOINTS
 10
3468.2044273571491431
 20
169.4453445265594951
 30
0.0
 40
0.001
  1
COMPOSED
  3

  2
TRADENAME
 70
     0
1001
ACDBATTR
1070
     0
1070
     1
  0
ATTDEF
  5
8DE6
  8
DEFPOINTS
 10
3468.2044273571491431
 20
169.4436778598928015
 30
0.0
 40
0.001
  1
ROBE HOOK
  3

  2
PRODUCT
 70
     0
1001
ACDBATTR
1070
     0
1070
     1
  0
LINE
  5
AC10
  8
0
 10
3465.8234296582859315
 20
169.4429140001606982
 30
0.0
 11
3465.8234296582859315
 21
169.1594494331606882
 31
0.0
  0
LINE
  5
AC11
  8
0
 10
3466.4041383196849893
 20
168.0964573071607049
 30
0.0
 11
3467.2427209968850548
 21
168.0964573071607049
 31
0.0
  0
LINE
  5
AC12
  8
0
 10
3465.8549257212848715
 20
169.1279533701606965
 30
0.0
 11
3470.5439007565851171
 21
169.1279533701606965
 31
0.0
  0
LINE
  5
AC13
  8
0
 10
3465.8234296582859315
 20
169.4429140001606982
 30
0.0
 11
3470.5753981621860476
 21
169.4429140001606982
 31
0.0
  0
LINE
  5
AC14
  8
0
 10
3470.5753981621860476
 20
169.4429140001606982
 30
0.0
 11
3470.5753981621860476
 21
169.1594494331606882
 31
0.0
  0
ARC
  5
AC15
  8
0
 10
3466.4041383197209143
 20
168.064961244075306
 30
0.0
 40
0.0314960630853554
 50
90.0000000643300666
 51
179.9999998447262044
  0
ARC
  5
AC16
  8
0
 10
3467.2427209969209798
 20
168.0649612442460068
 30
0.0
 40
0.0314960629146501
 50
359.9999998447377152
 51
90.0000000643039897
  0
ARC
  5
AC17
  8
0
 10
3466.4041383197300092
 20
167.7750053118517997
 30
0.0
 40
0.0314960630944743
 50
180.0000001658146971
 51
265.3208182225894802
  0
ARC
  5
AC18
  8
0
 10
3467.2427209969300748
 20
167.7750053116695028
 30
0.0
 40
0.0314960629055297
 50
274.6791816430917947
 51
0.0000001658065393
  0
ARC
  5
AC19
  8
0
 10
3466.4041383197209143
 20
169.0964573070752976
 30
0.0
 40
0.0314960630853554
 50
90.0000000643039897
 51
179.9999998447262044
  0
ARC
  5
AC1A
  8
0
 10
3467.2427209969209798
 20
169.0964573072459984
 30
0.0
 40
0.0314960629146484
 50
359.9999998447377152
 51
90.0000000643039897
  0
ARC
  5
AC1B
  8
0
 10
3466.4041383197209143
 20
168.1279533702461038
 30
0.0
 40
0.0314960630853545
 50
180.0000001552720903
 51
269.9999999356959961
  0
ARC
  5
AC1C
  8
0
 10
3467.2427209969209798
 20
168.1279533700752893
 30
0.0
 40
0.0314960629146492
 50
269.9999999356959961
 51
0.0000001552639929
  0
ARC
  5
AC1D
  8
0
 10
3465.8549257212848715
 20
169.1594494331606882
 30
0.0
 40
0.031496063
 50
180.0
 51
270.0
  0
ARC
  5
AC1E
  8
0
 10
3466.8234296582859315
 20
172.8977368347607069
 30
0.0
 40
5.1713582676999987
 50
265.3208182900888232
 51
274.6791817099111199
  0
ARC
  5
AC1F
  8
0
 10
3470.5439020991848338
 20
169.1594494331606882
 30
0.0
 40
0.031496063
 50
270.0
 51
0.0
  0
LINE
  5
AC20
  8
0
 10
3469.1561068235851053
 20
168.0964573071607049
 30
0.0
 11
3469.9946895007860803
 21
168.0964573071607049
 31
0.0
  0
ARC
  5
AC21
  8
0
 10
3469.1561068236201208
 20
168.064961244075306
 30
0.0
 40
0.0314960630853545
 50
90.0000000643300666
 51
179.999999844727796
  0
ARC
  5
AC22
  8
0
 10
3469.9946895008210959
 20
168.0649612442460068
 30
0.0
 40
0.0314960629146457
 50
359.9999998447294729
 51
90.0000000643300666
  0
ARC
  5
AC23
  8
0
 10
3469.1561068236301253
 20
167.7750053118517997
 30
0.0
 40
0.0314960630944752
 50
180.0000001658179087
 51
265.3208182225894802
  0
ARC
  5
AC24
  8
0
 10
3469.9946895008301908
 20
167.7750053116695028
 30
0.0
 40
0.0314960629055259
 50
274.6791816430916242
 51
0.0000001658130531
  0
ARC
  5
AC25
  8
0
 10
3469.1561068236201208
 20
169.0964573070752976
 30
0.0
 40
0.0314960630853545
 50
90.0000000643039897
 51
179.999999844727796
  0
ARC
  5
AC26
  8
0
 10
3469.9946895008210959
 20
169.0964573072461121
 30
0.0
 40
0.0314960629146448
 50
359.9999998447294729
 51
90.0000000643300666
  0
ARC
  5
AC27
  8
0
 10
3469.1561068236201208
 20
168.1279533702461038
 30
0.0
 40
0.0314960630853563
 50
180.0000001552753872
 51
269.9999999356700187
  0
ARC
  5
AC28
  8
0
 10
3469.9946895008210959
 20
168.1279533700752893
 30
0.0
 40
0.0314960629146466
 50
269.9999999356700187
 51
0.0000001552688782
  0
ARC
  5
AC29
  8
0
 10
3469.5753981621860476
 20
172.8977368347607069
 30
0.0
 40
5.1713582676999987
 50
265.3208182900888232
 51
274.6791817099111199
  0
LINE
  5
AC2B
  8
0
 10
3470.0261855637349981
 20
167.7750053117607081
 30
0.0
 11
3470.0261855637349981
 21
168.0649612441607132
 31
0.0
  0
LINE
  5
AC2C
  8
0
 10
3470.0261855637349981
 20
168.1279533701606965
 30
0.0
 11
3470.0261855637349981
 21
169.0964573071607049
 31
0.0
  0
LINE
  5
AC2D
  8
0
 10
3466.3726422566351175
 20
167.7750053117607081
 30
0.0
 11
3466.3726422566351175
 21
168.0649612441607132
 31
0.0
  0
LINE
  5
AC2E
  8
0
 10
3466.3726422566351175
 20
168.1279533701606965
 30
0.0
 11
3466.3726422566351175
 21
169.0964573071607049
 31
0.0
  0
LINE
  5
AC2F
  8
0
 10
3467.2742170598348821
 20
167.7750053117607081
 30
0.0
 11
3467.2742170598348821
 21
168.0649612441607132
 31
0.0
  0
LINE
  5
AC30
  8
0
 10
3467.2742170598348821
 20
168.1279533701606965
 30
0.0
 11
3467.2742170598348821
 21
169.0964573071607049
 31
0.0
  0
LINE
  5
AC31
  8
0
 10
3469.1246107605347788
 20
167.7750053117607081
 30
0.0
 11
3469.1246107605347788
 21
168.0649612441607132
 31
0.0
  0
LINE
  5
AC32
  8
0
 10
3469.1246107605347788
 20
168.1279533701606965
 30
0.0
 11
3469.1246107605347788
 21
169.0964573071607049
 31
0.0
  0
ENDSEC
  0
EOF
