  0
SECTION
  2
HEADER
  9
$ACADVER
  1
AC1009
  9
$INSBASE
 10
3493.5151158676590057
 20
199.9005227197274905
 30
0.0
  9
$EXTMIN
 10
3488.0820450015589813
 20
190.7158778615134054
 30
0.0
  9
$EXTMAX
 10
3498.9481867337590302
 20
199.9056060254605995
 30
0.0
  9
$LIMMIN
 10
0.0
 20
0.0
  9
$LIMMAX
 10
11.6929133858000007
 20
8.2677165353999982
  9
$ORTHOMODE
 70
     0
  9
$REGENMODE
 70
     1
  9
$FILLMODE
 70
     1
  9
$QTEXTMODE
 70
     0
  9
$MIRRTEXT
 70
     0
  9
$DRAGMODE
 70
     2
  9
$LTSCALE
 40
0.6431102362
  9
$OSMODE
 70
  3839
  9
$ATTMODE
 70
     1
  9
$TEXTSIZE
 40
0.2
  9
$TRACEWID
 40
0.05
  9
$TEXTSTYLE
  7
STANDARD
  9
$CLAYER
  8
0
  9
$CELTYPE
  6
BYLAYER
  9
$CECOLOR
 62
   256
  9
$DIMSCALE
 40
1.0
  9
$DIMASZ
 40
0.1875
  9
$DIMEXO
 40
0.0625
  9
$DIMDLI
 40
0.4443307087
  9
$DIMRND
 40
0.0
  9
$DIMDLE
 40
0.0
  9
$DIMEXE
 40
0.125
  9
$DIMTP
 40
0.01
  9
$DIMTM
 40
0.01
  9
$DIMTXT
 40
2.0
  9
$DIMCEN
 40
0.1052362205
  9
$DIMTSZ
 40
0.0
  9
$DIMTOL
 70
     1
  9
$DIMLIM
 70
     0
  9
$DIMTIH
 70
     1
  9
$DIMTOH
 70
     1
  9
$DIMSE1
 70
     0
  9
$DIMSE2
 70
     0
  9
$DIMTAD
 70
     0
  9
$DIMZIN
 70
     0
  9
$DIMBLK
  1

  9
$DIMASO
 70
     1
  9
$DIMSHO
 70
     1
  9
$DIMPOST
  1
\X
  9
$DIMAPOST
  1

  9
$DIMALT
 70
     1
  9
$DIMALTD
 70
     2
  9
$DIMALTF
 40
25.3999999999999986
  9
$DIMLFAC
 40
1.0
  9
$DIMTOFL
 70
     0
  9
$DIMTVP
 40
0.0
  9
$DIMTIX
 70
     0
  9
$DIMSOXD
 70
     0
  9
$DIMSAH
 70
     0
  9
$DIMBLK1
  1

  9
$DIMBLK2
  1

  9
$DIMSTYLE
  2
STANDARD
  9
$DIMCLRD
 70
     0
  9
$DIMCLRE
 70
     0
  9
$DIMCLRT
 70
     0
  9
$DIMTFAC
 40
1.0
  9
$DIMGAP
 40
0.09
  9
$LUNITS
 70
     2
  9
$LUPREC
 70
     4
  9
$SKETCHINC
 40
0.1
  9
$FILLETRAD
 40
0.0
  9
$AUNITS
 70
     0
  9
$AUPREC
 70
     0
  9
$MENU
  1
.
  9
$ELEVATION
 40
0.0
  9
$PELEVATION
 40
0.0
  9
$THICKNESS
 40
0.0
  9
$LIMCHECK
 70
     0
  9
$BLIPMODE
 70
     0
  9
$CHAMFERA
 40
0.0
  9
$CHAMFERB
 40
0.0
  9
$SKPOLY
 70
     0
  9
$TDCREATE
 40
2458060.468368056230247
  9
$TDUPDATE
 40
2459023.6468055550940335
  9
$TDINDWG
 40
0.6807825231
  9
$TDUSRTIMER
 40
0.6807825231
  9
$USRTIMER
 70
     1
  9
$ANGBASE
 50
0.0
  9
$ANGDIR
 70
     0
  9
$PDMODE
 70
     0
  9
$PDSIZE
 40
0.3125
  9
$PLINEWID
 40
0.0
  9
$COORDS
 70
     1
  9
$SPLFRAME
 70
     0
  9
$SPLINETYPE
 70
     6
  9
$SPLINESEGS
 70
     8
  9
$ATTDIA
 70
     1
  9
$ATTREQ
 70
     1
  9
$HANDLING
 70
     1
  9
$HANDSEED
  5
977B
  9
$SURFTAB1
 70
     6
  9
$SURFTAB2
 70
     6
  9
$SURFTYPE
 70
     6
  9
$SURFU
 70
     6
  9
$SURFV
 70
     6
  9
$UCSNAME
  2

  9
$UCSORG
 10
0.0
 20
0.0
 30
0.0
  9
$UCSXDIR
 10
1.0
 20
0.0
 30
0.0
  9
$UCSYDIR
 10
0.0
 20
1.0
 30
0.0
  9
$PUCSNAME
  2

  9
$PUCSORG
 10
0.0
 20
0.0
 30
0.0
  9
$PUCSXDIR
 10
1.0
 20
0.0
 30
0.0
  9
$PUCSYDIR
 10
0.0
 20
1.0
 30
0.0
  9
$USERI1
 70
     0
  9
$USERI2
 70
     0
  9
$USERI3
 70
     0
  9
$USERI4
 70
     0
  9
$USERI5
 70
     0
  9
$USERR1
 40
0.0
  9
$USERR2
 40
0.0
  9
$USERR3
 40
0.0
  9
$USERR4
 40
0.0
  9
$USERR5
 40
0.0
  9
$WORLDVIEW
 70
     1
  9
$SHADEDGE
 70
     3
  9
$SHADEDIF
 70
    70
  9
$TILEMODE
 70
     1
  9
$MAXACTVP
 70
    64
  9
$PLIMCHECK
 70
     0
  9
$PEXTMIN
 10
1.0000000000000000E+20
 20
1.0000000000000000E+20
 30
1.0000000000000000E+20
  9
$PEXTMAX
 10
-1.0000000000000000E+20
 20
-1.0000000000000000E+20
 30
-1.0000000000000000E+20
  9
$PLIMMIN
 10
0.0
 20
0.0
  9
$PLIMMAX
 10
12.0
 20
9.0
  9
$UNITMODE
 70
     0
  9
$VISRETAIN
 70
     1
  9
$PLINEGEN
 70
     0
  9
$PSLTSCALE
 70
     1
  0
ENDSEC
  0
SECTION
  2
TABLES
  0
TABLE
  2
VPORT
 70
     1
  0
VPORT
  2
*ACTIVE
 70
     0
 10
0.0
 20
0.0
 11
1.0
 21
1.0
 12
0.0
 22
0.0
 13
0.0
 23
0.0
 14
1.0
 24
1.0
 15
0.0
 25
0.0
 16
0.0
 26
0.0
 36
59.08129095466861
 17
3493.51513671875
 27
195.3107436865583963
 37
0.0
 40
14.2311482246546195
 41
3.314341846758349
 42
50.0
 43
0.0
 44
0.0
 50
0.0
 51
0.0
 71
     0
 72
   100
 73
     1
 74
     1
 75
     0
 76
     0
 77
     0
 78
     0
  0
ENDTAB
  0
TABLE
  2
LTYPE
 70
     2
  0
LTYPE
  2
CONTINUOUS
 70
     0
  3
Solid line
 72
    65
 73
     0
 40
0.0
  0
LTYPE
  2
PHANTOM2
 70
     0
  3
___ _ _ ___ _ _ ___ _ _ ___ _ _
 72
    65
 73
     6
 40
1.25
 49
0.625
 49
-0.125
 49
0.125
 49
-0.125
 49
0.125
 49
-0.125
  0
ENDTAB
  0
TABLE
  2
LAYER
 70
     2
  0
LAYER
  2
0
 70
     0
 62
   255
  6
CONTINUOUS
  0
LAYER
  2
DEFPOINTS
 70
     0
 62
     7
  6
CONTINUOUS
  0
ENDTAB
  0
TABLE
  2
STYLE
 70
     1
  0
STYLE
  2
STANDARD
 70
     0
 40
0.0
 41
0.8
 50
0.0
 71
     0
 42
0.2
  3
txt
  4

  0
ENDTAB
  0
TABLE
  2
VIEW
 70
     0
  0
ENDTAB
  0
TABLE
  2
UCS
 70
     0
  0
ENDTAB
  0
TABLE
  2
APPID
 70
     9
  0
APPID
  2
ACAD
 70
     0
  0
APPID
  2
ACAD_MLEADERVER
 70
     0
  0
APPID
  2
ACAD_EXEMPT_FROM_CAD_STANDARDS
 70
     0
  0
APPID
  2
ACAD_NAV_VCDISPLAY
 70
     0
  0
APPID
  2
ACAECLAYERSTANDARD
 70
     0
  0
APPID
  2
ACCMTRANSPARENCY
 70
     0
  0
APPID
  2
ACAD_DSTYLE_DIMJAG
 70
     0
  0
APPID
  2
ACAD_DSTYLE_DIMTALN
 70
     0
  0
APPID
  2
ACDBATTR
 70
     0
  0
ENDTAB
  0
TABLE
  2
DIMSTYLE
 70
     1
  0
DIMSTYLE
  2
STANDARD
 70
     0
  3

  4

  5

  6

  7

 40
1.0
 41
0.1875
 42
0.0625
 43
0.38
 44
0.125
 45
0.0
 46
0.0
 47
0.01
 48
0.01
140
0.15625
141
0.09
142
0.0
143
25.3999999999999986
144
1.0
145
0.0
146
1.0
147
0.09
 71
     1
 72
     0
 73
     1
 74
     1
 75
     0
 76
     0
 77
     0
 78
     4
170
     0
171
     2
172
     0
173
     0
174
     0
175
     0
176
     0
177
     0
178
     0
  0
ENDTAB
  0
ENDSEC
  0
SECTION
  2
BLOCKS
  0
BLOCK
  8
0
  2
$MODEL_SPACE
 70
     0
 10
0.0
 20
0.0
 30
0.0
  3
$MODEL_SPACE
  1

  0
ENDBLK
  5
21
  8
0
  0
BLOCK
 67
     1
  8
0
  2
$PAPER_SPACE
 70
     0
 10
0.0
 20
0.0
 30
0.0
  3
$PAPER_SPACE
  1

  0
ENDBLK
  5
1D
 67
     1
  8
0
  0
BLOCK
  8
0
  2
_FILLED
 70
     0
 10
0.0
 20
0.0
 30
0.0
  3
_FILLED
  1

  0
SOLID
  5
6F59
  8
0
  6
BYBLOCK
 62
     0
 10
0.0
 20
0.0
 30
0.0
 11
-1.0
 21
0.1666666667
 31
0.0
 12
-1.0
 22
-0.1666666667
 32
0.0
 13
-1.0
 23
-0.1666666667
 33
0.0
  0
ENDBLK
  5
6F5A
  8
0
  6
BYBLOCK
 62
     0
  0
ENDSEC
  0
SECTION
  2
ENTITIES
  0
ATTDEF
  5
3930
  8
DEFPOINTS
 10
3493.5058849437868957
 20
199.9046060254605095
 30
0.0
 40
0.001
  1
K-73067BR-3ND
  3

  2
MODELNUMBER
 70
     0
1001
ACDBATTR
1070
     0
1070
     1
  0
ATTDEF
  5
3931
  8
DEFPOINTS
 10
3493.5058849437868957
 20
199.9029393587939012
 30
0.0
 40
0.001
  1
COMPOSED
  3

  2
TRADENAME
 70
     0
1001
ACDBATTR
1070
     0
1070
     1
  0
ATTDEF
  5
3932
  8
DEFPOINTS
 10
3493.5058849437868957
 20
199.9012726921272076
 30
0.0
 40
0.001
  1
BATHROOM SINK FAUCET
  3

  2
PRODUCT
 70
     0
1001
ACDBATTR
1070
     0
1070
     1
  0
LINE
  5
9620
  8
0
 10
3491.0426749228590779
 20
198.4517038653274881
 30
0.0
 11
3488.1135410645588308
 21
198.4517038654275041
 31
0.0
  0
ARC
  5
9621
  8
0
 10
3488.1135410645601951
 20
198.4831999284286042
 30
0.0
 40
0.0314960630010788
 50
180.0000001838756987
 51
269.9999999980458938
  0
LINE
  5
9622
  8
0
 10
3488.0820450015589813
 20
198.4831999283275081
 30
0.0
 11
3488.0820450015589813
 21
198.7745384677274956
 31
0.0
  0
ARC
  5
9623
  8
0
 10
3488.1135410628621685
 20
198.774538469424698
 30
0.0
 40
0.0314960613028284
 50
89.9999969126004515
 51
180.0000030873929973
  0
LINE
  5
9624
  8
0
 10
3488.1135410645588308
 20
198.8060345307274872
 30
0.0
 11
3491.0426749228590779
 21
198.8060344343745101
 31
0.0
  0
ARC
  5
9625
  8
0
 10
3491.042674921858179
 20
198.7745383704236986
 30
0.0
 40
0.031496063950849
 50
0.0001770093334908
 51
89.9999981795819934
  0
LINE
  5
9626
  8
0
 10
3491.0741709858089052
 20
198.7745384677274956
 30
0.0
 11
3491.0741709858089052
 21
198.4831999283289008
 31
0.0
  0
ARC
  5
9627
  8
0
 10
3491.0426765581310065
 20
198.4831982931058008
 30
0.0
 40
0.031494427720754
 50
269.9970250557437907
 51
0.0029748558268261
  0
ARC
  5
9628
  8
0
 10
3489.2946465252248345
 20
198.7745353741244969
 30
0.0
 40
0.0314991616177324
 50
90.0956198136772883
 51
179.9943728535980938
  0
LINE
  5
9629
  8
0
 10
3489.2631473637597992
 20
198.7745384677274956
 30
0.0
 11
3489.2631473637597992
 21
198.4831999283275081
 31
0.0
  0
ARC
  5
962A
  8
0
 10
3489.2945483468051862
 20
198.4831048483754046
 30
0.0
 40
0.031401126993578
 50
179.8265129688460888
 51
270.1734860366649968
  0
ARC
  5
962B
  8
0
 10
3489.8615694620930299
 20
198.7745353741244969
 30
0.0
 40
0.0314991616177324
 50
0.0056271464018709
 51
89.9043801863226975
  0
LINE
  5
962C
  8
0
 10
3489.8930686235589747
 20
198.7745384677274956
 30
0.0
 11
3489.8930686235589747
 21
198.4831999283275081
 31
0.0
  0
ARC
  5
962D
  8
0
 10
3489.8616676405131329
 20
198.4831048483754046
 30
0.0
 40
0.031401126993578
 50
269.8265139633348895
 51
0.1734870311538745
  0
LINE
  5
962E
  8
0
 10
3489.1931079936589413
 20
198.8060344955821108
 30
0.0
 11
3489.1931079936589413
 21
198.8178455543275049
 31
0.0
  0
LINE
  5
962F
  8
0
 10
3490.0010292316210325
 20
198.8178894035800113
 30
0.0
 11
3489.1551867556968318
 21
198.8178894035800113
 31
0.0
  0
ARC
  5
9630
  8
0
 10
3489.1568481511590107
 20
198.8493416173274966
 30
0.0
 40
0.0314960629999884
 50
179.9999999999870113
 51
266.9762840494159946
  0
LINE
  5
9631
  8
0
 10
3489.1253520881591612
 20
198.8493416173274966
 30
0.0
 11
3489.1253520881591612
 21
199.7115463417275123
 31
0.0
  0
ARC
  5
9632
  8
0
 10
3489.0938560251588569
 20
199.7115463417275123
 30
0.0
 40
0.0314960629999988
 50
0.0
 51
90.0
  0
LINE
  5
9633
  8
0
 10
3490.5308638991591579
 20
199.7430424047275039
 30
0.0
 11
3488.6253520881600707
 21
199.7430424047275039
 31
0.0
  0
ARC
  5
9634
  8
0
 10
3488.6253520881600707
 20
199.7745384677274956
 30
0.0
 40
0.0314960629999988
 50
179.9999999999608917
 51
270.0
  0
LINE
  5
9635
  8
0
 10
3488.5938560251588569
 20
199.7745384677274956
 30
0.0
 11
3488.5938560251588569
 21
199.9005227197274905
 31
0.0
  0
LINE
  5
9636
  8
0
 10
3490.5623599621590074
 20
199.9005227197274905
 30
0.0
 11
3490.5623599621590074
 21
199.7745384677274956
 31
0.0
  0
ARC
  5
9637
  8
0
 10
3490.5308638991591579
 20
199.7745384677274956
 30
0.0
 40
0.0314960629999988
 50
270.0
 51
0.0
  0
LINE
  5
9638
  8
0
 10
3489.9631079936589231
 20
198.8060344955821108
 30
0.0
 11
3489.9631079936589231
 21
198.8178455543275049
 31
0.0
  0
ARC
  5
9639
  8
0
 10
3489.9993678361588536
 20
198.8493416173274966
 30
0.0
 40
0.0314960629999884
 50
273.0237159505840054
 51
0.0000000000130276
  0
LINE
  5
963A
  8
0
 10
3490.0308638991591579
 20
198.8493416173274966
 30
0.0
 11
3490.0308638991591579
 21
199.7115463417275123
 31
0.0
  0
ARC
  5
963B
  8
0
 10
3490.0623599621590074
 20
199.7115463417275123
 30
0.0
 40
0.0314960629999988
 50
90.0
 51
180.0
  0
LINE
  5
963C
  8
0
 10
3498.4363757101591546
 20
199.9005227197274905
 30
0.0
 11
3496.4678717731590041
 21
199.9005227197274905
 31
0.0
  0
LINE
  5
963D
  8
0
 10
3494.4678636087592167
 20
199.9005227197274905
 30
0.0
 11
3492.5623681265587948
 21
199.9005227197274905
 31
0.0
  0
LINE
  5
963E
  8
0
 10
3490.5623599621590074
 20
199.9005227197274905
 30
0.0
 11
3488.5938560251588569
 21
199.9005227197274905
 31
0.0
  0
ARC
  5
963F
  8
0
 10
3492.5623681265587948
 20
199.8690184912692871
 30
0.0
 40
0.0315042284581857
 50
90.0
 51
179.9851497300579126
  0
LINE
  5
9640
  8
0
 10
3492.5308638991600674
 20
199.8690266567274989
 30
0.0
 11
3492.5308638991600674
 21
199.7745384691079096
 31
0.0
  0
ARC
  5
9641
  8
0
 10
3492.5623100817178965
 20
199.7744885872888005
 30
0.0
 40
0.03144622212184
 50
179.9091140775244924
 51
270.0908834114148931
  0
ARC
  5
9642
  8
0
 10
3492.8458236501837746
 20
199.7233594873615061
 30
0.0
 40
0.0196829173856168
 50
89.997441356274436
 51
179.9888801635395055
  0
LINE
  5
9643
  8
0
 10
3492.8261407331688133
 20
199.7233633073780084
 30
0.0
 11
3492.8261394897590435
 21
190.8654122113275093
 31
0.0
  0
ARC
  5
9644
  8
0
 10
3492.9755199220280701
 20
190.8823214045783914
 30
0.0
 40
0.149380485020826
 50
179.9507690078303881
 51
270.0866317909633949
  0
ARC
  5
9645
  8
0
 10
3492.9757377846431154
 20
190.8654824607268097
 30
0.0
 40
0.1496045992133757
 50
180.0269050317529889
 51
270.0030655039029739
  0
LINE
  5
9646
  8
0
 10
3492.9757457889591024
 20
190.7158778617275061
 30
0.0
 11
3494.0544859463589091
 21
190.7158778617275061
 31
0.0
  0
LINE
  5
9647
  8
0
 10
3492.9757457867281119
 20
190.7329410903124085
 30
0.0
 11
3494.0544859485908091
 21
190.7329410903124085
 31
0.0
  0
ARC
  5
9648
  8
0
 10
3494.4678636087592167
 20
199.8690184912692871
 30
0.0
 40
0.0315042284581857
 50
0.0148502699420744
 51
90.0
  0
LINE
  5
9649
  8
0
 10
3494.4993678361588536
 20
199.8690266567274989
 30
0.0
 11
3494.4993678361588536
 21
199.7745384691079096
 31
0.0
  0
ARC
  5
964A
  8
0
 10
3494.467921653600115
 20
199.7744885872888005
 30
0.0
 40
0.0314462221218508
 50
269.909116588611198
 51
0.0908859224559141
  0
ARC
  5
964B
  8
0
 10
3494.1844080851351464
 20
199.7233594873615061
 30
0.0
 40
0.0196829173856168
 50
0.0111198364604442
 51
90.002558643725564
  0
LINE
  5
964C
  8
0
 10
3494.2040910021491982
 20
199.7233633073780084
 30
0.0
 11
3494.204092245558968
 21
190.8654122113275093
 31
0.0
  0
ARC
  5
964D
  8
0
 10
3494.0547118132908508
 20
190.8823214045783914
 30
0.0
 40
0.149380485020826
 50
269.9133682090366051
 51
0.0492309921695668
  0
ARC
  5
964E
  8
0
 10
3494.0544939506739865
 20
190.8654824607268097
 30
0.0
 40
0.1496045992133757
 50
269.9969344960970261
 51
359.9730949682469827
  0
LINE
  5
9650
  8
0
 10
3492.5623599621590074
 20
199.7430424047275039
 30
0.0
 11
3494.4678717731590041
 21
199.7430424047275039
 31
0.0
  0
LINE
  5
9651
  8
0
 10
3495.9875568124589336
 20
198.4517038653274881
 30
0.0
 11
3498.9166906707600901
 21
198.4517038654275041
 31
0.0
  0
ARC
  5
9652
  8
0
 10
3498.9166906707578164
 20
198.4831999284286042
 30
0.0
 40
0.0314960630010788
 50
270.0000000019541062
 51
359.9999998161242729
  0
LINE
  5
9653
  8
0
 10
3498.9481867337590302
 20
198.4831999283275081
 30
0.0
 11
3498.9481867337590302
 21
198.7745384677274956
 31
0.0
  0
ARC
  5
9654
  8
0
 10
3498.916690672455843
 20
198.774538469424698
 30
0.0
 40
0.0314960613028284
 50
359.9999969126070027
 51
90.0000030873995343
  0
LINE
  5
9655
  8
0
 10
3498.9166906707600901
 20
198.8060345307274872
 30
0.0
 11
3495.9875568124589336
 21
198.8060344343745101
 31
0.0
  0
ARC
  5
9656
  8
0
 10
3495.9875568134598325
 20
198.7745383704236986
 30
0.0
 40
0.031496063950849
 50
90.0000018204180066
 51
179.9998229906665017
  0
LINE
  5
9657
  8
0
 10
3495.9560607495091062
 20
198.7745384677274956
 30
0.0
 11
3495.9560607495091062
 21
198.4831999283289008
 31
0.0
  0
ARC
  5
9658
  8
0
 10
3495.987555177187005
 20
198.4831982931058008
 30
0.0
 40
0.031494427720754
 50
179.9970251441731932
 51
270.0029749442562093
  0
ARC
  5
9659
  8
0
 10
3497.7355852100940865
 20
198.7745353741244969
 30
0.0
 40
0.0314991616177324
 50
0.0056271464018709
 51
89.9043801863226975
  0
LINE
  5
965A
  8
0
 10
3497.7670843715600313
 20
198.7745384677274956
 30
0.0
 11
3497.7670843715600313
 21
198.4831999283275081
 31
0.0
  0
ARC
  5
965B
  8
0
 10
3497.7356833885128253
 20
198.4831048483754046
 30
0.0
 40
0.031401126993578
 50
269.8265139633348895
 51
0.1734870311538745
  0
ARC
  5
965C
  8
0
 10
3497.1686622732249816
 20
198.7745353741244969
 30
0.0
 40
0.0314991616177324
 50
90.0956198136772883
 51
179.9943728535980938
  0
LINE
  5
965D
  8
0
 10
3497.1371631117590368
 20
198.7745384677274956
 30
0.0
 11
3497.1371631117590368
 21
198.4831999283275081
 31
0.0
  0
ARC
  5
965E
  8
0
 10
3497.1685640948048786
 20
198.4831048483754046
 30
0.0
 40
0.031401126993578
 50
179.8265129688460888
 51
270.1734860366649968
  0
LINE
  5
965F
  8
0
 10
3497.8371237416590702
 20
198.8060344955821108
 30
0.0
 11
3497.8371237416590702
 21
198.8178455543275049
 31
0.0
  0
LINE
  5
9660
  8
0
 10
3497.029202503696979
 20
198.8178894035800113
 30
0.0
 11
3497.8750449796220892
 21
198.8178894035800113
 31
0.0
  0
ARC
  5
9661
  8
0
 10
3497.8733835841590007
 20
198.8493416173274966
 30
0.0
 40
0.0314960629999884
 50
273.0237159505840054
 51
0.0000000000130276
  0
LINE
  5
9662
  8
0
 10
3497.9048796471588503
 20
198.8493416173274966
 30
0.0
 11
3497.9048796471588503
 21
199.7115463417275123
 31
0.0
  0
ARC
  5
9663
  8
0
 10
3497.936375710160064
 20
199.7115463417275123
 30
0.0
 40
0.0314960629999988
 50
90.0
 51
180.0
  0
LINE
  5
9664
  8
0
 10
3496.4993678361588536
 20
199.7430424047275039
 30
0.0
 11
3498.4048796471588503
 21
199.7430424047275039
 31
0.0
  0
ARC
  5
9665
  8
0
 10
3498.4048796471588503
 20
199.7745384677274956
 30
0.0
 40
0.0314960629999988
 50
270.0
 51
0.0000000000390827
  0
LINE
  5
9666
  8
0
 10
3498.4363757101591546
 20
199.7745384677274956
 30
0.0
 11
3498.4363757101591546
 21
199.9005227197274905
 31
0.0
  0
LINE
  5
9667
  8
0
 10
3496.4678717731590041
 20
199.9005227197274905
 30
0.0
 11
3496.4678717731590041
 21
199.7745384677274956
 31
0.0
  0
ARC
  5
9668
  8
0
 10
3496.4993678361588536
 20
199.7745384677274956
 30
0.0
 40
0.0314960629999988
 50
180.0
 51
270.0
  0
LINE
  5
9669
  8
0
 10
3497.0671237416590884
 20
198.8060344955821108
 30
0.0
 11
3497.0671237416590884
 21
198.8178455543275049
 31
0.0
  0
ARC
  5
966A
  8
0
 10
3497.0308638991591579
 20
198.8493416173274966
 30
0.0
 40
0.0314960629999884
 50
179.9999999999870113
 51
266.9762840494159946
  0
LINE
  5
966B
  8
0
 10
3496.9993678361588536
 20
198.8493416173274966
 30
0.0
 11
3496.9993678361588536
 21
199.7115463417275123
 31
0.0
  0
ARC
  5
966C
  8
0
 10
3496.9678717731590041
 20
199.7115463417275123
 30
0.0
 40
0.0314960629999988
 50
0.0
 51
90.0
  0
ENDSEC
  0
EOF
