  0
SECTION
  2
HEADER
  9
$ACADVER
  1
AC1009
  9
$INSBASE
 10
4500.7264568492655599
 20
168.8333557024768936
 30
0.0
  9
$EXTMIN
 10
4488.1081223507053437
 20
164.6533941456509922
 30
0.0
  9
$EXTMAX
 10
4505.6831482134011821
 20
177.3535193730374999
 30
0.0
  9
$LIMMIN
 10
0.0
 20
0.0
  9
$LIMMAX
 10
11.6929133858000007
 20
8.2677165353999982
  9
$ORTHOMODE
 70
     0
  9
$REGENMODE
 70
     1
  9
$FILLMODE
 70
     1
  9
$QTEXTMODE
 70
     0
  9
$MIRRTEXT
 70
     0
  9
$DRAGMODE
 70
     2
  9
$LTSCALE
 40
0.6431102362
  9
$OSMODE
 70
  2039
  9
$ATTMODE
 70
     1
  9
$TEXTSIZE
 40
0.2
  9
$TRACEWID
 40
0.05
  9
$TEXTSTYLE
  7
STANDARD
  9
$CLAYER
  8
0
  9
$CELTYPE
  6
BYLAYER
  9
$CECOLOR
 62
   256
  9
$DIMSCALE
 40
1.0
  9
$DIMASZ
 40
0.1875
  9
$DIMEXO
 40
0.0625
  9
$DIMDLI
 40
0.4443307087
  9
$DIMRND
 40
0.0
  9
$DIMDLE
 40
0.0
  9
$DIMEXE
 40
0.125
  9
$DIMTP
 40
0.01
  9
$DIMTM
 40
0.01
  9
$DIMTXT
 40
2.0
  9
$DIMCEN
 40
0.1052362205
  9
$DIMTSZ
 40
0.0
  9
$DIMTOL
 70
     1
  9
$DIMLIM
 70
     0
  9
$DIMTIH
 70
     1
  9
$DIMTOH
 70
     1
  9
$DIMSE1
 70
     0
  9
$DIMSE2
 70
     0
  9
$DIMTAD
 70
     0
  9
$DIMZIN
 70
     0
  9
$DIMBLK
  1

  9
$DIMASO
 70
     1
  9
$DIMSHO
 70
     1
  9
$DIMPOST
  1
\X
  9
$DIMAPOST
  1

  9
$DIMALT
 70
     1
  9
$DIMALTD
 70
     2
  9
$DIMALTF
 40
25.3999999999999986
  9
$DIMLFAC
 40
1.0
  9
$DIMTOFL
 70
     0
  9
$DIMTVP
 40
0.0
  9
$DIMTIX
 70
     0
  9
$DIMSOXD
 70
     0
  9
$DIMSAH
 70
     0
  9
$DIMBLK1
  1

  9
$DIMBLK2
  1

  9
$DIMSTYLE
  2
STANDARD
  9
$DIMCLRD
 70
     0
  9
$DIMCLRE
 70
     0
  9
$DIMCLRT
 70
     0
  9
$DIMTFAC
 40
1.0
  9
$DIMGAP
 40
0.09
  9
$LUNITS
 70
     2
  9
$LUPREC
 70
     4
  9
$SKETCHINC
 40
0.1
  9
$FILLETRAD
 40
0.0
  9
$AUNITS
 70
     0
  9
$AUPREC
 70
     0
  9
$MENU
  1
.
  9
$ELEVATION
 40
0.0
  9
$PELEVATION
 40
0.0
  9
$THICKNESS
 40
0.0
  9
$LIMCHECK
 70
     0
  9
$BLIPMODE
 70
     0
  9
$CHAMFERA
 40
0.0
  9
$CHAMFERB
 40
0.0
  9
$SKPOLY
 70
     0
  9
$TDCREATE
 40
2458060.468368056230247
  9
$TDUPDATE
 40
2459628.4443171299062669
  9
$TDINDWG
 40
0.4980626157
  9
$TDUSRTIMER
 40
0.4980626157
  9
$USRTIMER
 70
     1
  9
$ANGBASE
 50
0.0
  9
$ANGDIR
 70
     0
  9
$PDMODE
 70
     0
  9
$PDSIZE
 40
0.3125
  9
$PLINEWID
 40
0.0
  9
$COORDS
 70
     1
  9
$SPLFRAME
 70
     0
  9
$SPLINETYPE
 70
     6
  9
$SPLINESEGS
 70
     8
  9
$ATTDIA
 70
     1
  9
$ATTREQ
 70
     1
  9
$HANDLING
 70
     1
  9
$HANDSEED
  5
D4C2
  9
$SURFTAB1
 70
     6
  9
$SURFTAB2
 70
     6
  9
$SURFTYPE
 70
     6
  9
$SURFU
 70
     6
  9
$SURFV
 70
     6
  9
$UCSNAME
  2

  9
$UCSORG
 10
0.0
 20
0.0
 30
0.0
  9
$UCSXDIR
 10
1.0
 20
0.0
 30
0.0
  9
$UCSYDIR
 10
0.0
 20
1.0
 30
0.0
  9
$PUCSNAME
  2

  9
$PUCSORG
 10
0.0
 20
0.0
 30
0.0
  9
$PUCSXDIR
 10
1.0
 20
0.0
 30
0.0
  9
$PUCSYDIR
 10
0.0
 20
1.0
 30
0.0
  9
$USERI1
 70
     0
  9
$USERI2
 70
     0
  9
$USERI3
 70
     0
  9
$USERI4
 70
     0
  9
$USERI5
 70
     0
  9
$USERR1
 40
0.0
  9
$USERR2
 40
0.0
  9
$USERR3
 40
0.0
  9
$USERR4
 40
0.0
  9
$USERR5
 40
0.0
  9
$WORLDVIEW
 70
     1
  9
$SHADEDGE
 70
     3
  9
$SHADEDIF
 70
    70
  9
$TILEMODE
 70
     1
  9
$MAXACTVP
 70
    64
  9
$PLIMCHECK
 70
     0
  9
$PEXTMIN
 10
1.0000000000000000E+20
 20
1.0000000000000000E+20
 30
1.0000000000000000E+20
  9
$PEXTMAX
 10
-1.0000000000000000E+20
 20
-1.0000000000000000E+20
 30
-1.0000000000000000E+20
  9
$PLIMMIN
 10
0.0
 20
0.0
  9
$PLIMMAX
 10
12.0
 20
9.0
  9
$UNITMODE
 70
     0
  9
$VISRETAIN
 70
     1
  9
$PLINEGEN
 70
     0
  9
$PSLTSCALE
 70
     1
  0
ENDSEC
  0
SECTION
  2
TABLES
  0
TABLE
  2
VPORT
 70
     1
  0
VPORT
  2
*ACTIVE
 70
     0
 10
0.0
 20
0.0
 11
1.0
 21
1.0
 12
701.4595926004718649
 22
42.3391565474468976
 13
0.0
 23
0.0
 14
1.0
 24
1.0
 15
0.0
 25
0.0
 16
0.0
 26
0.0
 36
17.1152628219792007
 17
3803.5440673828129547
 27
125.9952621967499056
 37
0.0
 40
19.8017399169683515
 41
2.0416666666666661
 42
50.0
 43
0.0
 44
0.0
 50
0.0
 51
0.0
 71
     0
 72
   100
 73
     1
 74
     1
 75
     0
 76
     0
 77
     0
 78
     0
  0
ENDTAB
  0
TABLE
  2
LTYPE
 70
     2
  0
LTYPE
  2
CONTINUOUS
 70
     0
  3
Solid line
 72
    65
 73
     0
 40
0.0
  0
LTYPE
  2
PHANTOM2
 70
     0
  3
___ _ _ ___ _ _ ___ _ _ ___ _ _
 72
    65
 73
     6
 40
1.25
 49
0.625
 49
-0.125
 49
0.125
 49
-0.125
 49
0.125
 49
-0.125
  0
ENDTAB
  0
TABLE
  2
LAYER
 70
     2
  0
LAYER
  2
0
 70
     0
 62
   255
  6
CONTINUOUS
  0
LAYER
  2
DEFPOINTS
 70
     0
 62
     7
  6
CONTINUOUS
  0
ENDTAB
  0
TABLE
  2
STYLE
 70
     1
  0
STYLE
  2
STANDARD
 70
     0
 40
0.0
 41
0.8
 50
0.0
 71
     0
 42
0.2
  3
txt
  4

  0
ENDTAB
  0
TABLE
  2
VIEW
 70
     0
  0
ENDTAB
  0
TABLE
  2
UCS
 70
     0
  0
ENDTAB
  0
TABLE
  2
APPID
 70
     9
  0
APPID
  2
ACAD
 70
     0
  0
APPID
  2
ACAD_MLEADERVER
 70
     0
  0
APPID
  2
ACAD_EXEMPT_FROM_CAD_STANDARDS
 70
     0
  0
APPID
  2
ACAD_NAV_VCDISPLAY
 70
     0
  0
APPID
  2
ACAECLAYERSTANDARD
 70
     0
  0
APPID
  2
ACCMTRANSPARENCY
 70
     0
  0
APPID
  2
ACAD_DSTYLE_DIMJAG
 70
     0
  0
APPID
  2
ACAD_DSTYLE_DIMTALN
 70
     0
  0
APPID
  2
ACDBATTR
 70
     0
  0
ENDTAB
  0
TABLE
  2
DIMSTYLE
 70
     1
  0
DIMSTYLE
  2
STANDARD
 70
     0
  3

  4

  5

  6

  7

 40
1.0
 41
0.1875
 42
0.0625
 43
0.38
 44
0.125
 45
0.0
 46
0.0
 47
0.01
 48
0.01
140
0.15625
141
0.09
142
0.0
143
25.3999999999999986
144
1.0
145
0.0
146
1.0
147
0.09
 71
     1
 72
     0
 73
     1
 74
     1
 75
     0
 76
     0
 77
     0
 78
     4
170
     0
171
     2
172
     0
173
     0
174
     0
175
     0
176
     0
177
     0
178
     0
  0
ENDTAB
  0
ENDSEC
  0
SECTION
  2
BLOCKS
  0
BLOCK
  8
0
  2
$MODEL_SPACE
 70
     0
 10
0.0
 20
0.0
 30
0.0
  3
$MODEL_SPACE
  1

  0
ENDBLK
  5
21
  8
0
  0
BLOCK
 67
     1
  8
0
  2
$PAPER_SPACE
 70
     0
 10
0.0
 20
0.0
 30
0.0
  3
$PAPER_SPACE
  1

  0
ENDBLK
  5
1D
 67
     1
  8
0
  0
BLOCK
  8
0
  2
_FILLED
 70
     0
 10
0.0
 20
0.0
 30
0.0
  3
_FILLED
  1

  0
SOLID
  5
A877
  8
0
  6
BYBLOCK
 62
     0
 10
0.0
 20
0.0
 30
0.0
 11
-1.0
 21
0.1666666667
 31
0.0
 12
-1.0
 22
-0.1666666667
 32
0.0
 13
-1.0
 23
-0.1666666667
 33
0.0
  0
ENDBLK
  5
A878
  8
0
  6
BYBLOCK
 62
     0
  0
ENDSEC
  0
SECTION
  2
ENTITIES
  0
ATTDEF
  5
AB47
  8
DEFPOINTS
 10
4500.727186159170742
 20
168.836996371094898
 30
0.0
 40
0.001
  1
K-73038BR-CL
  3

  2
MODELNUMBER
 70
     0
1001
ACDBATTR
1070
     0
1070
     1
  0
ATTDEF
  5
AB48
  8
DEFPOINTS
 10
4500.727186159170742
 20
168.8353297044282044
 30
0.0
 40
0.001
  1

  3

  2
TRADENAME
 70
     0
1001
ACDBATTR
1070
     0
1070
     1
  0
ATTDEF
  5
AB49
  8
DEFPOINTS
 10
4500.727186159170742
 20
168.8336630377615109
 30
0.0
 40
0.001
  1
SHOWERHEAD
  3

  2
PRODUCT
 70
     0
1001
ACDBATTR
1070
     0
1070
     1
  0
LINE
  5
D353
  8
0
 10
4496.804847179772878
 20
170.377004826390106
 30
0.0
 11
4504.6473668648723105
 21
170.377004826390106
 31
0.0
  0
LINE
  5
D354
  8
0
 10
4496.7261070222730268
 20
170.3213271270901998
 30
0.0
 11
4496.7261070222730268
 21
164.7090731121901115
 31
0.0
  0
ARC
  5
D355
  8
0
 10
4500.7457613616479648
 20
168.7895149274031041
 30
0.0
 40
0.5815994559697254
 50
91.9365993708763227
 51
117.123062796090295
  0
ARC
  5
D356
  8
0
 10
4500.6180431946959288
 20
169.0604768371323132
 30
0.0
 40
0.2823804556140288
 50
119.1239859371033987
 51
153.3767482598497907
  0
ARC
  5
D357
  8
0
 10
4500.5423784188424179
 20
169.1018683875707893
 30
0.0
 40
0.1962141941020881
 50
154.2807968360760924
 51
209.9113445934904973
  0
ARC
  5
D358
  8
0
 10
4500.5023338286418948
 20
169.1253346280280994
 30
0.0
 40
0.2722935094292122
 50
149.6745403998330062
 51
179.6756974231944071
  0
ARC
  5
D359
  8
0
 10
4500.5823789542273516
 20
169.0784616335484998
 30
0.0
 40
0.3650528664461789
 50
126.5988984190087052
 51
149.6676753351189859
  0
ARC
  5
D35A
  8
0
 10
4500.6807367400560906
 20
168.9487317276908982
 30
0.0
 40
0.5278481100770087
 50
106.3443985763171042
 51
126.7745566961734056
  0
ARC
  5
D35B
  8
0
 10
4500.7249908190578935
 20
168.8116333217816134
 30
0.0
 40
0.6718708167035602
 50
89.9048124074853376
 51
106.6756837890855962
  0
ARC
  5
D35C
  8
0
 10
4500.7655572897438105
 20
168.7656649792347139
 30
0.0
 40
0.68423132121724
 50
93.305297420486653
 51
122.6558314815059987
  0
ARC
  5
D35D
  8
0
 10
4500.7257571953814477
 20
169.4402694777137981
 30
0.0
 40
0.6069137752369297
 50
260.4619073683575152
 51
270.0324292520548966
  0
ARC
  5
D35E
  8
0
 10
4500.6448004886879062
 20
169.2392697680652986
 30
0.0
 40
0.3886433464417635
 50
222.4507346608343994
 51
244.9552322040651973
  0
ARC
  5
D35F
  8
0
 10
4500.7097216893125733
 20
169.3653055911466083
 30
0.0
 40
0.5303399272395972
 50
244.3650366000273948
 51
260.8283746027033203
  0
ARC
  5
D360
  8
0
 10
4500.5320746542529378
 20
169.1435991671706915
 30
0.0
 40
0.2409568782058807
 50
178.3272685250989866
 51
223.757155541934992
  0
ARC
  5
D361
  8
0
 10
4500.5702323204641289
 20
169.121611825294309
 30
0.0
 40
0.2805170920391273
 50
128.3056715478043088
 51
174.0618188861666908
  0
ARC
  5
D362
  8
0
 10
4500.7251005467251161
 20
168.6861477930922888
 30
0.0
 40
0.5029540910323673
 50
89.8853437252572292
 51
109.4943163826392976
  0
ARC
  5
D363
  8
0
 10
4500.5853745306076235
 20
168.9108023735282984
 30
0.0
 40
0.2325746009372976
 50
136.7045957875762952
 51
156.3701688813378041
  0
ARC
  5
D364
  8
0
 10
4500.6650606807006625
 20
168.8354330337193971
 30
0.0
 40
0.3422577347342188
 50
108.3593042897632017
 51
136.6693860979671058
  0
ARC
  5
D365
  8
0
 10
4500.6054184488757528
 20
169.1359721731865875
 30
0.0
 40
0.2678698985940008
 50
209.5104166289258956
 51
231.0585558680890017
  0
ARC
  5
D366
  8
0
 10
4500.6697800442088919
 20
169.2112448060888141
 30
0.0
 40
0.3668793265615457
 50
230.6292498606497929
 51
245.5390833071780037
  0
ARC
  5
D367
  8
0
 10
4500.701419201558565
 20
169.2740092731704067
 30
0.0
 40
0.4371202389581127
 50
245.1707170896823129
 51
249.5299196873457959
  0
ARC
  5
D368
  8
0
 10
4500.7277279949548756
 20
169.3536113834138064
 30
0.0
 40
0.5209063056905724
 50
249.8808841647773988
 51
256.4400454122234123
  0
ARC
  5
D369
  8
0
 10
4500.7299801113804278
 20
169.3830060400900095
 30
0.0
 40
0.5500297303286265
 50
256.9299155334480247
 51
262.4714736236061867
  0
ARC
  5
D36A
  8
0
 10
4500.7254190486692096
 20
169.3611314139828892
 30
0.0
 40
0.5277486767380504
 50
262.651231251893023
 51
264.8328871430038021
  0
ARC
  5
D36B
  8
0
 10
4500.7259393871781867
 20
169.3668901156138134
 30
0.0
 40
0.5335308386581455
 50
264.8329311821904071
 51
267.6767015433974848
  0
ARC
  5
D36C
  8
0
 10
4500.7324956689408282
 20
169.5527743830047029
 30
0.0
 40
0.7195287606867092
 50
267.7550970489356814
 51
268.6932424019415748
  0
ARC
  5
D36D
  8
0
 10
4500.7208553651180409
 20
168.818945311738787
 30
0.0
 40
0.264141995315254
 50
88.8607732737797846
 51
131.1640512997352062
  0
ARC
  5
D36E
  8
0
 10
4500.625776241229687
 20
168.9279104379151022
 30
0.0
 40
0.1195273612636695
 50
131.2333155009399945
 51
189.1047177818585112
  0
ARC
  5
D36F
  8
0
 10
4500.7260140447324375
 20
168.7384098363579028
 30
0.0
 40
0.3071499410509124
 50
89.984240581328379
 51
101.3265865736654945
  0
ARC
  5
D370
  8
0
 10
4500.7337807835347121
 20
168.7134923493208021
 30
0.0
 40
0.3331186407142286
 50
101.794710080147297
 51
106.5794204663950069
  0
ARC
  5
D371
  8
0
 10
4500.6928209528523439
 20
168.8324664900416963
 30
0.0
 40
0.2074711082276336
 50
105.113290246488603
 51
138.2189952426246862
  0
ARC
  5
D372
  8
0
 10
4500.6349670616618823
 20
168.8847339650245942
 30
0.0
 40
0.1295052983166847
 50
138.408572435000508
 51
169.2019523074179972
  0
ARC
  5
D373
  8
0
 10
4500.6191212128260304
 20
168.9270518347250913
 30
0.0
 40
0.1128204944324213
 50
189.208967714468713
 51
206.1693278380774075
  0
ARC
  5
D374
  8
0
 10
4500.7212143233537063
 20
168.9078827689079958
 30
0.0
 40
0.5641481121225141
 50
237.8434488512191081
 51
270.496916518368721
  0
ARC
  5
D375
  8
0
 10
4500.5989747746571084
 20
168.7621388016418962
 30
0.0
 40
0.3689224545303788
 50
180.9457621167387913
 51
206.2231145957572949
  0
LINE
  5
D376
  8
0
 10
4500.2300440302733477
 20
169.1268758412902002
 30
0.0
 11
4500.2301025791211941
 21
168.7560493995954971
 31
0.0
  0
ARC
  5
D377
  8
0
 10
4500.6427180834325554
 20
168.7848220041136074
 30
0.0
 40
0.4181879302348484
 50
206.3628497804421897
 51
237.9746365411498914
  0
ARC
  5
D378
  8
0
 10
4500.4897151859349833
 20
168.4023995623257974
 30
0.0
 40
0.4901818108987718
 50
121.9934396036397004
 51
164.9204643977207922
  0
ARC
  5
D379
  8
0
 10
4500.6484481777943074
 20
168.6822158791734978
 30
0.0
 40
0.7297763712858291
 50
221.9279325584182914
 51
260.0415975155835895
  0
ARC
  5
D37A
  8
0
 10
4500.3879577612178764
 20
168.4491296662399122
 30
0.0
 40
0.3802286066771918
 50
167.7315872270841055
 51
222.0252212915731036
  0
ARC
  5
D37B
  8
0
 10
4500.3876359941477858
 20
167.6899226749943068
 30
0.0
 40
0.3800386703166584
 50
180.3154958239422001
 51
210.5774118569129882
  0
ARC
  5
D37C
  8
0
 10
4500.563160037486341
 20
167.8076508285220996
 30
0.0
 40
0.5911665409815264
 50
211.7470976572514871
 51
245.3864795737260067
  0
ARC
  5
D37D
  8
0
 10
4500.7233338284677302
 20
168.1380897271212973
 30
0.0
 40
0.9583260289593066
 50
244.9085461476053069
 51
270.1658021597551738
  0
LINE
  5
D37E
  8
0
 10
4500.0076030853733755
 20
167.6878300250901077
 30
0.0
 11
4500.0077291545421758
 21
168.4491296662399122
 31
0.0
  0
LINE
  5
D37F
  8
0
 10
4500.9299683921717588
 20
167.9634346365901081
 30
0.0
 11
4500.5222456524734298
 21
167.9634346365901081
 31
0.0
  0
LINE
  5
D380
  8
0
 10
4500.5222456524734298
 20
167.9634346365901081
 30
0.0
 11
4500.5222456524734298
 21
167.6293684407901026
 31
0.0
  0
LINE
  5
D381
  8
0
 10
4500.5222456524734298
 20
167.6293684407901026
 30
0.0
 11
4500.9299683921717588
 21
167.6293684407901026
 31
0.0
  0
ARC
  5
D382
  8
0
 10
4500.7252735004340138
 20
168.6058423813981051
 30
0.0
 40
0.9973573400413162
 50
258.2544445981828858
 51
270.0478838325723814
  0
ARC
  5
D383
  8
0
 10
4500.7119217829522313
 20
168.7021616144286895
 30
0.0
 40
0.6080491664810359
 50
233.238722434410505
 51
271.3367802035976979
  0
ARC
  5
D384
  8
0
 10
4500.5505494057642863
 20
168.4787989442912988
 30
0.0
 40
0.3325558469974796
 50
193.0211547524856996
 51
232.4810794200855923
  0
ARC
  5
D385
  8
0
 10
4500.4936889281188996
 20
168.4484682193497918
 30
0.0
 40
0.2713350201691831
 50
146.2757924041715967
 51
183.3975133200542018
  0
ARC
  5
D386
  8
0
 10
4500.4716566198503642
 20
168.4502915347650003
 30
0.0
 40
0.2494690748618859
 50
184.1154401892162014
 51
190.7240602905087883
  0
ARC
  5
D387
  8
0
 10
4500.6777023024687878
 20
168.2688067436976098
 30
0.0
 40
0.4709410883946809
 50
143.683016869352997
 51
163.3337966928806111
  0
ARC
  5
D388
  8
0
 10
4500.7240378674414387
 20
168.7307580134554996
 30
0.0
 40
0.4399770518754748
 50
242.552991123931605
 51
270.2694555962835921
  0
ARC
  5
D389
  8
0
 10
4500.6500371733973225
 20
168.5847439646022963
 30
0.0
 40
0.2762945263536
 50
213.9913371957453876
 51
242.2147696890764053
  0
ARC
  5
D38A
  8
0
 10
4500.7172814353343711
 20
169.3925646093491935
 30
0.0
 40
0.6165214466248568
 50
234.7039335327496019
 51
270.8202247644072145
  0
ARC
  5
D38B
  8
0
 10
4500.5436435658330083
 20
169.1449780942141956
 30
0.0
 40
0.3141215692444954
 50
183.3036815537469977
 51
234.4601365290579906
  0
ARC
  5
D38C
  8
0
 10
4500.6847919534875473
 20
168.7059386349974943
 30
0.0
 40
0.6661260328320334
 50
64.4962706211032639
 51
86.4440672119691129
  0
ARC
  5
D38D
  8
0
 10
4500.8341708499492597
 20
169.0604768371323132
 30
0.0
 40
0.2823804556140288
 50
26.6232517401502307
 51
60.8760140628966013
  0
ARC
  5
D38E
  8
0
 10
4500.9098356258036802
 20
169.1018683875707893
 30
0.0
 40
0.1962141941020881
 50
330.0886554065095879
 51
25.7192031639239183
  0
ARC
  5
D38F
  8
0
 10
4500.9498802160023843
 20
169.1253346280280994
 30
0.0
 40
0.2722935094292122
 50
0.3243025768055586
 51
30.32545960016704
  0
ARC
  5
D390
  8
0
 10
4500.8698350904178369
 20
169.0784616335484998
 30
0.0
 40
0.3650528664461789
 50
30.3323246648809715
 51
53.4011015809913303
  0
ARC
  5
D391
  8
0
 10
4500.7714773045890979
 20
168.9487317276908982
 30
0.0
 40
0.5278481100770087
 50
53.2254433038265802
 51
73.6556014236829242
  0
ARC
  5
D392
  8
0
 10
4500.727223225587295
 20
168.8116333217816134
 30
0.0
 40
0.6718708167035602
 50
73.3243162109144038
 51
90.0951875925146624
  0
ARC
  5
D393
  8
0
 10
4500.6996865161072492
 20
168.8058127947637956
 30
0.0
 40
0.6434878991777052
 50
56.3919987045046582
 51
87.646872393502818
  0
ARC
  5
D394
  8
0
 10
4500.7264568492655599
 20
169.4402694777137981
 30
0.0
 40
0.6069137752369297
 50
269.9675707479451034
 51
279.5380926316424848
  0
ARC
  5
D395
  8
0
 10
4500.8074135559581919
 20
169.2392697680652986
 30
0.0
 40
0.3886433464417635
 50
295.0447677959347743
 51
317.5492653391655722
  0
ARC
  5
D396
  8
0
 10
4500.7424923553344343
 20
169.3653055911466083
 30
0.0
 40
0.5303399272395972
 50
279.1716253972966797
 51
295.6349633999724915
  0
ARC
  5
D397
  8
0
 10
4500.9201393903931603
 20
169.1435991671706915
 30
0.0
 40
0.2409568782058807
 50
316.2428444580648943
 51
1.6727314749009889
  0
ARC
  5
D398
  8
0
 10
4500.8819817241819692
 20
169.121611825294309
 30
0.0
 40
0.2805170920391273
 50
5.9381811138332576
 51
51.6943284521956485
  0
ARC
  5
D399
  8
0
 10
4500.7271134979209819
 20
168.6861477930922888
 30
0.0
 40
0.5029540910323673
 50
70.5056836173607309
 51
90.1146562747427851
  0
ARC
  5
D39A
  8
0
 10
4500.8668395140375651
 20
168.9108023735282984
 30
0.0
 40
0.2325746009372976
 50
23.6298311186622314
 51
43.295404212423712
  0
ARC
  5
D39B
  8
0
 10
4500.7871533639436166
 20
168.8354330337193971
 30
0.0
 40
0.3422577347342188
 50
43.3306139020328871
 51
71.6406957102367556
  0
ARC
  5
D39C
  8
0
 10
4500.8467955957703452
 20
169.1359721731865875
 30
0.0
 40
0.2678698985940008
 50
308.9414441319109983
 51
330.4895833710741044
  0
ARC
  5
D39D
  8
0
 10
4500.7824340004372061
 20
169.2112448060888141
 30
0.0
 40
0.3668793265615457
 50
294.4609166928220247
 51
309.3707501393502071
  0
ARC
  5
D39E
  8
0
 10
4500.7507948430884426
 20
169.2740092731704067
 30
0.0
 40
0.4371202389581127
 50
290.4700803126542041
 51
294.8292829103177155
  0
ARC
  5
D39F
  8
0
 10
4500.7244860496903129
 20
169.3536113834138064
 30
0.0
 40
0.5209063056905724
 50
283.5599545877765877
 51
290.1191158352226012
  0
ARC
  5
D3A0
  8
0
 10
4500.7222339332656702
 20
169.3830060400900095
 30
0.0
 40
0.5500297303286265
 50
277.5285263763938133
 51
283.0700844665519753
  0
ARC
  5
D3A1
  8
0
 10
4500.726794995975979
 20
169.3611314139828892
 30
0.0
 40
0.5277486767380504
 50
275.1671128569963116
 51
277.348768748106977
  0
ARC
  5
D3A2
  8
0
 10
4500.7262746574679113
 20
169.3668901156138134
 30
0.0
 40
0.5335308386581455
 50
272.3232984566025152
 51
275.1670688178095929
  0
ARC
  5
D3A3
  8
0
 10
4500.7197183757043604
 20
169.5527743830047029
 30
0.0
 40
0.7195287606867092
 50
271.3067575980584252
 51
272.2449029510643186
  0
ARC
  5
D3A4
  8
0
 10
4500.7313586795280571
 20
168.818945311738787
 30
0.0
 40
0.264141995315254
 50
48.835948700264737
 51
91.1392267262202154
  0
ARC
  5
D3A5
  8
0
 10
4500.8264378034145921
 20
168.9279104379151022
 30
0.0
 40
0.1195273612636695
 50
350.8952822181399256
 51
48.7666844990599984
  0
ARC
  5
D3A6
  8
0
 10
4500.7261999223092062
 20
168.7384093165408103
 30
0.0
 40
0.3071504659852655
 50
78.6734182764269292
 51
90.0189141705943427
  0
ARC
  5
D3A7
  8
0
 10
4500.718433261109567
 20
168.7134923493208021
 30
0.0
 40
0.3331186407142286
 50
73.4205795336049505
 51
78.2052899198526177
  0
ARC
  5
D3A8
  8
0
 10
4500.7593930917937541
 20
168.8324664900416963
 30
0.0
 40
0.2074711082276336
 50
41.7810047573752996
 51
74.886709753511326
  0
ARC
  5
D3A9
  8
0
 10
4500.8172469829842157
 20
168.8847339650245942
 30
0.0
 40
0.1295052983166847
 50
10.7980476925819495
 51
41.5914275649995204
  0
ARC
  5
D3AA
  8
0
 10
4500.8330928318200677
 20
168.9270518347250913
 30
0.0
 40
0.1128204944324213
 50
333.8306721619226209
 51
350.791032285531287
  0
ARC
  5
D3AB
  8
0
 10
4500.7309997212923918
 20
168.9078827689079958
 30
0.0
 40
0.5641481121225141
 50
269.5030834816312222
 51
302.1565511487809204
  0
ARC
  5
D3AC
  8
0
 10
4500.8532392699880802
 20
168.7621388016418962
 30
0.0
 40
0.3689224545303788
 50
333.7768854042427051
 51
359.0542378832611234
  0
LINE
  5
D3AD
  8
0
 10
4501.2221700143718408
 20
169.1268758412902002
 30
0.0
 11
4501.2221114655249039
 21
168.7560493995954971
 31
0.0
  0
ARC
  5
D3AE
  8
0
 10
4500.8094959612117236
 20
168.7848220041136074
 30
0.0
 40
0.4181879302348484
 50
302.0253634588501086
 51
333.637150219557725
  0
ARC
  5
D3AF
  8
0
 10
4500.9624988587111147
 20
168.4023995623257974
 30
0.0
 40
0.4901818108987718
 50
15.0795356022791793
 51
58.0065603963602712
  0
ARC
  5
D3B0
  8
0
 10
4500.8037658668517906
 20
168.6822158791734978
 30
0.0
 40
0.7297763712858291
 50
279.9584024844162968
 51
318.0720674415816802
  0
ARC
  5
D3B1
  8
0
 10
4501.0642562834282216
 20
168.4491296662399122
 30
0.0
 40
0.3802286066771918
 50
317.9747787084269248
 51
12.2684127729159105
  0
ARC
  5
D3B2
  8
0
 10
4501.0645780504974027
 20
167.6899226749943068
 30
0.0
 40
0.3800386703166584
 50
329.4225881430868981
 51
359.6845041760578283
  0
ARC
  5
D3B3
  8
0
 10
4500.889054007159757
 20
167.8076508285220996
 30
0.0
 40
0.5911665409815264
 50
294.6135204262740217
 51
328.2529023427484844
  0
ARC
  5
D3B4
  8
0
 10
4500.7288802161765489
 20
168.1380897271212973
 30
0.0
 40
0.9583260289593066
 50
269.8341978402448262
 51
295.0914538523946931
  0
LINE
  5
D3B5
  8
0
 10
4501.444610959271813
 20
167.6878300250901077
 30
0.0
 11
4501.4444848901048317
 21
168.4491296662399122
 31
0.0
  0
LINE
  5
D3B6
  8
0
 10
4500.9299683921717588
 20
167.9634346365901081
 30
0.0
 11
4500.9299683921717588
 21
167.6293684407901026
 31
0.0
  0
ARC
  5
D3B7
  8
0
 10
4500.7269405442102652
 20
168.6058423813981051
 30
0.0
 40
0.9973573400413162
 50
269.9521161674276186
 51
281.7455554018171142
  0
ARC
  5
D3B8
  8
0
 10
4500.7402922616938667
 20
168.7021616144286895
 30
0.0
 40
0.6080491664810359
 50
268.6632197964024158
 51
306.7612775655895234
  0
ARC
  5
D3B9
  8
0
 10
4500.9016646388827212
 20
168.4787989442912988
 30
0.0
 40
0.3325558469974796
 50
307.5189205799143792
 51
346.9788452475143004
  0
ARC
  5
D3BA
  8
0
 10
4500.9585251165262889
 20
168.4484682193497918
 30
0.0
 40
0.2713350201691831
 50
356.6024866799456845
 51
33.7242075958283891
  0
ARC
  5
D3BB
  8
0
 10
4500.9805574247948243
 20
168.4502915347650003
 30
0.0
 40
0.2494690748618859
 50
349.2759397094911833
 51
355.8845598107837986
  0
ARC
  5
D3BC
  8
0
 10
4500.7745117421764007
 20
168.2688067436976098
 30
0.0
 40
0.4709410883946809
 50
16.6662033071193392
 51
36.3169831306469391
  0
ARC
  5
D3BD
  8
0
 10
4500.7281761772037498
 20
168.7307580134554996
 30
0.0
 40
0.4399770518754748
 50
269.7305444037164079
 51
297.4470088760684234
  0
ARC
  5
D3BE
  8
0
 10
4500.8021768712487756
 20
168.5847439646022963
 30
0.0
 40
0.2762945263536
 50
297.7852303109236232
 51
326.008662804254584
  0
ARC
  5
D3BF
  8
0
 10
4500.734932609311727
 20
169.3925646093491935
 30
0.0
 40
0.6165214466248568
 50
269.1797752355927855
 51
305.2960664672502844
  0
ARC
  5
D3C0
  8
0
 10
4500.9085704788130897
 20
169.1449780942141956
 30
0.0
 40
0.3141215692444954
 50
305.5398634709420094
 51
356.6963184462529171
  0
ARC
  5
D3C1
  8
0
 10
4496.8033462414450696
 20
170.2782740086720992
 30
0.0
 40
0.0987422259377023
 50
89.1290378281846642
 51
121.1247338963698041
  0
ARC
  5
D3C2
  8
0
 10
4496.7694648299011533
 20
170.320719049787499
 30
0.0
 40
0.0433620714484255
 50
142.3332706878811962
 51
179.1965004462593072
  0
ARC
  5
D3C3
  8
0
 10
4496.7866338948952034
 20
170.3077474625023058
 30
0.0
 40
0.0648796341722959
 50
121.9446489755797955
 51
142.5305821088338121
  0
ARC
  5
D3C4
  8
0
 10
4497.5175766833626767
 20
169.4280523735361044
 30
0.0
 40
0.7718885890882738
 50
88.8976997765414865
 51
113.4106654046836979
  0
ARC
  5
D3C5
  8
0
 10
4497.306748722347038
 20
169.8081315167605965
 30
0.0
 40
0.3300360520992471
 50
156.8378825832880921
 51
180.2222620358147083
  0
ARC
  5
D3C6
  8
0
 10
4497.3803822260251764
 20
169.7513318550651888
 30
0.0
 40
0.4207190210341086
 50
113.7571621875440968
 51
153.668759720429108
  0
ARC
  5
D3C7
  8
0
 10
4497.8547552659038047
 20
169.5711361616928912
 30
0.0
 40
0.3123837764421009
 50
96.9285408523418823
 51
122.0593745952715068
  0
ARC
  5
D3C8
  8
0
 10
4497.8032062244501503
 20
169.6575754385411869
 30
0.0
 40
0.2117758674554189
 50
122.6529815824290068
 51
159.7238346999612872
  0
LINE
  5
D3C9
  8
0
 10
4497.5324259529734263
 20
170.1997981173900882
 30
0.0
 11
4503.9197880915498899
 21
170.1997981173900882
 31
0.0
  0
LINE
  5
D3CA
  8
0
 10
4496.9767151534733785
 20
169.8068512426901009
 30
0.0
 11
4496.9767151534733785
 21
165.2903041605900967
 31
0.0
  0
LINE
  5
D3CB
  8
0
 10
4497.6045534347731518
 20
169.7309654050901031
 30
0.0
 11
4497.6045534347731518
 21
165.6169686087901027
 31
0.0
  0
LINE
  5
D3CC
  8
0
 10
4497.817071989872602
 20
169.8812387164900883
 30
0.0
 11
4503.6351420546734516
 21
169.8812387164024074
 31
0.0
  0
ARC
  5
D3CD
  8
0
 10
4496.7705122164452405
 20
164.7767463295531911
 30
0.0
 40
0.0444146832873799
 50
181.1843905101493988
 51
219.019858475198788
  0
ARC
  5
D3CE
  8
0
 10
4496.7894780775641266
 20
164.7924143108484998
 30
0.0
 40
0.0690145782770632
 50
219.2126135805694105
 51
246.9300998361476047
  0
ARC
  5
D3CF
  8
0
 10
4496.8042091074830751
 20
164.8240232845716093
 30
0.0
 40
0.1038746674475022
 50
246.2864660355471926
 51
270.3519537541786804
  0
ARC
  5
D3D0
  8
0
 10
4496.804334431533789
 20
164.7571284623510905
 30
0.0
 40
0.1037343167000057
 50
243.1970423043858887
 51
270.2832083979159279
  0
ARC
  5
D3D1
  8
0
 10
4496.7711290985425876
 20
164.7101442293879927
 30
0.0
 40
0.0450348159070893
 50
181.3628629569361124
 51
223.4909484560934061
  0
ARC
  5
D3D2
  8
0
 10
4496.7897893615527209
 20
164.726468212615913
 30
0.0
 40
0.0698145009813282
 50
222.6702633164387919
 51
242.5051494381891075
  0
ARC
  5
D3D3
  8
0
 10
4497.5175766833626767
 20
165.6691030297442069
 30
0.0
 40
0.7718885890882738
 50
246.5893345953163021
 51
271.1023002234584851
  0
ARC
  5
D3D4
  8
0
 10
4497.306748722347038
 20
165.2890238865196864
 30
0.0
 40
0.3300360520992471
 50
179.7777379641852065
 51
203.1621174167119079
  0
ARC
  5
D3D5
  8
0
 10
4497.3803822260251764
 20
165.345823548215094
 30
0.0
 40
0.4207190210341086
 50
206.331240279570892
 51
246.242837812455889
  0
ARC
  5
D3D6
  8
0
 10
4497.8547552659038047
 20
165.7767978521873999
 30
0.0
 40
0.3123837764421009
 50
237.9406254047283937
 51
263.0714591476581177
  0
ARC
  5
D3D7
  8
0
 10
4497.8032062244501503
 20
165.6903585753389905
 30
0.0
 40
0.2117758674554189
 50
200.2761653000387128
 51
237.3470184175710074
  0
LINE
  5
D3D8
  8
0
 10
4504.7261070222730268
 20
170.3213271270901998
 30
0.0
 11
4504.7261070222730268
 21
164.7090731121901115
 31
0.0
  0
ARC
  5
D3D9
  8
0
 10
4504.6488678031000745
 20
170.2782740086720992
 30
0.0
 40
0.0987422259377023
 50
58.875266103630139
 51
90.8709621718153358
  0
ARC
  5
D3DA
  8
0
 10
4504.6827492146439909
 20
170.320719049787499
 30
0.0
 40
0.0433620714484255
 50
0.803499553740682
 51
37.6667293121187612
  0
ARC
  5
D3DB
  8
0
 10
4504.6655801496499407
 20
170.3077474625023058
 30
0.0
 40
0.0648796341722959
 50
37.4694178911662306
 51
58.0553510244201618
  0
ARC
  5
D3DC
  8
0
 10
4503.9346373611815579
 20
169.4280523735361044
 30
0.0
 40
0.7718885890882738
 50
66.5893345953162594
 51
91.1023002234584993
  0
ARC
  5
D3DD
  8
0
 10
4504.1454653221981062
 20
169.8081315167605965
 30
0.0
 40
0.3300360520992471
 50
359.777737964185178
 51
23.1621174167119115
  0
ARC
  5
D3DE
  8
0
 10
4504.0718318185199678
 20
169.7513318550651888
 30
0.0
 40
0.4207190210341086
 50
26.3312402795708991
 51
66.242837812455889
  0
ARC
  5
D3DF
  8
0
 10
4503.5974587786413394
 20
169.5711361616928912
 30
0.0
 40
0.3123837764421009
 50
57.9406254047284719
 51
83.0714591476581035
  0
ARC
  5
D3E0
  8
0
 10
4503.6490078200959033
 20
169.6575754385411869
 30
0.0
 40
0.2117758674554189
 50
20.2761653000386701
 51
57.3470184175710074
  0
LINE
  5
D3E1
  8
0
 10
4504.4754988910717657
 20
169.8068512426901009
 30
0.0
 11
4504.4754988910717657
 21
165.2903041605900967
 31
0.0
  0
LINE
  5
D3E2
  8
0
 10
4503.8476606097729018
 20
169.7309654050901031
 30
0.0
 11
4503.8476606097729018
 21
165.6169686087901027
 31
0.0
  0
ARC
  5
D3E3
  8
0
 10
4504.6817018280999037
 20
164.7767463295531911
 30
0.0
 40
0.0444146832873799
 50
320.9801415248011836
 51
358.8156094898506012
  0
ARC
  5
D3E4
  8
0
 10
4504.662735966981927
 20
164.7924143108484998
 30
0.0
 40
0.0690145782770632
 50
293.0699001638524237
 51
320.7873864194306179
  0
ARC
  5
D3E5
  8
0
 10
4504.6480049370620691
 20
164.8240232845716093
 30
0.0
 40
0.1038746674475022
 50
269.6480462458213196
 51
293.7135339644527789
  0
ARC
  5
D3E6
  8
0
 10
4504.6478796130122646
 20
164.7571284623510905
 30
0.0
 40
0.1037343167000057
 50
269.7167916020840721
 51
296.8029576956141113
  0
ARC
  5
D3E7
  8
0
 10
4504.681084946001647
 20
164.7101442293879927
 30
0.0
 40
0.0450348159070893
 50
316.5090515439064802
 51
358.6371370430637739
  0
ARC
  5
D3E8
  8
0
 10
4504.6624246829933327
 20
164.726468212615913
 30
0.0
 40
0.0698145009813282
 50
297.4948505618108925
 51
317.3297366835611797
  0
ARC
  5
D3E9
  8
0
 10
4503.9346373611815579
 20
165.6691030297442069
 30
0.0
 40
0.7718885890882738
 50
268.8976997765414012
 51
293.4106654046836979
  0
ARC
  5
D3EA
  8
0
 10
4504.1454653221981062
 20
165.2890238865196864
 30
0.0
 40
0.3300360520992471
 50
336.8378825832880921
 51
0.2222620358147387
  0
ARC
  5
D3EB
  8
0
 10
4504.0718318185199678
 20
165.345823548215094
 30
0.0
 40
0.4207190210341086
 50
293.757162187544111
 51
333.6687597204290796
  0
ARC
  5
D3EC
  8
0
 10
4503.5974587786413394
 20
165.7767978521873999
 30
0.0
 40
0.3123837764421009
 50
276.9285408523418823
 51
302.0593745952714926
  0
ARC
  5
D3ED
  8
0
 10
4503.6490078200959033
 20
165.6903585753389905
 30
0.0
 40
0.2117758674554189
 50
302.6529815824289926
 51
339.7238346999614009
  0
ARC
  5
D3EE
  8
0
 10
4497.8547552659038047
 20
165.7767978521873999
 30
0.0
 40
0.3123837764421009
 50
237.9406254047283937
 51
263.0714591476581177
  0
ARC
  5
D3EF
  8
0
 10
4497.8032062244501503
 20
165.6903585753389905
 30
0.0
 40
0.2117758674554189
 50
200.2761653000387128
 51
237.3470184175710074
  0
LINE
  5
D3F0
  8
0
 10
4497.817071989872602
 20
165.4666952973902028
 30
0.0
 11
4503.6351420546734516
 21
165.4666952974779122
 31
0.0
  0
ARC
  5
D3F1
  8
0
 10
4503.5974587786413394
 20
165.7767978521873999
 30
0.0
 40
0.3123837764421009
 50
276.9285408523418823
 51
302.0593745952714926
  0
ARC
  5
D3F2
  8
0
 10
4503.6490078200959033
 20
165.6903585753389905
 30
0.0
 40
0.2117758674554189
 50
302.6529815824289926
 51
339.7238346999614009
  0
ARC
  5
D3F3
  8
0
 10
4497.5175766833626767
 20
165.6691030297440932
 30
0.0
 40
0.7718885890882738
 50
246.5893345953163021
 51
271.1023002234584851
  0
ARC
  5
D3F4
  8
0
 10
4497.306748722347038
 20
165.2890238865196864
 30
0.0
 40
0.3300360520992471
 50
179.7777379641852065
 51
203.1621174167119079
  0
ARC
  5
D3F5
  8
0
 10
4497.3803822260251764
 20
165.345823548215094
 30
0.0
 40
0.4207190210341086
 50
206.331240279570892
 51
246.242837812455889
  0
LINE
  5
D3F6
  8
0
 10
4497.5324259529734263
 20
164.8973572858901093
 30
0.0
 11
4503.9197880915498899
 21
164.8973572858901093
 31
0.0
  0
ARC
  5
D3F7
  8
0
 10
4503.9346373611815579
 20
165.6691030297440932
 30
0.0
 40
0.7718885890882738
 50
268.8976997765414012
 51
293.4106654046836979
  0
ARC
  5
D3F8
  8
0
 10
4504.1454653221981062
 20
165.2890238865196864
 30
0.0
 40
0.3300360520992471
 50
336.8378825832880921
 51
0.2222620358147387
  0
ARC
  5
D3F9
  8
0
 10
4504.0718318185199678
 20
165.345823548215094
 30
0.0
 40
0.4207190210341086
 50
293.757162187544111
 51
333.6687597204290796
  0
LINE
  5
D3FA
  8
0
 10
4496.804847179772878
 20
164.7201505768902052
 30
0.0
 11
4504.6473668647722661
 21
164.7201505768902052
 31
0.0
  0
LINE
  5
D3FB
  8
0
 10
4496.804847179772878
 20
164.6533954128902053
 30
0.0
 11
4504.6473668647722661
 21
164.6533954128902053
 31
0.0
  0
ENDSEC
  0
EOF
