  0
SECTION
  2
HEADER
  9
$ACADVER
  1
AC1009
  9
$INSBASE
 10
501.0694334226212732
 20
43.035724059153587
 30
0.0
  9
$EXTMIN
 10
499.7086309047609802
 20
36.9046862816889032
 30
-0.0000000349181948
  9
$EXTMAX
 10
504.0543909354428251
 20
44.3888438843732729
 30
0.0000000814935746
  9
$LIMMIN
 10
0.0
 20
0.0
  9
$LIMMAX
 10
11.6929133858000007
 20
8.2677165353999982
  9
$ORTHOMODE
 70
     0
  9
$REGENMODE
 70
     1
  9
$FILLMODE
 70
     1
  9
$QTEXTMODE
 70
     0
  9
$MIRRTEXT
 70
     0
  9
$DRAGMODE
 70
     2
  9
$LTSCALE
 40
0.6431102362
  9
$OSMODE
 70
  4095
  9
$ATTMODE
 70
     1
  9
$TEXTSIZE
 40
0.2
  9
$TRACEWID
 40
0.05
  9
$TEXTSTYLE
  7
STANDARD
  9
$CLAYER
  8
0
  9
$CELTYPE
  6
BYLAYER
  9
$CECOLOR
 62
   256
  9
$DIMSCALE
 40
1.0
  9
$DIMASZ
 40
0.1875
  9
$DIMEXO
 40
0.0625
  9
$DIMDLI
 40
0.4443307087
  9
$DIMRND
 40
0.0
  9
$DIMDLE
 40
0.0
  9
$DIMEXE
 40
0.125
  9
$DIMTP
 40
0.01
  9
$DIMTM
 40
0.01
  9
$DIMTXT
 40
1.0
  9
$DIMCEN
 40
0.1052362205
  9
$DIMTSZ
 40
0.0
  9
$DIMTOL
 70
     1
  9
$DIMLIM
 70
     0
  9
$DIMTIH
 70
     0
  9
$DIMTOH
 70
     1
  9
$DIMSE1
 70
     0
  9
$DIMSE2
 70
     0
  9
$DIMTAD
 70
     0
  9
$DIMZIN
 70
     0
  9
$DIMBLK
  1

  9
$DIMASO
 70
     1
  9
$DIMSHO
 70
     1
  9
$DIMPOST
  1
\X
  9
$DIMAPOST
  1

  9
$DIMALT
 70
     1
  9
$DIMALTD
 70
     2
  9
$DIMALTF
 40
25.3999999999999986
  9
$DIMLFAC
 40
1.0
  9
$DIMTOFL
 70
     0
  9
$DIMTVP
 40
0.0
  9
$DIMTIX
 70
     0
  9
$DIMSOXD
 70
     0
  9
$DIMSAH
 70
     0
  9
$DIMBLK1
  1

  9
$DIMBLK2
  1

  9
$DIMSTYLE
  2
STANDARD
  9
$DIMCLRD
 70
     0
  9
$DIMCLRE
 70
     0
  9
$DIMCLRT
 70
     0
  9
$DIMTFAC
 40
1.0
  9
$DIMGAP
 40
0.09
  9
$LUNITS
 70
     2
  9
$LUPREC
 70
     4
  9
$SKETCHINC
 40
0.1
  9
$FILLETRAD
 40
0.0
  9
$AUNITS
 70
     0
  9
$AUPREC
 70
     0
  9
$MENU
  1
.
  9
$ELEVATION
 40
0.0
  9
$PELEVATION
 40
0.0
  9
$THICKNESS
 40
0.0
  9
$LIMCHECK
 70
     0
  9
$BLIPMODE
 70
     0
  9
$CHAMFERA
 40
0.0
  9
$CHAMFERB
 40
0.0
  9
$SKPOLY
 70
     0
  9
$TDCREATE
 40
2458172.5207638889551163
  9
$TDUPDATE
 40
2459207.881018518935889
  9
$TDINDWG
 40
0.1534697222
  9
$TDUSRTIMER
 40
0.1534697222
  9
$USRTIMER
 70
     1
  9
$ANGBASE
 50
0.0
  9
$ANGDIR
 70
     0
  9
$PDMODE
 70
     0
  9
$PDSIZE
 40
0.3125
  9
$PLINEWID
 40
0.0
  9
$COORDS
 70
     1
  9
$SPLFRAME
 70
     0
  9
$SPLINETYPE
 70
     6
  9
$SPLINESEGS
 70
     8
  9
$ATTDIA
 70
     1
  9
$ATTREQ
 70
     1
  9
$HANDLING
 70
     1
  9
$HANDSEED
  5
AEC1
  9
$SURFTAB1
 70
     6
  9
$SURFTAB2
 70
     6
  9
$SURFTYPE
 70
     6
  9
$SURFU
 70
     6
  9
$SURFV
 70
     6
  9
$UCSNAME
  2

  9
$UCSORG
 10
0.0
 20
0.0
 30
0.0
  9
$UCSXDIR
 10
1.0
 20
0.0
 30
0.0
  9
$UCSYDIR
 10
0.0
 20
1.0
 30
0.0
  9
$PUCSNAME
  2

  9
$PUCSORG
 10
0.0
 20
0.0
 30
0.0
  9
$PUCSXDIR
 10
1.0
 20
0.0
 30
0.0
  9
$PUCSYDIR
 10
0.0
 20
1.0
 30
0.0
  9
$USERI1
 70
     0
  9
$USERI2
 70
     0
  9
$USERI3
 70
     0
  9
$USERI4
 70
     0
  9
$USERI5
 70
     0
  9
$USERR1
 40
0.0
  9
$USERR2
 40
0.0
  9
$USERR3
 40
0.0
  9
$USERR4
 40
0.0
  9
$USERR5
 40
0.0
  9
$WORLDVIEW
 70
     1
  9
$SHADEDGE
 70
     3
  9
$SHADEDIF
 70
    70
  9
$TILEMODE
 70
     1
  9
$MAXACTVP
 70
    64
  9
$PLIMCHECK
 70
     0
  9
$PEXTMIN
 10
1.0000000000000000E+20
 20
1.0000000000000000E+20
 30
1.0000000000000000E+20
  9
$PEXTMAX
 10
-1.0000000000000000E+20
 20
-1.0000000000000000E+20
 30
-1.0000000000000000E+20
  9
$PLIMMIN
 10
0.0
 20
0.0
  9
$PLIMMAX
 10
12.0
 20
9.0
  9
$UNITMODE
 70
     0
  9
$VISRETAIN
 70
     1
  9
$PLINEGEN
 70
     0
  9
$PSLTSCALE
 70
     1
  0
ENDSEC
  0
SECTION
  2
TABLES
  0
TABLE
  2
VPORT
 70
     1
  0
VPORT
  2
*ACTIVE
 70
     0
 10
0.0
 20
0.0
 11
1.0
 21
1.0
 12
128.0603744454926129
 22
-1.239683049232382
 13
0.0
 23
0.0
 14
1.0
 24
1.0
 15
0.0
 25
0.0
 16
0.0
 26
0.0
 36
25.5757211105568096
 17
373.821136474609375
 27
41.8864481322634603
 37
0.0
 40
7.5805201469249477
 41
2.9182795698924728
 42
50.0
 43
0.0
 44
0.0
 50
0.0
 51
0.0
 71
     0
 72
   100
 73
     1
 74
     1
 75
     0
 76
     0
 77
     0
 78
     0
  0
ENDTAB
  0
TABLE
  2
LTYPE
 70
     2
  0
LTYPE
  2
CONTINUOUS
 70
     0
  3
Solid line
 72
    65
 73
     0
 40
0.0
  0
LTYPE
  2
PHANTOM2
 70
     0
  3
___ _ _ ___ _ _ ___ _ _ ___ _ _
 72
    65
 73
     6
 40
1.25
 49
0.625
 49
-0.125
 49
0.125
 49
-0.125
 49
0.125
 49
-0.125
  0
ENDTAB
  0
TABLE
  2
LAYER
 70
     2
  0
LAYER
  2
0
 70
     0
 62
   255
  6
CONTINUOUS
  0
LAYER
  2
DEFPOINTS
 70
     0
 62
     7
  6
CONTINUOUS
  0
ENDTAB
  0
TABLE
  2
STYLE
 70
     1
  0
STYLE
  2
STANDARD
 70
     0
 40
0.0
 41
0.8
 50
0.0
 71
     0
 42
0.2
  3
txt
  4

  0
ENDTAB
  0
TABLE
  2
VIEW
 70
     0
  0
ENDTAB
  0
TABLE
  2
UCS
 70
     0
  0
ENDTAB
  0
TABLE
  2
APPID
 70
    10
  0
APPID
  2
ACAD
 70
     0
  0
APPID
  2
ACAD_MLEADERVER
 70
     0
  0
APPID
  2
ACAD_EXEMPT_FROM_CAD_STANDARDS
 70
     0
  0
APPID
  2
ACAD_DSTYLE_DIMJAG
 70
     0
  0
APPID
  2
ACAD_DSTYLE_DIMTALN
 70
     0
  0
APPID
  2
ACAD_NAV_VCDISPLAY
 70
     0
  0
APPID
  2
ACAECLAYERSTANDARD
 70
     0
  0
APPID
  2
ACCMTRANSPARENCY
 70
     0
  0
APPID
  2
DCO15
 70
     0
  0
APPID
  2
ACDBATTR
 70
     0
  0
ENDTAB
  0
TABLE
  2
DIMSTYLE
 70
     1
  0
DIMSTYLE
  2
STANDARD
 70
     0
  3

  4

  5

  6

  7

 40
1.0
 41
0.1875
 42
0.0625
 43
0.38
 44
0.125
 45
0.0
 46
0.0
 47
0.01
 48
0.01
140
0.15625
141
0.09
142
0.0
143
25.3999999999999986
144
1.0
145
0.0
146
1.0
147
0.09
 71
     1
 72
     0
 73
     1
 74
     1
 75
     0
 76
     0
 77
     0
 78
     4
170
     0
171
     2
172
     0
173
     0
174
     0
175
     0
176
     0
177
     0
178
     0
  0
ENDTAB
  0
ENDSEC
  0
SECTION
  2
BLOCKS
  0
BLOCK
  8
0
  2
$MODEL_SPACE
 70
     0
 10
0.0
 20
0.0
 30
0.0
  3
$MODEL_SPACE
  1

  0
ENDBLK
  5
21
  8
0
  0
BLOCK
 67
     1
  8
0
  2
$PAPER_SPACE
 70
     0
 10
0.0
 20
0.0
 30
0.0
  3
$PAPER_SPACE
  1

  0
ENDBLK
  5
1D
 67
     1
  8
0
  0
ENDSEC
  0
SECTION
  2
ENTITIES
  0
ATTDEF
  5
829
  8
DEFPOINTS
 10
501.0641203313252845
 20
43.0312211768915134
 30
0.0
 40
0.001
  1
K-72762BR-9M
  3

  2
MODELNUMBER
 70
     0
1001
ACDBATTR
1070
     0
1070
     1
  0
ATTDEF
  5
82A
  8
DEFPOINTS
 10
501.0641203313252845
 20
43.0295545102248482
 30
0.0
 40
0.001
  1
ARTIFACTS
  3

  2
TRADENAME
 70
     0
1001
ACDBATTR
1070
     0
1070
     1
  0
ATTDEF
  5
82B
  8
DEFPOINTS
 10
501.0641203313252845
 20
43.0278878435581902
 30
0.0
 40
0.001
  1
BATHROOM SINK FAUCET
  3

  2
PRODUCT
 70
     0
1001
ACDBATTR
1070
     0
1070
     1
  0
ARC
  5
AD21
  8
0
 10
501.0694334226212732
 20
43.035724059153587
 30
0.0
 40
1.3500000000000001
 50
288.7439136582970036
 51
326.1995335307177015
  0
CIRCLE
  5
AD22
  8
0
 10
501.0694334226212732
 20
43.035724059153587
 30
0.0
 40
0.4900000000000003
  0
CIRCLE
  5
AD23
  8
0
 10
501.0694334226212732
 20
43.035724059153587
 30
0.0
 40
0.2994191862999997
  0
CIRCLE
  5
AD24
  8
0
 10
501.0694334226212732
 20
43.035724059153587
 30
0.0
 40
0.113564588800036
  0
ARC
  5
AD25
  8
0
 10
501.0694334226212732
 20
43.035724059153587
 30
0.0
 40
1.0600241542999991
 50
301.2555522713537925
 51
320.7976519116913892
  0
ARC
  5
AD26
  8
0
 10
500.3794334224476756
 20
42.2913283310173824
 30
0.0
 40
0.1400000001736662
 50
359.9999997592561272
 51
47.1727043105348329
  0
LINE
  5
AD27
  8
0
 10
500.5194334226213755
 20
42.2913283304291312
 30
0.0
 11
500.5194334226213755
 21
42.2407240591535924
 31
0.0
  0
ARC
  5
AD28
  8
0
 10
500.549433422621405
 20
42.2407240591535924
 30
0.0
 40
0.0300000000000058
 50
180.0
 51
216.8698976458439915
  0
ARC
  5
AD29
  8
0
 10
500.5094334226213846
 20
42.2107240591535913
 30
0.0
 40
0.0199999999999982
 50
323.1301023541632276
 51
36.8698976458371916
  0
ARC
  5
AD2A
  8
0
 10
500.549433422621405
 20
42.1807240591535688
 30
0.0
 40
0.0300000000000211
 50
143.130102354160897
 51
180.0
  0
LINE
  5
AD2B
  8
0
 10
500.5194334226213755
 20
42.1807240591535688
 30
0.0
 11
500.5194334226213755
 21
42.0882558500535779
 31
0.0
  0
ARC
  5
AD2C
  8
0
 10
500.549433422621405
 20
42.0882558500535779
 30
0.0
 40
0.0299999999999985
 50
180.0
 51
258.7507343426455009
  0
ARC
  5
AD2D
  8
0
 10
500.5080470271798845
 20
41.8867425881970377
 30
0.0
 40
0.175719975644448
 50
13.6592715535368203
 51
78.3332014854627801
  0
ARC
  5
AD2E
  8
0
 10
500.369729547371378
 20
41.8321845625194584
 30
0.0
 40
0.3236497006762685
 50
1.0847317933008731
 51
17.2645075687403988
  0
ARC
  5
AD2F
  8
0
 10
500.6433979774213867
 20
41.8355426255535789
 30
0.0
 40
0.0500000000000094
 50
296.8490246750212123
 51
3.1746102646327761
  0
ARC
  5
AD30
  8
0
 10
500.6944334226143951
 20
41.7347240591465578
 30
0.0
 40
0.0629999999929756
 50
116.8490245863893051
 51
270.0000000063868129
  0
LINE
  5
AD31
  8
0
 10
500.6944431831213933
 20
41.6717240591535827
 30
0.0
 11
500.694432255392087
 21
37.6010140693374169
 31
0.0
  0
ARC
  5
AD32
  8
0
 10
501.6810910069698934
 20
43.845724061902942
 30
0.0
 40
0.1400000027493564
 50
232.9459083376391106
 51
269.9999998841882984
  0
LINE
  5
AD33
  8
0
 10
501.6810910066869269
 20
43.7057240591535816
 30
0.0
 11
501.9844519006213091
 21
43.7057240591535816
 31
0.0
  0
LINE
  5
AD34
  8
0
 10
501.6194334226213982
 20
42.2407240591535924
 30
0.0
 11
501.6194334226213982
 21
42.2875430129171122
 31
0.0
  0
ARC
  5
AD35
  8
0
 10
501.6960239690272942
 20
42.2891335360312226
 30
0.0
 40
0.0766070594824953
 50
88.8103083198012371
 51
181.1896659487302941
  0
LINE
  5
AD36
  8
0
 10
501.6976145265380751
 20
42.3657240817228029
 30
0.0
 11
501.9844519006213091
 21
42.3657240609128607
 31
0.0
  0
LINE
  5
AD37
  8
0
 10
500.6659800328941969
 20
41.7909326404535832
 30
0.0
 11
501.4728883237694959
 21
41.7909318753304504
 31
0.0
  0
LINE
  5
AD38
  8
0
 10
500.5432152509544039
 20
42.0589073519468712
 30
0.0
 11
501.5956515943200884
 21
42.0589073519535788
 31
0.0
  0
LINE
  5
AD39
  8
0
 10
500.5254334267243053
 20
42.1987240646242228
 30
0.0
 11
501.6134334176610992
 21
42.1987240657672587
 31
0.0
  0
LINE
  5
AD3A
  8
0
 10
502.5523078287213821
 20
42.2774453643535821
 30
0.0
 11
502.5523078287213821
 21
43.7940027540535795
 31
0.0
  0
ARC
  5
AD3B
  8
0
 10
502.5912228572178719
 20
43.7906689758735865
 30
0.0
 40
0.0390575667423867
 50
137.154830322952904
 51
175.1035321246122862
  0
ARC
  5
AD3C
  8
0
 10
502.6045998380245123
 20
43.7787460294689765
 30
0.0
 40
0.0569780333439447
 50
25.172340954867451
 51
137.4681429042877028
  0
ARC
  5
AD3D
  8
0
 10
502.6803731098381149
 20
43.8110533114180001
 30
0.0
 40
0.0255158497857688
 50
198.4427263367551006
 51
276.6308954120733006
  0
LINE
  5
AD3E
  8
0
 10
502.6833194961213849
 20
43.7857081462348887
 30
0.0
 11
502.8386918782214252
 21
43.7856766223567675
 31
0.0
  0
ARC
  5
AD3F
  8
0
 10
502.8410776655877044
 20
43.758491373672598
 30
0.0
 40
0.0272898040506233
 50
4.6030787045322974
 51
95.0164003728547044
  0
ARC
  5
AD40
  8
0
 10
503.7051380178497766
 20
43.9132916470851526
 30
0.0
 40
0.8506787785127009
 50
190.3349932031458138
 51
204.3418635835056989
  0
ARC
  5
AD41
  8
0
 10
503.4355748230415202
 20
43.766879189175782
 30
0.0
 40
0.5451865825454081
 50
201.9988641567856007
 51
229.5851476953056931
  0
ARC
  5
AD42
  8
0
 10
503.256265582461026
 20
43.5756223000580434
 30
0.0
 40
0.2835967347278884
 50
232.1165460714209132
 51
257.8787907098313781
  0
ARC
  5
AD43
  8
0
 10
503.2016731428212779
 20
43.3279357690535889
 30
0.0
 40
0.0300000000000075
 50
260.488533929220921
 51
328.1534326009987126
  0
ARC
  5
AD44
  8
0
 10
503.2696302730323055
 20
43.2857240591644512
 30
0.0
 40
0.0499999999891363
 50
359.9999882992065068
 51
148.1534461181616109
  0
ARC
  5
AD45
  8
0
 10
502.6059160596335005
 20
42.291004246270667
 30
0.0
 40
0.0552963443671528
 50
194.1938867036109002
 51
339.4429604527118727
  0
ARC
  5
AD46
  8
0
 10
502.6798039803683764
 20
42.2617983630032867
 30
0.0
 40
0.0241825926502039
 50
81.6410734118224468
 51
156.1213314452450902
  0
LINE
  5
AD47
  8
0
 10
502.6833194961213849
 20
42.2857240591535799
 30
0.0
 11
502.8386914208214193
 21
42.2857714684535893
 31
0.0
  0
ARC
  5
AD48
  8
0
 10
502.8415468475254215
 20
42.3124014328508906
 30
0.0
 40
0.0267825388835903
 50
263.880748915692493
 51
356.5005833755873823
  0
ARC
  5
AD49
  8
0
 10
503.7655006260976052
 20
42.1361931651892831
 30
0.0
 40
0.9140469083505383
 50
155.9672110581755078
 51
168.9894549581869967
  0
ARC
  5
AD4A
  8
0
 10
503.4364174144915864
 20
42.3048096372421085
 30
0.0
 40
0.5451865825454081
 50
130.4808914729952107
 51
158.0671750115151042
  0
ARC
  5
AD4B
  8
0
 10
503.2568878501983249
 20
42.4958597273682486
 30
0.0
 40
0.2835967347278884
 50
102.1872484584708047
 51
127.9494930968780011
  0
ARC
  5
AD4C
  8
0
 10
503.2020099631607195
 20
42.7434831705659875
 30
0.0
 40
0.0300000000000075
 50
31.9126065673007808
 51
99.577505239079656
  0
ARC
  5
AD4D
  8
0
 10
503.2699183949865187
 20
42.7857731798498406
 30
0.0
 40
0.0499999999891363
 50
211.9125930501392929
 51
0.0660508690940831
  0
LINE
  5
AD4E
  8
0
 10
503.3196302730214029
 20
43.2857240489535826
 30
0.0
 11
503.3199183617516042
 21
42.7858308200940272
 31
0.0
  0
LINE
  5
AD4F
  8
0
 10
503.2271570604841031
 20
43.3121063679100828
 30
0.0
 11
503.2271570666213734
 21
42.7598423633191516
 31
0.0
  0
LINE
  5
AD50
  8
0
 10
502.8682794482214149
 20
43.7605758369953719
 30
0.0
 11
502.8682794482214149
 21
42.3107666701533418
 31
0.0
  0
LINE
  5
AD51
  8
0
 10
502.6591244843431241
 20
43.7969269352065211
 30
0.0
 11
502.6561668095213804
 21
42.268466912853583
 31
0.0
  0
ARC
  5
AD52
  8
0
 10
503.6586302730214015
 20
43.0355627478535894
 30
0.0
 40
0.3751550482115913
 50
212.1869091838127872
 51
323.17864226860911
  0
ARC
  5
AD53
  8
0
 10
503.6586302730214015
 20
43.0355627478535894
 30
0.0
 40
0.3751550482115913
 50
36.8829343412315325
 51
147.754851849236104
  0
CIRCLE
  5
AD54
  8
0
 10
503.6586302730214015
 20
43.0359144899535835
 30
0.0
 40
0.2153158436000029
  0
ARC
  5
AD55
  8
0
 10
503.6586431561314043
 20
43.0382587694011178
 30
0.0
 40
0.3515501535049956
 50
217.5749533144814052
 51
317.7684590745507762
  0
ARC
  5
AD56
  8
0
 10
503.6588141095260198
 20
43.0334887528126728
 30
0.0
 40
0.3513620173134331
 50
42.2393515345538475
 51
142.5114321917880034
  0
LINE
  5
AD57
  8
0
 10
503.3196590880417034
 20
43.2357240591535827
 30
0.0
 11
503.3561406113212797
 21
43.2357281843535901
 31
0.0
  0
ARC
  5
AD58
  8
0
 10
503.3576610230260258
 20
43.2629708086624589
 30
0.0
 40
0.0272850184347651
 50
266.8056345846031263
 51
325.0205250130925947
  0
LINE
  5
AD59
  8
0
 10
503.3198896082516853
 20
42.8357240591535913
 30
0.0
 11
503.3561406058213947
 21
42.8357190955535785
 31
0.0
  0
ARC
  5
AD5A
  8
0
 10
503.3578380257105209
 20
42.8091474305375499
 30
0.0
 40
0.0266307796144719
 50
33.5980454905539005
 51
93.654454363732853
  0
ARC
  5
AD5B
  8
0
 10
503.8987210925491809
 20
43.2502321866086135
 30
0.0
 40
0.0279154597202756
 50
358.7847176206288964
 51
43.5825055745429282
  0
ARC
  5
AD5C
  8
0
 10
503.8987202705569075
 20
42.8212165851359003
 30
0.0
 40
0.0279162655671266
 50
316.4198155584238066
 51
1.213701400213212
  0
LINE
  5
AD5D
  8
0
 10
503.9266302730213738
 20
43.24964012515359
 30
0.0
 11
503.9266302730213738
 21
42.8218078935536823
 31
0.0
  0
ARC
  5
AD5E
  8
0
 10
503.9366302730222174
 20
43.2507240591515725
 30
0.0
 40
0.0100000000020108
 50
90.0000000047745914
 51
179.5214902358937081
  0
LINE
  5
AD5F
  8
0
 10
503.9366302730214215
 20
43.2607240591535884
 30
0.0
 11
503.9819579951213768
 21
43.2607240591535884
 31
0.0
  0
ARC
  5
AD60
  8
0
 10
503.9819579993356911
 20
43.248224074913928
 30
0.0
 40
0.0124999842396505
 50
30.1151523613539709
 51
90.0000193171205467
  0
ARC
  5
AD61
  8
0
 10
503.6114402381978721
 20
43.0342600849023285
 30
0.0
 40
0.4403597524214236
 50
8.5095652462020297
 51
30.0083912128522208
  0
ARC
  5
AD62
  8
0
 10
503.8378127524491106
 20
43.0684852485330225
 30
0.0
 40
0.2114573880063009
 50
351.0872269975437234
 51
359.4127258506213138
  0
ARC
  5
AD63
  8
0
 10
503.1824230066602013
 20
43.0225243671649267
 30
0.0
 40
0.8679415691813716
 50
2.8921867945155189
 51
5.0837857784862832
  0
ARC
  5
AD64
  8
0
 10
503.9366653203093165
 20
42.8208086707915072
 30
0.0
 40
0.0100846725380685
 50
174.3136139999425893
 51
269.8008794318158721
  0
LINE
  5
AD65
  8
0
 10
503.936630273023809
 20
42.8107240591535927
 30
0.0
 11
503.9819579951213768
 21
42.8107240591535927
 31
0.0
  0
ARC
  5
AD66
  8
0
 10
503.9819579951213768
 20
42.8232240591535671
 30
0.0
 40
0.0124999999999922
 50
269.9999999999869829
 51
329.8827646299486105
  0
ARC
  5
AD67
  8
0
 10
503.615630273877116
 20
43.0357240589046199
 30
0.0
 40
0.4359999991100386
 50
329.8827658959663722
 51
346.8142242098637098
  0
ARC
  5
AD68
  8
0
 10
503.7979065813955231
 20
43.0022376434437916
 30
0.0
 40
0.2510535713871257
 50
344.7505268294910934
 51
7.6651501176212609
  0
ARC
  5
AD69
  8
0
 10
500.5340484990433083
 20
42.3550626980990899
 30
0.0
 40
3.5780076719170841
 50
10.9664830987864708
 51
11.3745441506245193
  0
ARC
  5
AD6A
  8
0
 10
503.8101558423747974
 20
42.9977383626436591
 30
0.0
 40
0.2400353799624215
 50
15.2125563489436999
 51
28.5894682322424991
  0
ARC
  5
AD6B
  8
0
 10
503.1428142213645174
 20
42.5922550229540633
 30
0.0
 40
1.020704794613154
 50
30.6500048565047187
 51
32.4766599492835084
  0
ARC
  5
AD6C
  8
0
 10
504.0238308010768264
 20
43.1528378472198284
 30
0.0
 40
0.0235386354710949
 50
189.0049211084538001
 51
212.1024824001547131
  0
ARC
  5
AD6D
  8
0
 10
504.034046150022391
 20
43.1541380407501123
 30
0.0
 40
0.0338330485222336
 50
179.3651055027295911
 51
188.4719214962373997
  0
LINE
  5
AD6E
  8
0
 10
504.0002151786341074
 20
43.1545129370675511
 30
0.0
 11
504.0002151794677161
 21
43.2038227954596223
 31
0.0
  0
ARC
  5
AD6F
  8
0
 10
504.0045250063840854
 20
43.2042779123275835
 30
0.0
 40
0.0043337904231743
 50
151.7172065973649921
 51
186.0280821821368988
  0
ARC
  5
AD70
  8
0
 10
504.0013989062289284
 20
43.2058627688571306
 30
0.0
 40
0.0008343414637584
 50
50.5332002946705714
 51
145.8309709614964049
  0
ARC
  5
AD71
  8
0
 10
503.999602910128317
 20
43.2031080423098075
 30
0.0
 40
0.0041187218583191
 50
33.8427865766882405
 51
55.6103267457141683
  0
ARC
  5
AD72
  8
0
 10
503.7949238889303842
 20
43.0556606154537107
 30
0.0
 40
0.2563747244902407
 50
19.2318013214340908
 51
35.7374335632926687
  0
ARC
  5
AD73
  8
0
 10
503.7301234437463791
 20
43.0372080440577491
 30
0.0
 40
0.3236607644759646
 50
13.7920368204247801
 51
18.5375191661091989
  0
LINE
  5
AD74
  8
0
 10
503.992770501621294
 20
43.2544961961535819
 30
0.0
 11
503.992770501621294
 21
42.8169519221025112
 31
0.0
  0
LINE
  5
AD75
  8
0
 10
500.6944334226143951
 20
41.6717240591535827
 30
0.0
 11
501.4444334226283786
 21
41.6717240591535827
 31
0.0
  0
ARC
  5
AD76
  8
0
 10
501.0108520338825997
 20
37.4427767436495813
 30
0.0
 40
0.52804035284416
 50
126.8149665702639055
 51
180.0355813678401944
  0
ARC
  5
AD77
  8
0
 10
501.0304377246094987
 20
37.4640992159456019
 30
0.0
 40
0.5480537487670861
 50
182.2640095808581862
 51
254.237464207792101
  0
ARC
  5
AD78
  8
0
 10
501.0841718052918736
 20
37.6181070501601411
 30
0.0
 40
0.7109357778505503
 50
253.4414251970642908
 51
268.8121182691683089
  0
ARC
  5
AD79
  8
0
 10
501.0499454652364761
 20
37.5876885969849894
 30
0.0
 40
0.3557628572340296
 50
177.853424134469293
 51
214.7725758948378996
  0
ARC
  5
AD7A
  8
0
 10
501.0810592702960093
 20
37.6440346710559695
 30
0.0
 40
0.4144395441133934
 50
218.7211951644937074
 51
248.1245331821156128
  0
ARC
  5
AD7B
  8
0
 10
501.0670391765930844
 20
37.6505576714502723
 30
0.0
 40
0.4155560813627438
 50
250.253987425478897
 51
270.3301141714835012
  0
ARC
  5
AD7C
  8
0
 10
501.0108836661016198
 20
37.5208888343697424
 30
0.0
 40
0.3779620310362068
 50
146.8515100336022101
 51
170.4061425614225982
  0
ARC
  5
AD7D
  8
0
 10
501.017978200779794
 20
37.5228242324126171
 30
0.0
 40
0.3846471991340677
 50
170.8665318932260959
 51
192.9264252301094018
  0
ARC
  5
AD7E
  8
0
 10
501.0317189865032788
 20
37.5444744654308877
 30
0.0
 40
0.4032860590834972
 50
195.4885253279788913
 51
234.8389375542865025
  0
ARC
  5
AD7F
  8
0
 10
501.0605623367293902
 20
37.5791414213695987
 30
0.0
 40
0.4482523669749982
 50
234.3766584059609102
 51
258.6561783805759092
  0
ARC
  5
AD80
  8
0
 10
501.0710526682823911
 20
37.633559141205069
 30
0.0
 40
0.5036705907332465
 50
258.7037689754138796
 51
269.8158000409399051
  0
LINE
  5
AD81
  8
0
 10
501.4444236621213804
 20
41.6717240591535827
 30
0.0
 11
501.4444345898506867
 21
37.6010140693374169
 31
0.0
  0
ARC
  5
AD82
  8
0
 10
501.1280148113601172
 20
37.4427767436495813
 30
0.0
 40
0.52804035284416
 50
359.9644186321597203
 51
53.1850334297360732
  0
ARC
  5
AD83
  8
0
 10
501.1084291206332182
 20
37.4640992159456019
 30
0.0
 40
0.5480537487670861
 50
285.7625357922079274
 51
357.7359904191416717
  0
ARC
  5
AD84
  8
0
 10
501.0546950399509001
 20
37.6181070501601695
 30
0.0
 40
0.7109357778505756
 50
271.1878817308316911
 51
286.5585748029355955
  0
ARC
  5
AD85
  8
0
 10
501.0889213800061839
 20
37.5876885969849894
 30
0.0
 40
0.3557628572340296
 50
325.227424105162072
 51
2.1465758655307061
  0
ARC
  5
AD86
  8
0
 10
501.0578075749465938
 20
37.6440346710559695
 30
0.0
 40
0.4144395441133934
 50
291.8754668178845009
 51
321.2788048355063211
  0
ARC
  5
AD87
  8
0
 10
501.0718276686495756
 20
37.6505576714502723
 30
0.0
 40
0.4155560813627438
 50
269.6698858285166125
 51
289.7460125745209893
  0
ARC
  5
AD88
  8
0
 10
501.127983179141097
 20
37.5208888343697424
 30
0.0
 40
0.3779620310362068
 50
9.5938574385773467
 51
33.1484899663977615
  0
ARC
  5
AD89
  8
0
 10
501.1208886444628092
 20
37.5228242324126171
 30
0.0
 40
0.3846471991340677
 50
347.073574769890115
 51
9.1334681067738188
  0
ARC
  5
AD8A
  8
0
 10
501.1071478587393813
 20
37.5444744654308877
 30
0.0
 40
0.4032860590834972
 50
305.1610624457131848
 51
344.5114746720211087
  0
ARC
  5
AD8B
  8
0
 10
501.0783045085133267
 20
37.5791414213695987
 30
0.0
 40
0.4482523669749982
 50
281.3438216194239772
 51
305.6233415940391183
  0
ARC
  5
AD8C
  8
0
 10
501.0678141769602121
 20
37.633559141205069
 30
0.0
 40
0.5036705907332465
 50
270.1841999590600949
 51
281.2962310245861204
  0
ARC
  5
AD8D
  8
0
 10
501.5894334226214255
 20
42.2407240591535924
 30
0.0
 40
0.0300000000000058
 50
323.1301023541557242
 51
0.0
  0
ARC
  5
AD8E
  8
0
 10
501.6294334226213891
 20
42.2107240591535913
 30
0.0
 40
0.0199999999999982
 50
143.1301023541628012
 51
216.8698976458364882
  0
ARC
  5
AD8F
  8
0
 10
501.5894334226214255
 20
42.1807240591535688
 30
0.0
 40
0.0300000000000211
 50
0.0
 51
36.8698976458391385
  0
LINE
  5
AD90
  8
0
 10
501.6194334226213982
 20
42.1807240591535688
 30
0.0
 11
501.6194334226213982
 21
42.0882558500535779
 31
0.0
  0
ARC
  5
AD91
  8
0
 10
501.5894334226214255
 20
42.0882558500535779
 30
0.0
 40
0.0299999999999985
 50
281.2492656573543854
 51
0.0
  0
ARC
  5
AD92
  8
0
 10
501.6308198180627755
 20
41.8867425881970377
 30
0.0
 40
0.175719975644448
 50
101.6667985145372057
 51
166.3407284464630891
  0
ARC
  5
AD93
  8
0
 10
501.769137297871282
 20
41.8321845625194584
 30
0.0
 40
0.3236497006762685
 50
162.735492431259587
 51
178.9152682066994942
  0
ARC
  5
AD94
  8
0
 10
501.495468867821387
 20
41.8355426255535789
 30
0.0
 40
0.0500000000000094
 50
176.8253897353675939
 51
243.1509753249787877
  0
ARC
  5
AD95
  8
0
 10
501.4444334226283786
 20
41.7347240591465578
 30
0.0
 40
0.0629999999929756
 50
269.9999999936133008
 51
63.1509754136107091
  0
ARC
  5
AD96
  8
0
 10
501.999451898758025
 20
43.7272207624167422
 30
0.0
 40
0.0149999981366875
 50
149.9211980831528024
 51
180.0
  0
LINE
  5
AD97
  8
0
 10
501.9864718467434272
 20
43.7347386207421209
 30
0.0
 11
502.0066548745137993
 21
43.7743928651567984
 31
0.0
  0
ARC
  5
AD98
  8
0
 10
502.0174719910236263
 20
43.7703742172453332
 30
0.0
 40
0.0115394774849592
 50
100.5290614936928932
 51
159.6195536337125986
  0
LINE
  5
AD99
  8
0
 10
502.015363333521293
 20
43.781719397021881
 30
0.0
 11
502.0201426237214264
 21
43.7897096181219467
 31
0.0
  0
LINE
  5
AD9A
  8
0
 10
502.0201426237214264
 20
43.7897096181219467
 30
0.0
 11
502.2331590490956046
 21
43.7859914026068893
 31
0.0
  0
ARC
  5
AD9B
  8
0
 10
502.2326354732526283
 20
43.7559957624849005
 30
0.0
 40
0.0300002092962027
 50
33.5711410401157835
 51
89.0000000055422902
  0
ARC
  5
AD9C
  8
0
 10
502.3528003148961716
 20
43.8220379748891702
 30
0.0
 40
0.1072516377800103
 50
207.4580182134141069
 51
276.2780215997472055
  0
LINE
  5
AD9D
  8
0
 10
502.3645286058301167
 20
43.7154295277648188
 30
0.0
 11
502.5523078287213821
 21
43.7121746463845113
 31
0.0
  0
LINE
  5
AD9E
  8
0
 10
501.9844519006213091
 20
43.7272207624167422
 30
0.0
 11
501.9844519006213091
 21
42.3442178998219632
 31
0.0
  0
ARC
  5
AD9F
  8
0
 10
501.9994519006214091
 20
42.3442178998219632
 30
0.0
 40
0.0149999999999828
 50
180.0
 51
210.0788097904788003
  0
LINE
  5
ADA0
  8
0
 10
501.9864718480275201
 20
42.336700038779
 30
0.0
 11
502.0074386869782188
 21
42.2955058153049421
 31
0.0
  0
ARC
  5
ADA1
  8
0
 10
502.0165251645003082
 20
42.2996328247154096
 30
0.0
 40
0.009979793606745
 50
204.4271897771311046
 51
263.3085148620783116
  0
LINE
  5
ADA2
  8
0
 10
502.0153622876291024
 20
42.2897210136892809
 30
0.0
 11
502.0201426237285887
 21
42.2817290439098628
 31
0.0
  0
LINE
  5
ADA3
  8
0
 10
502.0201426237285887
 20
42.2817290439098628
 30
0.0
 11
502.2296382868715909
 21
42.2853858043068627
 31
0.0
  0
ARC
  5
ADA4
  8
0
 10
502.2308166059556811
 20
42.3187631419027923
 30
0.0
 40
0.0333981302000147
 50
267.9781285975151945
 51
337.3580267034644748
  0
ARC
  5
ADA5
  8
0
 10
502.3527575333005757
 20
42.2494418293478304
 30
0.0
 40
0.1071935653368719
 50
83.7887064035919451
 51
148.2140157968445067
  0
LINE
  5
ADA6
  8
0
 10
502.3643553744547035
 20
42.3560061316736807
 30
0.0
 11
502.5523078287213821
 21
42.3592640156776099
 31
0.0
  0
LINE
  5
ADA7
  8
0
 10
502.2576306861915896
 20
43.7725864794059518
 30
0.0
 11
502.2585737988134724
 21
42.3001896838104017
 31
0.0
  0
ARC
  5
ADA8
  8
0
 10
502.6487129033524184
 20
42.5030216749599319
 30
0.0
 40
0.6285696603369944
 50
160.302199618158113
 51
200.5452614409776118
  0
ARC
  5
ADA9
  8
0
 10
502.02730278143531
 20
42.7254917965599432
 30
0.0
 40
0.0314632893145283
 50
340.3021996181589088
 51
19.6977971401716587
  0
ARC
  5
ADAA
  8
0
 10
503.2588708557261725
 20
43.0357193310219728
 30
0.0
 40
1.2387282321048381
 50
166.0025233507720941
 51
193.9974766492287017
  0
ARC
  5
ADAB
  8
0
 10
502.0266922238228062
 20
43.346165450275727
 30
0.0
 40
0.0321117952199946
 50
340.3022028598286965
 51
18.8693045661345415
  0
ARC
  5
ADAC
  8
0
 10
502.6474855011758223
 20
43.5686301194233607
 30
0.0
 40
0.6273422794362351
 50
159.4335181736879861
 51
199.7587272309469029
  0
ARC
  5
ADAD
  8
0
 10
501.6000079772903177
 20
42.5030216749599319
 30
0.0
 40
0.6285696603369944
 50
339.6743075581571816
 51
19.6978003818419083
  0
ARC
  5
ADAE
  8
0
 10
502.2214180992074262
 20
42.7254917965599432
 30
0.0
 40
0.0314632893145283
 50
160.3022028598282986
 51
199.6978003818410912
  0
ARC
  5
ADAF
  8
0
 10
500.9898500249165068
 20
43.0357193310219728
 30
0.0
 40
1.2387282321048381
 50
346.0025233507712983
 51
13.9974766492275098
  0
ARC
  5
ADB0
  8
0
 10
502.2220286568199867
 20
43.346165450275727
 30
0.0
 40
0.0321117952199946
 50
161.1306954338654123
 51
199.6977971401709055
  0
ARC
  5
ADB1
  8
0
 10
501.6012353794670275
 20
43.5686301194233607
 30
0.0
 40
0.6273422794362351
 50
340.2412727690527277
 51
20.3464635395237714
  0
LINE
  5
ADB2
  8
0
 10
502.0588031797670965
 20
43.3459332852512986
 30
0.0
 11
502.1899177008756965
 21
43.3459332852512986
 31
0.0
  0
LINE
  5
ADB3
  8
0
 10
502.0587660707499253
 20
42.7254917956698819
 30
0.0
 11
502.1899548098928108
 21
42.7254917956698819
 31
0.0
  0
ARC
  5
ADB4
  8
0
 10
501.0694334226212732
 20
43.035724059153587
 30
0.0
 40
1.3500000397242631
 50
33.7999766211227595
 51
251.2560862746780117
  0
ARC
  5
ADB5
  8
0
 10
501.0694334226212732
 20
43.035724059153587
 30
0.0
 40
0.8750000000000023
 50
52.941779253931287
 51
227.1716005256446067
  0
ARC
  5
ADB6
  8
0
 10
501.0694334226212732
 20
43.035724059153587
 30
0.0
 40
1.048999999911072
 50
39.6952125853765665
 51
238.3782719273119994
  0
ENDSEC
  0
EOF
