  0
SECTION
  2
HEADER
  9
$ACADVER
  1
AC1009
  9
$INSBASE
 10
3783.5346366207368192
 20
-325.9111428847717775
 30
0.0
  9
$EXTMIN
 10
3778.9971734874361573
 20
-327.1986060180718141
 30
0.0
  9
$EXTMAX
 10
3788.0720997540379358
 20
-324.6236797514717978
 30
0.0
  9
$LIMMIN
 10
0.0
 20
0.0
  9
$LIMMAX
 10
11.6929133858000007
 20
8.2677165353999982
  9
$ORTHOMODE
 70
     0
  9
$REGENMODE
 70
     1
  9
$FILLMODE
 70
     1
  9
$QTEXTMODE
 70
     0
  9
$MIRRTEXT
 70
     0
  9
$DRAGMODE
 70
     2
  9
$LTSCALE
 40
0.6431102362
  9
$OSMODE
 70
  4095
  9
$ATTMODE
 70
     1
  9
$TEXTSIZE
 40
0.2
  9
$TRACEWID
 40
0.05
  9
$TEXTSTYLE
  7
STANDARD
  9
$CLAYER
  8
0
  9
$CELTYPE
  6
BYLAYER
  9
$CECOLOR
 62
   256
  9
$DIMSCALE
 40
1.0
  9
$DIMASZ
 40
0.1875
  9
$DIMEXO
 40
0.0625
  9
$DIMDLI
 40
0.4443307087
  9
$DIMRND
 40
0.0
  9
$DIMDLE
 40
0.0
  9
$DIMEXE
 40
0.125
  9
$DIMTP
 40
0.01
  9
$DIMTM
 40
0.01
  9
$DIMTXT
 40
2.0
  9
$DIMCEN
 40
0.1052362205
  9
$DIMTSZ
 40
0.0
  9
$DIMTOL
 70
     1
  9
$DIMLIM
 70
     0
  9
$DIMTIH
 70
     1
  9
$DIMTOH
 70
     1
  9
$DIMSE1
 70
     0
  9
$DIMSE2
 70
     0
  9
$DIMTAD
 70
     0
  9
$DIMZIN
 70
     0
  9
$DIMBLK
  1

  9
$DIMASO
 70
     1
  9
$DIMSHO
 70
     1
  9
$DIMPOST
  1
\X
  9
$DIMAPOST
  1

  9
$DIMALT
 70
     1
  9
$DIMALTD
 70
     2
  9
$DIMALTF
 40
25.3999999999999986
  9
$DIMLFAC
 40
1.0
  9
$DIMTOFL
 70
     0
  9
$DIMTVP
 40
0.0
  9
$DIMTIX
 70
     0
  9
$DIMSOXD
 70
     0
  9
$DIMSAH
 70
     0
  9
$DIMBLK1
  1

  9
$DIMBLK2
  1

  9
$DIMSTYLE
  2
STANDARD
  9
$DIMCLRD
 70
     0
  9
$DIMCLRE
 70
     0
  9
$DIMCLRT
 70
     0
  9
$DIMTFAC
 40
1.0
  9
$DIMGAP
 40
0.09
  9
$LUNITS
 70
     2
  9
$LUPREC
 70
     4
  9
$SKETCHINC
 40
0.1
  9
$FILLETRAD
 40
0.0
  9
$AUNITS
 70
     0
  9
$AUPREC
 70
     0
  9
$MENU
  1
.
  9
$ELEVATION
 40
0.0
  9
$PELEVATION
 40
0.0
  9
$THICKNESS
 40
0.0
  9
$LIMCHECK
 70
     0
  9
$BLIPMODE
 70
     0
  9
$CHAMFERA
 40
0.0
  9
$CHAMFERB
 40
0.0
  9
$SKPOLY
 70
     0
  9
$TDCREATE
 40
2458060.468368056230247
  9
$TDUPDATE
 40
2459149.8762037041597068
  9
$TDINDWG
 40
0.4585487269
  9
$TDUSRTIMER
 40
0.4585487269
  9
$USRTIMER
 70
     1
  9
$ANGBASE
 50
0.0
  9
$ANGDIR
 70
     0
  9
$PDMODE
 70
     0
  9
$PDSIZE
 40
0.3125
  9
$PLINEWID
 40
0.0
  9
$COORDS
 70
     1
  9
$SPLFRAME
 70
     0
  9
$SPLINETYPE
 70
     6
  9
$SPLINESEGS
 70
     8
  9
$ATTDIA
 70
     1
  9
$ATTREQ
 70
     1
  9
$HANDLING
 70
     1
  9
$HANDSEED
  5
C90B
  9
$SURFTAB1
 70
     6
  9
$SURFTAB2
 70
     6
  9
$SURFTYPE
 70
     6
  9
$SURFU
 70
     6
  9
$SURFV
 70
     6
  9
$UCSNAME
  2

  9
$UCSORG
 10
0.0
 20
0.0
 30
0.0
  9
$UCSXDIR
 10
1.0
 20
0.0
 30
0.0
  9
$UCSYDIR
 10
0.0
 20
1.0
 30
0.0
  9
$PUCSNAME
  2

  9
$PUCSORG
 10
0.0
 20
0.0
 30
0.0
  9
$PUCSXDIR
 10
1.0
 20
0.0
 30
0.0
  9
$PUCSYDIR
 10
0.0
 20
1.0
 30
0.0
  9
$USERI1
 70
     0
  9
$USERI2
 70
     0
  9
$USERI3
 70
     0
  9
$USERI4
 70
     0
  9
$USERI5
 70
     0
  9
$USERR1
 40
0.0
  9
$USERR2
 40
0.0
  9
$USERR3
 40
0.0
  9
$USERR4
 40
0.0
  9
$USERR5
 40
0.0
  9
$WORLDVIEW
 70
     1
  9
$SHADEDGE
 70
     3
  9
$SHADEDIF
 70
    70
  9
$TILEMODE
 70
     1
  9
$MAXACTVP
 70
    64
  9
$PLIMCHECK
 70
     0
  9
$PEXTMIN
 10
1.0000000000000000E+20
 20
1.0000000000000000E+20
 30
1.0000000000000000E+20
  9
$PEXTMAX
 10
-1.0000000000000000E+20
 20
-1.0000000000000000E+20
 30
-1.0000000000000000E+20
  9
$PLIMMIN
 10
0.0
 20
0.0
  9
$PLIMMAX
 10
12.0
 20
9.0
  9
$UNITMODE
 70
     0
  9
$VISRETAIN
 70
     1
  9
$PLINEGEN
 70
     0
  9
$PSLTSCALE
 70
     1
  0
ENDSEC
  0
SECTION
  2
TABLES
  0
TABLE
  2
VPORT
 70
     1
  0
VPORT
  2
*ACTIVE
 70
     0
 10
0.0
 20
0.0
 11
1.0
 21
1.0
 12
0.0
 22
0.0
 13
0.0
 23
0.0
 14
1.0
 24
1.0
 15
0.0
 25
0.0
 16
0.0
 26
0.0
 36
34.6512983430179915
 17
3783.5345458984379547
 27
-325.9111480712891193
 37
0.0
 40
9.4331170840803722
 41
2.888719512195121
 42
50.0
 43
0.0
 44
0.0
 50
0.0
 51
0.0
 71
     0
 72
 10000
 73
     1
 74
     1
 75
     0
 76
     0
 77
     0
 78
     0
  0
ENDTAB
  0
TABLE
  2
LTYPE
 70
     2
  0
LTYPE
  2
CONTINUOUS
 70
     0
  3
Solid line
 72
    65
 73
     0
 40
0.0
  0
LTYPE
  2
PHANTOM2
 70
     0
  3
___ _ _ ___ _ _ ___ _ _ ___ _ _
 72
    65
 73
     6
 40
1.25
 49
0.625
 49
-0.125
 49
0.125
 49
-0.125
 49
0.125
 49
-0.125
  0
ENDTAB
  0
TABLE
  2
LAYER
 70
     2
  0
LAYER
  2
0
 70
     0
 62
   255
  6
CONTINUOUS
  0
LAYER
  2
DEFPOINTS
 70
     0
 62
     7
  6
CONTINUOUS
  0
ENDTAB
  0
TABLE
  2
STYLE
 70
     1
  0
STYLE
  2
STANDARD
 70
     0
 40
0.0
 41
0.8
 50
0.0
 71
     0
 42
0.2
  3
txt
  4

  0
ENDTAB
  0
TABLE
  2
VIEW
 70
     0
  0
ENDTAB
  0
TABLE
  2
UCS
 70
     0
  0
ENDTAB
  0
TABLE
  2
APPID
 70
    11
  0
APPID
  2
ACAD
 70
     0
  0
APPID
  2
ACAD_MLEADERVER
 70
     0
  0
APPID
  2
ACAD_EXEMPT_FROM_CAD_STANDARDS
 70
     0
  0
APPID
  2
ACAD_NAV_VCDISPLAY
 70
     0
  0
APPID
  2
ACAECLAYERSTANDARD
 70
     0
  0
APPID
  2
ACCMTRANSPARENCY
 70
     0
  0
APPID
  2
ACAD_DSTYLE_DIMJAG
 70
     0
  0
APPID
  2
ACAD_DSTYLE_DIMTALN
 70
     0
  0
APPID
  2
ACDBATTR
 70
     0
  0
APPID
  2
ACADANNOTATIVE
 70
     0
  0
APPID
  2
ACAD_PSEXT
 70
     0
  0
ENDTAB
  0
TABLE
  2
DIMSTYLE
 70
     1
  0
DIMSTYLE
  2
STANDARD
 70
     0
  3

  4

  5

  6

  7

 40
1.0
 41
0.1875
 42
0.0625
 43
0.38
 44
0.125
 45
0.0
 46
0.0
 47
0.01
 48
0.01
140
0.15625
141
0.09
142
0.0
143
25.3999999999999986
144
1.0
145
0.0
146
1.0
147
0.09
 71
     1
 72
     0
 73
     1
 74
     1
 75
     0
 76
     0
 77
     0
 78
     4
170
     0
171
     2
172
     0
173
     0
174
     0
175
     0
176
     0
177
     0
178
     0
  0
ENDTAB
  0
ENDSEC
  0
SECTION
  2
BLOCKS
  0
BLOCK
  8
0
  2
$MODEL_SPACE
 70
     0
 10
0.0
 20
0.0
 30
0.0
  3
$MODEL_SPACE
  1

  0
ENDBLK
  5
21
  8
0
  0
BLOCK
 67
     1
  8
0
  2
$PAPER_SPACE
 70
     0
 10
0.0
 20
0.0
 30
0.0
  3
$PAPER_SPACE
  1

  0
ENDBLK
  5
1D
 67
     1
  8
0
  0
BLOCK
  8
0
  2
_FILLED
 70
     0
 10
0.0
 20
0.0
 30
0.0
  3
_FILLED
  1

  0
SOLID
  5
ACE1
  8
0
  6
BYBLOCK
 62
     0
 10
0.0
 20
0.0
 30
0.0
 11
-1.0
 21
0.1666666667
 31
0.0
 12
-1.0
 22
-0.1666666667
 32
0.0
 13
-1.0
 23
-0.1666666667
 33
0.0
  0
ENDBLK
  5
ACE2
  8
0
  6
BYBLOCK
 62
     0
  0
ENDSEC
  0
SECTION
  2
ENTITIES
  0
ATTDEF
  5
9DCC
  8
DEFPOINTS
 10
3783.534633573202882
 20
-325.9132603731820836
 30
0.0
 40
0.001
  1
K-72573BR
  3

  2
MODELNUMBER
 70
     0
1001
ACDBATTR
1070
     0
1070
     1
  0
ATTDEF
  5
9DCD
  8
DEFPOINTS
 10
3783.534633573202882
 20
-325.9149270398486919
 30
0.0
 40
0.001
  1
ARTIFACTS
  3

  2
TRADENAME
 70
     0
1001
ACDBATTR
1070
     0
1070
     1
  0
ATTDEF
  5
9DCE
  8
DEFPOINTS
 10
3783.534633573202882
 20
-325.9165937065154139
 30
0.0
 40
0.001
  1
TOILET TISSUE HOLDER
  3

  2
PRODUCT
 70
     0
1001
ACDBATTR
1070
     0
1070
     1
  0
ARC
  5
BCDB
  8
0
 10
3786.7846366207368192
 20
-325.9111428847717775
 30
0.0
 40
1.2874631333
 50
197.8060460698478096
 51
162.1939539301521904
  0
ARC
  5
BCDC
  8
0
 10
3786.7851695333370117
 20
-325.9111428847717775
 30
0.0
 40
0.5078742952927258
 50
209.4884297322089992
 51
150.5115702677910008
  0
ARC
  5
BCDD
  8
0
 10
3786.7846366207368192
 20
-325.9111428847717775
 30
0.0
 40
0.4349856444572024
 50
215.0808388843973091
 51
144.9191611156026909
  0
LINE
  5
BCDE
  8
0
 10
3786.4166141585360492
 20
-325.6611428847717775
 30
0.0
 11
3786.5968301425368736
 21
-325.4809269007718058
 31
0.0
  0
ARC
  5
BCDF
  8
0
 10
3786.6132462070208931
 20
-325.4973523965580853
 30
0.0
 40
0.023222490929902
 50
90.0468671806980439
 51
134.9835460384985879
  0
ARC
  5
BCE0
  8
0
 10
3786.9560273057381892
 20
-325.4973517425021896
 30
0.0
 40
0.0232218366812088
 50
45.0157963905529996
 51
89.9537175598628238
  0
LINE
  5
BCE1
  8
0
 10
3786.9724430962369297
 20
-325.4809268978718251
 30
0.0
 11
3787.214849887885066
 21
-325.7233375773083139
 31
0.0
  0
ARC
  5
BCE2
  8
0
 10
3787.1984173580171955
 20
-325.7397604086125966
 30
0.0
 40
0.0232322496954775
 50
0.066399567470104
 51
44.9830868771429522
  0
ARC
  5
BCE3
  8
0
 10
3787.1982860962170889
 20
-326.0824748456525981
 30
0.0
 40
0.0233636242343623
 50
315.1596059220843244
 51
359.8100896357664737
  0
LINE
  5
BCE4
  8
0
 10
3787.2148526548198788
 20
-326.0989493129844732
 30
0.0
 11
3786.9724431030399501
 21
-326.3413588648684254
 31
0.0
  0
ARC
  5
BCE5
  8
0
 10
3786.956046020668964
 20
-326.3249617825047153
 30
0.0
 40
0.0231889762671425
 50
270.0370567798315733
 51
315.0000000122748247
  0
ARC
  5
BCE6
  8
0
 10
3786.6132272158151864
 20
-326.324961788285691
 30
0.0
 40
0.0231889685257096
 50
225.0000120241346053
 51
269.9713964394379104
  0
LINE
  5
BCE7
  8
0
 10
3786.5968301423631601
 20
-326.341358868620091
 30
0.0
 11
3786.4166141207051623
 21
-326.1611429226032897
 31
0.0
  0
LINE
  5
BCE8
  8
0
 10
3785.8351698289370688
 20
-325.6611428847717775
 30
0.0
 11
3785.8351698289370688
 21
-325.4911094563718166
 31
0.0
  0
ARC
  5
BCE9
  8
0
 10
3785.8651697913642238
 20
-325.4911094563718166
 30
0.0
 40
0.0299999624271958
 50
81.5197376173443047
 51
180.0
  0
ARC
  5
BCEA
  8
0
 10
3785.8322683790579504
 20
-325.7342085610691811
 30
0.0
 40
0.2753129978599007
 50
70.4448003561312106
 51
82.2081486478507628
  0
ARC
  5
BCEB
  8
0
 10
3785.8962202092729967
 20
-325.5704814539038239
 30
0.0
 40
0.0997737025323867
 50
18.3973135586309304
 51
73.5824786072954282
  0
ARC
  5
BCEC
  8
0
 10
3786.0196037665541553
 20
-325.5302225108483185
 30
0.0
 40
0.0300188260273902
 50
196.9865355031570004
 51
247.3000317154809125
  0
ARC
  5
BCED
  8
0
 10
3785.9209345796889465
 20
-325.7749676934444096
 30
0.0
 40
0.2338700073025697
 50
54.5523962501471971
 51
68.1385187494985018
  0
ARC
  5
BCEE
  8
0
 10
3785.9609958297551202
 20
-325.7117791739702284
 30
0.0
 40
0.1592103990890984
 50
18.5448185780542687
 51
53.1088027121998891
  0
LINE
  5
BCEF
  8
0
 10
3781.2341034125370243
 20
-325.517442097371827
 30
0.0
 11
3785.8351698289370688
 21
-325.517442097371827
 31
0.0
  0
LINE
  5
BCF0
  8
0
 10
3781.2341034583159853
 20
-326.3048436721717849
 30
0.0
 11
3785.8351697831581077
 21
-326.3048436721717849
 31
0.0
  0
LINE
  5
BCF1
  8
0
 10
3785.9908945587371818
 20
-325.5389924197717733
 30
0.0
 11
3785.9908945587371818
 21
-325.6611428847717775
 31
0.0
  0
LINE
  5
BCF2
  8
0
 10
3785.9908945587371818
 20
-326.1611428847717775
 30
0.0
 11
3785.9908945587371818
 21
-326.2831043649359231
 31
0.0
  0
LINE
  5
BCF3
  8
0
 10
3785.8351695333371936
 20
-326.1611428847717775
 30
0.0
 11
3785.8351698289370688
 21
-326.3311763383262019
 31
0.0
  0
ARC
  5
BCF4
  8
0
 10
3785.8651640632870112
 20
-326.3311762861818011
 30
0.0
 40
0.0299942343494495
 50
180.0000996076657884
 51
278.4929575147627929
  0
ARC
  5
BCF5
  8
0
 10
3785.8332499454008939
 20
-326.0926941747118804
 30
0.0
 40
0.2706058057758879
 50
277.7184736511823075
 51
289.6857791110149947
  0
ARC
  5
BCF6
  8
0
 10
3785.8911111218590122
 20
-326.2439531453545101
 30
0.0
 40
0.1087532604599406
 50
287.8277572203479053
 51
325.9513870604063754
  0
ARC
  5
BCF7
  8
0
 10
3785.905951034410009
 20
-326.2583401653117221
 30
0.0
 40
0.0884759736464585
 50
328.2909489214532073
 51
343.6268643860341854
  0
ARC
  5
BCF8
  8
0
 10
3786.0197589405211147
 20
-326.2922945180569059
 30
0.0
 40
0.0302921021088455
 50
112.8019353796297963
 51
162.6888933510190896
  0
ARC
  5
BCF9
  8
0
 10
3785.9541300889591184
 20
-326.1061964394332904
 30
0.0
 40
0.1671013001176971
 50
288.8138476149975986
 51
340.8027589548976835
  0
ARC
  5
BCFA
  8
0
 10
3780.2846366207368192
 20
-325.9111428847717775
 30
0.0
 40
1.2874631333
 50
17.8060460698477883
 51
342.1939539301521904
  0
ARC
  5
BCFB
  8
0
 10
3780.2841037081370814
 20
-325.9111428847717775
 30
0.0
 40
0.5078742952927258
 50
29.4884297322089388
 51
330.5115702677911145
  0
LINE
  5
BCFC
  8
0
 10
3780.6526590829371344
 20
-325.6611428847717775
 30
0.0
 11
3780.4724430989372195
 21
-325.4809269007718058
 31
0.0
  0
ARC
  5
BCFD
  8
0
 10
3780.4560270344518358
 20
-325.4973523965580853
 30
0.0
 40
0.0232224909299041
 50
45.0164539615013908
 51
89.9531328193019561
  0
ARC
  5
BCFE
  8
0
 10
3780.1132459357359039
 20
-325.4973517425023033
 30
0.0
 40
0.0232218366812154
 50
90.0462824401371904
 51
134.984203609440101
  0
LINE
  5
BCFF
  8
0
 10
3780.0968301452357991
 20
-325.4809268978718251
 30
0.0
 11
3779.8544233535890271
 21
-325.7233375773083139
 31
0.0
  0
ARC
  5
BD00
  8
0
 10
3779.8708558834568976
 20
-325.7397604086125966
 30
0.0
 40
0.023232249695481
 50
135.0169131228570052
 51
179.9336004325232921
  0
ARC
  5
BD01
  8
0
 10
3779.8709871452570042
 20
-326.0824748456525981
 30
0.0
 40
0.0233636242343699
 50
180.1899103642400064
 51
224.8403940779110997
  0
LINE
  5
BD02
  8
0
 10
3779.8544205866542143
 20
-326.0989493129844732
 30
0.0
 11
3780.0968301384327788
 21
-326.3413588648684254
 31
0.0
  0
ARC
  5
BD03
  8
0
 10
3780.1132272208042195
 20
-326.3249617825047153
 30
0.0
 40
0.0231889762671425
 50
224.9999999877252037
 51
269.9629432201684267
  0
ARC
  5
BD04
  8
0
 10
3780.4560460256589067
 20
-326.324961788285691
 30
0.0
 40
0.0231889685257096
 50
270.0286035605620896
 51
314.9999879758653947
  0
LINE
  5
BD05
  8
0
 10
3780.472443099110933
 20
-326.341358868620091
 30
0.0
 11
3780.6526591207680212
 21
-326.1611429226032897
 31
0.0
  0
LINE
  5
BD06
  8
0
 10
3781.2341034125370243
 20
-325.6611428847717775
 30
0.0
 11
3781.2341034125370243
 21
-325.4911094563718166
 31
0.0
  0
ARC
  5
BD07
  8
0
 10
3781.2041034501098693
 20
-325.4911094563718166
 30
0.0
 40
0.0299999624271958
 50
0.0
 51
98.4802623826556811
  0
ARC
  5
BD08
  8
0
 10
3781.2370048624161427
 20
-325.7342085610691811
 30
0.0
 40
0.2753129978599007
 50
97.791851352149223
 51
109.5551996438688036
  0
ARC
  5
BD09
  8
0
 10
3781.1730530322010964
 20
-325.5704814539038239
 30
0.0
 40
0.0997737025323867
 50
106.4175213927046002
 51
161.6026864413690021
  0
ARC
  5
BD0A
  8
0
 10
3781.0496694749181188
 20
-325.5302225108483185
 30
0.0
 40
0.0300188260273902
 50
292.699968284519116
 51
343.0134644968429143
  0
ARC
  5
BD0B
  8
0
 10
3781.1483386617851465
 20
-325.7749676934444096
 30
0.0
 40
0.2338700073025697
 50
111.8614812505014982
 51
125.4476037498528029
  0
ARC
  5
BD0C
  8
0
 10
3781.1082774117189729
 20
-325.7117791739702284
 30
0.0
 40
0.1592103990890984
 50
126.8911972878000967
 51
161.4551814219456958
  0
LINE
  5
BD0D
  8
0
 10
3781.0783786827369113
 20
-325.5389924197717733
 30
0.0
 11
3781.0783786827369113
 21
-325.6611428847717775
 31
0.0
  0
LINE
  5
BD0E
  8
0
 10
3781.0783786827369113
 20
-326.1611428847717775
 30
0.0
 11
3781.0783786827369113
 21
-326.2831043649359231
 31
0.0
  0
LINE
  5
BD0F
  8
0
 10
3781.2341037081368995
 20
-326.1611428847717775
 30
0.0
 11
3781.2341034125370243
 21
-326.3311763383262019
 31
0.0
  0
ARC
  5
BD10
  8
0
 10
3781.2041091781870819
 20
-326.3311762861818011
 30
0.0
 40
0.0299942343494495
 50
261.5070424852372071
 51
359.9999003923342116
  0
ARC
  5
BD11
  8
0
 10
3781.2360232960718349
 20
-326.0926941747118804
 30
0.0
 40
0.2706058057758879
 50
250.3142208889848916
 51
262.2815263488176925
  0
ARC
  5
BD12
  8
0
 10
3781.1781621196150809
 20
-326.2439531453545101
 30
0.0
 40
0.1087532604599406
 50
214.0486129395935961
 51
252.1722427796520947
  0
ARC
  5
BD13
  8
0
 10
3781.1633222070631746
 20
-326.2583401653117221
 30
0.0
 40
0.0884759736464585
 50
196.3731356139657009
 51
211.7090510785467927
  0
ARC
  5
BD14
  8
0
 10
3781.0495143009529784
 20
-326.2922945180569059
 30
0.0
 40
0.0302921021088455
 50
17.3111066489808287
 51
67.1980646203701895
  0
ARC
  5
BD15
  8
0
 10
3781.1151431525149746
 20
-326.1061964394332904
 30
0.0
 40
0.1671013001176971
 50
199.1972410451022881
 51
251.1861523850024014
  0
ARC
  5
BD16
  8
0
 10
3786.7855328475880015
 20
-325.9111426008051922
 30
0.0
 40
0.2500005479997143
 50
270.083271504962795
 51
89.8521844465855537
  0
ARC
  5
BD17
  8
0
 10
3780.2846366206367748
 20
-325.9111428847717775
 30
0.0
 40
0.9645669290000027
 50
26.8975728901532207
 51
333.1041455698688765
  0
ARC
  5
BD18
  8
0
 10
3786.7846366207368192
 20
-325.9111428847717775
 30
0.0
 40
0.9645669291
 50
206.8958544313954064
 51
153.1024271086027966
  0
LINE
  5
BD1A
  8
0
 10
3786.7858961887400255
 20
-326.1611428847717775
 30
0.0
 11
3780.2833770527340675
 21
-326.1611428847717775
 31
0.0
  0
LINE
  5
BD1B
  8
0
 10
3786.7861778153101113
 20
-325.6611428847717775
 30
0.0
 11
3780.2830954261639818
 21
-325.6611428847717775
 31
0.0
  0
ARC
  5
BD1C
  8
0
 10
3780.2837403938860916
 20
-325.9111426008051922
 30
0.0
 40
0.2500005479997143
 50
90.1478155534144747
 51
269.9167284950370913
  0
LINE
  5
BD1D
  8
0
 10
3787.221649592112044
 20
-325.7397334849717936
 30
0.0
 11
3787.221649592112044
 21
-326.0825522856716248
 31
0.0
  0
LINE
  5
BD1E
  8
0
 10
3779.847623649362049
 20
-325.7397334849721915
 30
0.0
 11
3779.847623649362049
 21
-326.0825522856717953
 31
0.0
  0
LINE
  5
BD1F
  8
0
 10
3786.6132272113368344
 20
-325.4741299133972916
 30
0.0
 11
3786.956046063894064
 21
-325.4741299133972916
 31
0.0
  0
LINE
  5
BD20
  8
0
 10
3780.4560460301368039
 20
-325.4741299133972916
 30
0.0
 11
3780.1132271775800291
 21
-325.4741299133972916
 31
0.0
  0
LINE
  5
BD21
  8
0
 10
3786.9560610184357756
 20
-326.3481507539218001
 30
0.0
 11
3786.6132156392718571
 21
-326.3481507539218001
 31
0.0
  0
LINE
  5
BD22
  8
0
 10
3780.4560576022008718
 20
-326.3481507539218001
 30
0.0
 11
3780.1132122230378627
 21
-326.3481507539218001
 31
0.0
  0
ARC
  5
BD23
  8
0
 10
3780.2846366207368192
 20
-325.9111428847717775
 30
0.0
 40
0.4349856444572025
 50
35.080838884397302
 51
324.9191611156053909
  0
ENDSEC
  0
EOF
