  0
SECTION
  2
HEADER
  9
$ACADVER
  1
AC1009
  9
$INSBASE
 10
3785.7962125380190628
 20
-295.6644890095819278
 30
0.0
  9
$EXTMIN
 10
3783.0903898294041028
 20
-297.1189301181818792
 30
0.0
  9
$EXTMAX
 10
3785.8077053837268977
 20
-294.3770258762817775
 30
0.0
  9
$LIMMIN
 10
0.0
 20
0.0
  9
$LIMMAX
 10
11.6929133858000007
 20
8.2677165353999982
  9
$ORTHOMODE
 70
     1
  9
$REGENMODE
 70
     1
  9
$FILLMODE
 70
     1
  9
$QTEXTMODE
 70
     0
  9
$MIRRTEXT
 70
     0
  9
$DRAGMODE
 70
     2
  9
$LTSCALE
 40
0.6431102362
  9
$OSMODE
 70
  4095
  9
$ATTMODE
 70
     1
  9
$TEXTSIZE
 40
0.2
  9
$TRACEWID
 40
0.05
  9
$TEXTSTYLE
  7
STANDARD
  9
$CLAYER
  8
0
  9
$CELTYPE
  6
BYLAYER
  9
$CECOLOR
 62
   256
  9
$DIMSCALE
 40
1.0
  9
$DIMASZ
 40
0.1875
  9
$DIMEXO
 40
0.0625
  9
$DIMDLI
 40
0.4443307087
  9
$DIMRND
 40
0.0
  9
$DIMDLE
 40
0.0
  9
$DIMEXE
 40
0.125
  9
$DIMTP
 40
0.01
  9
$DIMTM
 40
0.01
  9
$DIMTXT
 40
2.0
  9
$DIMCEN
 40
0.1052362205
  9
$DIMTSZ
 40
0.0
  9
$DIMTOL
 70
     1
  9
$DIMLIM
 70
     0
  9
$DIMTIH
 70
     1
  9
$DIMTOH
 70
     1
  9
$DIMSE1
 70
     0
  9
$DIMSE2
 70
     0
  9
$DIMTAD
 70
     0
  9
$DIMZIN
 70
     0
  9
$DIMBLK
  1

  9
$DIMASO
 70
     1
  9
$DIMSHO
 70
     1
  9
$DIMPOST
  1
\X
  9
$DIMAPOST
  1

  9
$DIMALT
 70
     1
  9
$DIMALTD
 70
     2
  9
$DIMALTF
 40
25.3999999999999986
  9
$DIMLFAC
 40
1.0
  9
$DIMTOFL
 70
     0
  9
$DIMTVP
 40
0.0
  9
$DIMTIX
 70
     0
  9
$DIMSOXD
 70
     0
  9
$DIMSAH
 70
     0
  9
$DIMBLK1
  1

  9
$DIMBLK2
  1

  9
$DIMSTYLE
  2
STANDARD
  9
$DIMCLRD
 70
     0
  9
$DIMCLRE
 70
     0
  9
$DIMCLRT
 70
     0
  9
$DIMTFAC
 40
1.0
  9
$DIMGAP
 40
0.09
  9
$LUNITS
 70
     2
  9
$LUPREC
 70
     4
  9
$SKETCHINC
 40
0.1
  9
$FILLETRAD
 40
0.0
  9
$AUNITS
 70
     0
  9
$AUPREC
 70
     0
  9
$MENU
  1
.
  9
$ELEVATION
 40
0.0
  9
$PELEVATION
 40
0.0
  9
$THICKNESS
 40
0.0
  9
$LIMCHECK
 70
     0
  9
$BLIPMODE
 70
     0
  9
$CHAMFERA
 40
0.0
  9
$CHAMFERB
 40
0.0
  9
$SKPOLY
 70
     0
  9
$TDCREATE
 40
2458060.468368056230247
  9
$TDUPDATE
 40
2459149.8635416668839753
  9
$TDINDWG
 40
0.467796412
  9
$TDUSRTIMER
 40
0.467796412
  9
$USRTIMER
 70
     1
  9
$ANGBASE
 50
0.0
  9
$ANGDIR
 70
     0
  9
$PDMODE
 70
     0
  9
$PDSIZE
 40
0.3125
  9
$PLINEWID
 40
0.0
  9
$COORDS
 70
     1
  9
$SPLFRAME
 70
     0
  9
$SPLINETYPE
 70
     6
  9
$SPLINESEGS
 70
     8
  9
$ATTDIA
 70
     1
  9
$ATTREQ
 70
     1
  9
$HANDLING
 70
     1
  9
$HANDSEED
  5
C986
  9
$SURFTAB1
 70
     6
  9
$SURFTAB2
 70
     6
  9
$SURFTYPE
 70
     6
  9
$SURFU
 70
     6
  9
$SURFV
 70
     6
  9
$UCSNAME
  2

  9
$UCSORG
 10
0.0
 20
0.0
 30
0.0
  9
$UCSXDIR
 10
1.0
 20
0.0
 30
0.0
  9
$UCSYDIR
 10
0.0
 20
1.0
 30
0.0
  9
$PUCSNAME
  2

  9
$PUCSORG
 10
0.0
 20
0.0
 30
0.0
  9
$PUCSXDIR
 10
1.0
 20
0.0
 30
0.0
  9
$PUCSYDIR
 10
0.0
 20
1.0
 30
0.0
  9
$USERI1
 70
     0
  9
$USERI2
 70
     0
  9
$USERI3
 70
     0
  9
$USERI4
 70
     0
  9
$USERI5
 70
     0
  9
$USERR1
 40
0.0
  9
$USERR2
 40
0.0
  9
$USERR3
 40
0.0
  9
$USERR4
 40
0.0
  9
$USERR5
 40
0.0
  9
$WORLDVIEW
 70
     1
  9
$SHADEDGE
 70
     3
  9
$SHADEDIF
 70
    70
  9
$TILEMODE
 70
     1
  9
$MAXACTVP
 70
    64
  9
$PLIMCHECK
 70
     0
  9
$PEXTMIN
 10
1.0000000000000000E+20
 20
1.0000000000000000E+20
 30
1.0000000000000000E+20
  9
$PEXTMAX
 10
-1.0000000000000000E+20
 20
-1.0000000000000000E+20
 30
-1.0000000000000000E+20
  9
$PLIMMIN
 10
0.0
 20
0.0
  9
$PLIMMAX
 10
12.0
 20
9.0
  9
$UNITMODE
 70
     0
  9
$VISRETAIN
 70
     1
  9
$PLINEGEN
 70
     0
  9
$PSLTSCALE
 70
     1
  0
ENDSEC
  0
SECTION
  2
TABLES
  0
TABLE
  2
VPORT
 70
     1
  0
VPORT
  2
*ACTIVE
 70
     0
 10
0.0
 20
0.0
 11
1.0
 21
1.0
 12
0.0
 22
0.0
 13
0.0
 23
0.0
 14
1.0
 24
1.0
 15
0.0
 25
0.0
 16
0.0
 26
0.0
 36
14.1804345105673004
 17
3784.4490187076457914
 27
-295.7479705810546875
 37
0.0
 40
3.860337287138571
 41
2.888719512195121
 42
50.0
 43
0.0
 44
0.0
 50
0.0
 51
0.0
 71
     0
 72
 10000
 73
     1
 74
     1
 75
     0
 76
     0
 77
     0
 78
     0
  0
ENDTAB
  0
TABLE
  2
LTYPE
 70
     2
  0
LTYPE
  2
CONTINUOUS
 70
     0
  3
Solid line
 72
    65
 73
     0
 40
0.0
  0
LTYPE
  2
PHANTOM2
 70
     0
  3
___ _ _ ___ _ _ ___ _ _ ___ _ _
 72
    65
 73
     6
 40
1.25
 49
0.625
 49
-0.125
 49
0.125
 49
-0.125
 49
0.125
 49
-0.125
  0
ENDTAB
  0
TABLE
  2
LAYER
 70
     2
  0
LAYER
  2
0
 70
     0
 62
   255
  6
CONTINUOUS
  0
LAYER
  2
DEFPOINTS
 70
     0
 62
     7
  6
CONTINUOUS
  0
ENDTAB
  0
TABLE
  2
STYLE
 70
     1
  0
STYLE
  2
STANDARD
 70
     0
 40
0.0
 41
0.8
 50
0.0
 71
     0
 42
0.2
  3
txt
  4

  0
ENDTAB
  0
TABLE
  2
VIEW
 70
     0
  0
ENDTAB
  0
TABLE
  2
UCS
 70
     0
  0
ENDTAB
  0
TABLE
  2
APPID
 70
    11
  0
APPID
  2
ACAD
 70
     0
  0
APPID
  2
ACAD_MLEADERVER
 70
     0
  0
APPID
  2
ACAD_EXEMPT_FROM_CAD_STANDARDS
 70
     0
  0
APPID
  2
ACAD_NAV_VCDISPLAY
 70
     0
  0
APPID
  2
ACAECLAYERSTANDARD
 70
     0
  0
APPID
  2
ACCMTRANSPARENCY
 70
     0
  0
APPID
  2
ACAD_DSTYLE_DIMJAG
 70
     0
  0
APPID
  2
ACAD_DSTYLE_DIMTALN
 70
     0
  0
APPID
  2
ACDBATTR
 70
     0
  0
APPID
  2
ACADANNOTATIVE
 70
     0
  0
APPID
  2
ACAD_PSEXT
 70
     0
  0
ENDTAB
  0
TABLE
  2
DIMSTYLE
 70
     1
  0
DIMSTYLE
  2
STANDARD
 70
     0
  3

  4

  5

  6

  7

 40
1.0
 41
0.1875
 42
0.0625
 43
0.38
 44
0.125
 45
0.0
 46
0.0
 47
0.01
 48
0.01
140
0.15625
141
0.09
142
0.0
143
25.3999999999999986
144
1.0
145
0.0
146
1.0
147
0.09
 71
     1
 72
     0
 73
     1
 74
     1
 75
     0
 76
     0
 77
     0
 78
     4
170
     0
171
     2
172
     0
173
     0
174
     0
175
     0
176
     0
177
     0
178
     0
  0
ENDTAB
  0
ENDSEC
  0
SECTION
  2
BLOCKS
  0
BLOCK
  8
0
  2
$MODEL_SPACE
 70
     0
 10
0.0
 20
0.0
 30
0.0
  3
$MODEL_SPACE
  1

  0
ENDBLK
  5
21
  8
0
  0
BLOCK
 67
     1
  8
0
  2
$PAPER_SPACE
 70
     0
 10
0.0
 20
0.0
 30
0.0
  3
$PAPER_SPACE
  1

  0
ENDBLK
  5
1D
 67
     1
  8
0
  0
BLOCK
  8
0
  2
_FILLED
 70
     0
 10
0.0
 20
0.0
 30
0.0
  3
_FILLED
  1

  0
SOLID
  5
B039
  8
0
  6
BYBLOCK
 62
     0
 10
0.0
 20
0.0
 30
0.0
 11
-1.0
 21
0.1666666667
 31
0.0
 12
-1.0
 22
-0.1666666667
 32
0.0
 13
-1.0
 23
-0.1666666667
 33
0.0
  0
ENDBLK
  5
B03A
  8
0
  6
BYBLOCK
 62
     0
  0
ENDSEC
  0
SECTION
  2
ENTITIES
  0
ATTDEF
  5
9DCC
  8
DEFPOINTS
 10
3785.797038717058058
 20
-295.6607758920458195
 30
0.0
 40
0.001
  1
K-72572BR
  3

  2
MODELNUMBER
 70
     0
1001
ACDBATTR
1070
     0
1070
     1
  0
ATTDEF
  5
9DCD
  8
DEFPOINTS
 10
3785.797038717058058
 20
-295.6624425587124279
 30
0.0
 40
0.001
  1
ARTIFACTS
  3

  2
TRADENAME
 70
     0
1001
ACDBATTR
1070
     0
1070
     1
  0
ATTDEF
  5
9DCE
  8
DEFPOINTS
 10
3785.797038717058058
 20
-295.664109225379093
 30
0.0
 40
0.001
  1
ROBE HOOK
  3

  2
PRODUCT
 70
     0
1001
ACDBATTR
1070
     0
1070
     1
  0
ARC
  5
C1C7
  8
0
 10
3783.5382691896929828
 20
-296.7343908816164912
 30
0.0
 40
0.3845392365654163
 50
130.5709185993397909
 51
49.4290792636027305
  0
LINE
  5
C1C8
  8
0
 10
3784.2333893644408818
 20
-295.4145225091818929
 30
0.0
 11
3784.06173940903318
 21
-295.4145225091818929
 31
0.0
  0
LINE
  5
C1C9
  8
0
 10
3783.8458478854931855
 20
-295.4606754942632278
 30
0.0
 11
3783.2306898053939221
 21
-295.4606754942632278
 31
0.0
  0
LINE
  5
C1CA
  8
0
 10
3785.388892879992909
 20
-294.6999220804818833
 30
0.0
 11
3785.4396533682938752
 21
-294.6999220804818833
 31
0.0
  0
LINE
  5
C1CB
  8
0
 10
3785.4396533682938752
 20
-296.629055938781903
 30
0.0
 11
3785.388892879992909
 21
-296.629055938781903
 31
0.0
  0
ARC
  5
C1CC
  8
0
 10
3785.4396781210762128
 20
-296.6684099167404725
 30
0.0
 40
0.0393418005516406
 50
16.3115618561507283
 51
90.0360489362100367
  0
ARC
  5
C1CD
  8
0
 10
3786.9854795617338823
 20
-296.2161808104290799
 30
0.0
 40
1.5712522696436599
 50
196.3068899803053
 51
200.157230013432212
  0
ARC
  5
C1CE
  8
0
 10
3785.7901512954940699
 20
-296.6535166770818819
 30
0.0
 40
0.2984354658000013
 50
200.4179317590779021
 51
271.1637607966000019
  0
ARC
  5
C1CF
  8
0
 10
3785.3888946987622148
 20
-296.5896837304784981
 30
0.0
 40
0.0393722082454239
 50
189.0026467327676016
 51
269.9973532667557947
  0
LINE
  5
C1D0
  8
0
 10
3785.3500075122901762
 20
-296.5958446971548028
 30
0.0
 11
3785.3500075122901762
 21
-294.7331333220091096
 31
0.0
  0
ARC
  5
C1D1
  8
0
 10
3785.388892879992909
 20
-294.7392921591812751
 30
0.0
 40
0.0393700786993687
 50
89.9999999996612843
 51
171.0000000407937932
  0
ARC
  5
C1D2
  8
0
 10
3785.4396885211299377
 20
-294.6605989284240081
 30
0.0
 40
0.0393231677703436
 50
269.9487805911726923
 51
343.7251197073168214
  0
ARC
  5
C1D3
  8
0
 10
3786.9888766321150797
 20
-295.1138533498677816
 30
0.0
 40
1.5748092294492879
 50
159.9122182156525014
 51
163.6909878709419104
  0
ARC
  5
C1D4
  8
0
 10
3785.7901512957241721
 20
-294.6754613423589717
 30
0.0
 40
0.2984354660771666
 50
90.0000000442155113
 51
159.9141410990432064
  0
LINE
  5
C1D5
  8
0
 10
3785.7962125380190628
 20
-294.3770258762818912
 30
0.0
 11
3785.7962125380190628
 21
-296.9518905844303163
 31
0.0
  0
LINE
  5
C1D6
  8
0
 10
3785.4774359407551856
 20
-294.6716190842818719
 30
0.0
 11
3785.4774359407551856
 21
-296.6573589292844986
 31
0.0
  0
LINE
  5
C1D7
  8
0
 10
3783.1763475276939062
 20
-295.5587249107819048
 30
0.0
 11
3783.900190861189003
 21
-295.5587249118273121
 31
0.0
  0
ARC
  5
C1D8
  8
0
 10
3783.8739960096140749
 20
-295.6999066123863145
 30
0.0
 40
0.1435912351842779
 50
67.3433858762855238
 51
79.4888693470910255
  0
ARC
  5
C1D9
  8
0
 10
3783.8972560341121607
 20
-295.6520333249130772
 30
0.0
 40
0.0905029264449658
 50
19.5505712856441285
 51
69.2581233192027383
  0
ARC
  5
C1DA
  8
0
 10
3783.8996182464629783
 20
-295.6453233810076995
 30
0.0
 40
0.0862092114882667
 50
309.5502811250811988
 51
15.8710006794459204
  0
ARC
  5
C1DB
  8
0
 10
3783.860402637838888
 20
-295.603952789807181
 30
0.0
 40
0.1431324144446895
 50
285.0313341285298065
 51
311.1095944449398871
  0
LINE
  5
C1DC
  8
0
 10
3783.8975707541640077
 20
-295.7421751439819104
 30
0.0
 11
3783.1790101887590936
 21
-295.7421751439819104
 31
0.0
  0
ARC
  5
C1DD
  8
0
 10
3783.2089140833641068
 20
-295.6180867369624252
 30
0.0
 40
0.1276408072255495
 50
216.347647474251005
 51
256.4507197003036936
  0
ARC
  5
C1DE
  8
0
 10
3783.1711797888651745
 20
-295.6458558737850808
 30
0.0
 40
0.080789959461525
 50
157.3833911358514968
 51
216.3463909983429119
  0
ARC
  5
C1DF
  8
0
 10
3783.1890801911231392
 20
-295.6616004656955852
 30
0.0
 40
0.103651274241826
 50
97.0551245947874435
 51
153.1508274812655088
  0
ARC
  5
C1E0
  8
0
 10
3783.9058911543461363
 20
-295.5292474620310941
 30
0.0
 40
0.0300235472349953
 50
179.9653105796066086
 51
259.0553422325584165
  0
LINE
  5
C1E1
  8
0
 10
3783.8758298996940539
 20
-295.529229285881911
 30
0.0
 11
3783.8758298996940539
 21
-295.4906794688819218
 31
0.0
  0
ARC
  5
C1E2
  8
0
 10
3783.8458239410438182
 20
-295.4906814434240232
 30
0.0
 40
0.030005958714505
 50
0.0037703487356273
 51
89.9542785464680605
  0
ARC
  5
C1E3
  8
0
 10
3783.2306811805019606
 20
-295.4906482623542274
 30
0.0
 40
0.0299727693319476
 50
89.983512704222008
 51
180.1309013000777099
  0
LINE
  5
C1E4
  8
0
 10
3783.2007084893939464
 20
-295.4907167398422985
 30
0.0
 11
3783.2007099653828845
 21
-295.529255142425427
 31
0.0
  0
ARC
  5
C1E5
  8
0
 10
3783.1705254717157914
 20
-295.5291558052139749
 30
0.0
 40
0.0301831811451166
 50
281.5772370952864776
 51
359.8114306713210908
  0
ARC
  5
C1E6
  8
0
 10
3783.9058664901240263
 20
-295.7710030598756248
 30
0.0
 40
0.0299987016301862
 50
106.1472659556353051
 51
180.0000281468076935
  0
LINE
  5
C1E7
  8
0
 10
3783.8758677884939061
 20
-295.7710030746126222
 30
0.0
 11
3783.8758678176768626
 21
-295.830408951145273
 31
0.0
  0
ARC
  5
C1E8
  8
0
 10
3783.8458748098159958
 20
-295.8304089658794851
 30
0.0
 40
0.0299930078604317
 50
269.9709390647761893
 51
0.0000281468076957
  0
LINE
  5
C1E9
  8
0
 10
3783.84585959709284
 20
-295.8604019698818774
 30
0.0
 11
3783.230801075852014
 21
-295.8604017205465198
 31
0.0
  0
ARC
  5
C1EA
  8
0
 10
3783.231234290194152
 20
-295.829874438509421
 30
0.0
 40
0.030530355766638
 50
180.9897367444484075
 51
269.1869670116799966
  0
LINE
  5
C1EB
  8
0
 10
3783.2007084893939464
 20
-295.830401798681919
 30
0.0
 11
3783.2007084893939464
 21
-295.7710021409819205
 31
0.0
  0
ARC
  5
C1EC
  8
0
 10
3783.1706984233660478
 20
-295.7710112099633761
 30
0.0
 40
0.0300100673978892
 50
0.0173146685366632
 51
73.9207965785047207
  0
LINE
  5
C1ED
  8
0
 10
3784.3560550576939931
 20
-295.2936332815818901
 30
0.0
 11
3784.2634038154819791
 21
-295.2936332815818901
 31
0.0
  0
LINE
  5
C1EE
  8
0
 10
3784.2333893644408818
 20
-296.0055198326311938
 30
0.0
 11
3784.2333893644408818
 21
-295.3231190087448113
 31
0.0
  0
ARC
  5
C1EF
  8
0
 10
3784.2634679028142273
 20
-295.3237177095479069
 30
0.0
 40
0.0300844962268857
 50
90.1220541089788583
 51
178.8597019023812891
  0
ARC
  5
C1F0
  8
0
 10
3784.2634696722861918
 20
-296.0052546839488059
 30
0.0
 40
0.0300814764228397
 50
180.5050316329569
 51
269.8422605445774138
  0
LINE
  5
C1F1
  8
0
 10
3784.3560550576939931
 20
-296.0353360463716967
 30
0.0
 11
3784.2633868558941685
 21
-296.0353360463716967
 31
0.0
  0
LINE
  5
C1F2
  8
0
 10
3784.3560550576939931
 20
-296.0353360463716967
 30
0.0
 11
3784.3560550576939931
 21
-295.2936332815818901
 31
0.0
  0
LINE
  5
C1F3
  8
0
 10
3784.3658975773928432
 20
-295.2835552807819113
 30
0.0
 11
3784.3658975773928432
 21
-296.0455014638819193
 31
0.0
  0
LINE
  5
C1F4
  8
0
 10
3784.3560550576939931
 20
-295.8611676014818954
 30
0.0
 11
3784.3658975773928432
 21
-295.8613394032818746
 31
0.0
  0
LINE
  5
C1F5
  8
0
 10
3784.3560550576939931
 20
-295.4678104176819033
 30
0.0
 11
3784.3658975774937971
 21
-295.4676386158819241
 31
0.0
  0
LINE
  5
C1F6
  8
0
 10
3784.3560550576939931
 20
-295.7693615455818872
 30
0.0
 11
3784.3658975773928432
 21
-295.7693938331818799
 31
0.0
  0
LINE
  5
C1F7
  8
0
 10
3784.3560550576939931
 20
-295.559616450481883
 30
0.0
 11
3784.3658975773928432
 21
-295.5595841859819188
 31
0.0
  0
LINE
  5
C1F8
  8
0
 10
3784.2333868022938077
 20
-295.9144468160819201
 30
0.0
 11
3784.0701456861938823
 21
-295.9144468377818953
 31
0.0
  0
ARC
  5
C1F9
  8
0
 10
3784.0774431841227852
 20
-296.3065047190282257
 30
0.0
 40
0.3921517997839783
 50
91.0662706835627631
 51
112.3260518088332987
  0
ARC
  5
C1FA
  8
0
 10
3784.0192208782491434
 20
-296.2015817127605146
 30
0.0
 40
0.2733355919967387
 50
109.3901345797569036
 51
142.5397537779429058
  0
ARC
  5
C1FB
  8
0
 10
3783.9022721406040546
 20
-296.1031985618199087
 30
0.0
 40
0.1208676740495989
 50
145.8430866775659069
 51
160.4546941446120059
  0
ARC
  5
C1FC
  8
0
 10
3784.0649592095878688
 20
-296.3302588151709074
 30
0.0
 40
0.9157419665068918
 50
90.2014556169421553
 51
108.2697799441214954
  0
LINE
  5
C1FD
  8
0
 10
3784.5802804238937824
 20
-295.2707882221819204
 30
0.0
 11
3784.6214093884941576
 21
-295.2707882221819204
 31
0.0
  0
ARC
  5
C1FE
  8
0
 10
3784.6214093884941576
 20
-295.2314181434819034
 30
0.0
 40
0.0393700787000002
 50
270.0
 51
0.0
  0
LINE
  5
C1FF
  8
0
 10
3784.660779467194061
 20
-295.2164575135818723
 30
0.0
 11
3784.660779467194061
 21
-296.1125205056819141
 31
0.0
  0
ARC
  5
C200
  8
0
 10
3784.7206219868940025
 20
-296.1125205056819141
 30
0.0
 40
0.0598425197000001
 50
180.0
 51
336.0903576632110799
  0
ARC
  5
C201
  8
0
 10
3784.7206219868940025
 20
-295.2164575135818723
 30
0.0
 40
0.0598425196999992
 50
23.9096423367888811
 51
180.0
  0
LINE
  5
C202
  8
0
 10
3784.7753291662938864
 20
-296.1367744061134886
 30
0.0
 11
3784.7753291662938864
 21
-295.1922036131504115
 31
0.0
  0
ARC
  5
C203
  8
0
 10
3784.8125344699260495
 20
-295.1750040362247205
 30
0.0
 40
0.0409885357724228
 50
204.8105488485259116
 51
253.1191817377568043
  0
ARC
  5
C204
  8
0
 10
3784.9174910074939362
 20
-294.8797204215819079
 30
0.0
 40
0.3543307086999958
 50
250.7432610307429002
 51
290.5192544733058071
  0
ARC
  5
C205
  8
0
 10
3784.8829907972858564
 20
-294.7875398655748995
 30
0.0
 40
0.4527559057288372
 50
290.5192544893295121
 51
350.9999999871183718
  0
ARC
  5
C206
  8
0
 10
5784.9940631529398161
 20
-611.5098253817532168
 30
0.0
 40
2024.579912448828054
 50
170.9982058538454908
 51
171.0017941407527076
  0
ARC
  5
C207
  8
0
 10
3784.812274813843942
 20
-296.1537578123575827
 30
0.0
 40
0.0406622301488149
 50
108.720086442520099
 51
155.3124083023691071
  0
ARC
  5
C208
  8
0
 10
3784.9322962734158864
 20
-296.5079370302955226
 30
0.0
 40
0.4146248876119392
 50
99.6011392306116079
 51
108.720086442520099
  0
ARC
  5
C209
  8
0
 10
3784.9408891355478772
 20
-296.2834586157940748
 30
0.0
 40
0.2000635570516295
 50
59.744756953275342
 51
112.8682748524435056
  0
ARC
  5
C20A
  8
0
 10
3784.8715437374207795
 20
-296.4230239008135186
 30
0.0
 40
0.3557111278982838
 50
54.9667937020650328
 51
61.4234791299579825
  0
ARC
  5
C20B
  8
0
 10
3784.8829907979138625
 20
-296.5414381532834227
 30
0.0
 40
0.4527559050443422
 50
8.9999999932864387
 51
64.8034669805462045
  0
ARC
  5
C20C
  8
0
 10
3561.0539292256489716
 20
-332.0566662004413274
 30
0.0
 40
227.0819248563271913
 50
8.9840040785623021
 51
9.0159959409973496
  0
ARC
  5
C20D
  8
0
 10
3784.385395159798918
 20
-296.0455231106125211
 30
0.0
 40
0.0194975944220644
 50
179.9363887394279118
 51
206.0932547995410005
  0
LINE
  5
C20E
  8
0
 10
3784.3678847726441745
 20
-296.0540988047491169
 30
0.0
 11
3784.386725862917956
 21
-296.0928060956507011
 31
0.0
  0
ARC
  5
C20F
  8
0
 10
3784.4011839937029436
 20
-296.0851254970320952
 30
0.0
 40
0.0163715955535999
 50
207.9785986182808131
 51
269.7037761369365967
  0
LINE
  5
C210
  8
0
 10
3784.4010993515939845
 20
-296.1014968737819117
 30
0.0
 11
3784.5275472505941252
 21
-296.1014968835818877
 31
0.0
  0
ARC
  5
C211
  8
0
 10
3784.5274671730730915
 20
-296.0851347482777101
 30
0.0
 40
0.0163623312557136
 50
270.2804076162095157
 51
332.0474369664609071
  0
ARC
  5
C212
  8
0
 10
3784.9788044691749747
 20
-296.3105337151533263
 30
0.0
 40
0.4881327148402347
 50
151.1394515883195027
 51
153.5097666829585989
  0
ARC
  5
C213
  8
0
 10
3784.5802804241670856
 20
-296.0916543642551915
 30
0.0
 40
0.033464567273227
 50
90.0000004677933418
 51
149.9999998287773906
  0
LINE
  5
C214
  8
0
 10
3784.5802804241670856
 20
-296.0581897969818783
 30
0.0
 11
3784.6214093884941576
 21
-296.0581897970819227
 31
0.0
  0
ARC
  5
C215
  8
0
 10
3784.6214093883982059
 20
-296.097559875877721
 30
0.0
 40
0.0393700787957316
 50
0.0000001393198977
 51
89.9999998606833742
  0
LINE
  5
C216
  8
0
 10
3784.5512992587941881
 20
-295.2538273563067719
 30
0.0
 11
3784.5512992587941881
 21
-296.0749220804818833
 31
0.0
  0
ARC
  5
C217
  8
0
 10
3784.78305019542222
 20
-295.1193903466103166
 30
0.0
 40
0.2679212614008334
 50
205.84171136472321
 51
210.8161194066686051
  0
ARC
  5
C218
  8
0
 10
3784.5802804238937824
 20
-295.237323655281898
 30
0.0
 40
0.0334645668999957
 50
215.2598278972984929
 51
270.0
  0
ARC
  5
C219
  8
0
 10
3784.5274676076091964
 20
-295.2438425806759028
 30
0.0
 40
0.0163616239421092
 50
27.9511423689500305
 51
89.7247887356463849
  0
LINE
  5
C21A
  8
0
 10
3784.5275461977930718
 20
-295.2274811454818746
 30
0.0
 11
3784.4011032293938115
 21
-295.2274811355819111
 31
0.0
  0
ARC
  5
C21B
  8
0
 10
3784.4011032281227926
 20
-295.243710939601101
 30
0.0
 40
0.016229804019214
 50
89.9999955139624745
 51
152.3147318089555995
  0
LINE
  5
C21C
  8
0
 10
3784.3867315237939692
 20
-295.2361703392818981
 30
0.0
 11
3784.3676330780058379
 21
-295.275399597578712
 31
0.0
  0
ARC
  5
C21D
  8
0
 10
3784.3855720733117778
 20
-295.283479448295509
 30
0.0
 40
0.0196746420605244
 50
155.7528608163368915
 51
180.2208371652052961
  0
ARC
  5
C21E
  8
0
 10
3784.5089769227488432
 20
-296.0871567360763947
 30
0.0
 40
0.0143442462704574
 50
271.3699680647811761
 51
337.8062545170370754
  0
ARC
  5
C21F
  8
0
 10
3784.5280142000428896
 20
-296.0927932388144086
 30
0.0
 40
0.0057599011613207
 50
159.2011600548377999
 51
177.8298512758983918
  0
ARC
  5
C220
  8
0
 10
3784.1385169877380577
 20
-295.9674572560400065
 30
0.0
 40
0.4034143535119129
 50
342.2046484632459737
 51
17.7765520088913185
  0
ARC
  5
C221
  8
0
 10
3784.5321346511482261
 20
-295.8415035970114104
 30
0.0
 40
0.0098669351957633
 50
165.6253556707401913
 51
196.4190236560336871
  0
ARC
  5
C222
  8
0
 10
3783.7445708810510041
 20
-295.664482160916009
 30
0.0
 40
0.7973507772326081
 50
347.3532271421091764
 51
12.6469550445396592
  0
ARC
  5
C223
  8
0
 10
3784.5321707694638462
 20
-295.4874530890396045
 30
0.0
 40
0.0099037428343167
 50
165.1316070512552869
 51
194.3508999935845907
  0
ARC
  5
C224
  8
0
 10
3784.1385146954939955
 20
-295.3615299930818878
 30
0.0
 40
0.4034148410000174
 50
342.1910831120982834
 51
17.8217753597907098
  0
ARC
  5
C225
  8
0
 10
3784.5086418858381876
 20
-295.2419485106800039
 30
0.0
 40
0.0144673691616526
 50
15.5877228125204201
 51
90.0335666868685678
  0
ARC
  5
C226
  8
0
 10
3784.4201027368098949
 20
-296.0856731938008011
 30
0.0
 40
0.0158239408858129
 50
207.5344772347573041
 51
269.6719059011201125
  0
ARC
  5
C227
  8
0
 10
3784.4043175618680834
 20
-296.0919549359171015
 30
0.0
 40
0.0020354074105029
 50
329.4889562244421199
 51
30.4518100958518616
  0
ARC
  5
C228
  8
0
 10
3784.7900081213019803
 20
-295.9674880009789035
 30
0.0
 40
0.4032903212306267
 50
162.176403020448987
 51
197.8225931790798882
  0
ARC
  5
C229
  8
0
 10
3784.3961654161898878
 20
-295.8415541621972125
 30
0.0
 40
0.0102174343385584
 50
345.8847990386774995
 51
14.1152009613224791
  0
ARC
  5
C22A
  8
0
 10
3785.1841089830591045
 20
-295.6644914883668775
 30
0.0
 40
0.7973787580256826
 50
167.3528234931432053
 51
192.6462529227212883
  0
ARC
  5
C22B
  8
0
 10
3784.3962482502379316
 20
-295.487412496322122
 30
0.0
 40
0.0101407779215775
 50
345.7538465119670832
 51
14.3530936461861707
  0
ARC
  5
C22C
  8
0
 10
3784.7899915260682064
 20
-295.3614802603798921
 30
0.0
 40
0.4032690338899051
 50
162.1783161670317099
 51
197.8210293586240027
  0
ARC
  5
C22D
  8
0
 10
3784.4042791458841748
 20
-295.2370242285637119
 30
0.0
 40
0.0020709499304144
 50
330.0701789967010882
 51
29.9298210033430401
  0
ARC
  5
C22E
  8
0
 10
3784.4200968049381117
 20
-295.2432897802718799
 30
0.0
 40
0.0158086856668024
 50
89.8671949828798944
 51
152.5033077983657961
  0
LINE
  5
C22F
  8
0
 10
3784.4063814121777796
 20
-295.8415480586126023
 30
0.0
 11
3784.5222659632590876
 21
-295.8417284744141966
 31
0.0
  0
LINE
  5
C230
  8
0
 10
3784.406389028159083
 20
-295.487412496322122
 30
0.0
 11
3784.5222671098190403
 21
-295.487412496322122
 31
0.0
  0
ARC
  5
C231
  8
0
 10
3783.9579230597541937
 20
-296.1133668259973888
 30
0.0
 40
0.6774024202159339
 50
171.3818617609670127
 51
188.6181382390361136
  0
ARC
  5
C232
  8
0
 10
3783.538269195140856
 20
-296.7347476690819121
 30
0.0
 40
0.2501
 50
180.0
 51
0.0
  0
LINE
  5
C233
  8
0
 10
3783.7883691951410583
 20
-296.7347476690819121
 30
0.0
 11
3783.7883691951410583
 21
-295.8604019465761894
 31
0.0
  0
LINE
  5
C234
  8
0
 10
3783.288169195142018
 20
-296.7347476690819121
 30
0.0
 11
3783.288169195142018
 21
-295.8604017438025835
 31
0.0
  0
ARC
  5
C235
  8
0
 10
3783.538269195140856
 20
-296.7346379626516182
 30
0.0
 40
0.3265337345452774
 50
139.989258754507091
 51
40.0107412454929019
  0
LINE
  5
C236
  8
0
 10
3785.7962125380190628
 20
-294.3770258762818912
 30
0.0
 11
3785.7901512957241721
 21
-294.3770258762818912
 31
0.0
  0
ENDSEC
  0
EOF
