  0
SECTION
  2
HEADER
  9
$ACADVER
  1
AC1009
  9
$INSBASE
 10
3795.3507304600047974
 20
-280.1310314672360278
 30
0.0
  9
$EXTMIN
 10
3792.3803633461398022
 20
-284.4184330420358719
 30
0.0
  9
$EXTMAX
 10
3795.3622744985691497
 20
-278.8435683339358775
 30
0.0
  9
$LIMMIN
 10
0.0
 20
0.0
  9
$LIMMAX
 10
11.6929133858000007
 20
8.2677165353999982
  9
$ORTHOMODE
 70
     1
  9
$REGENMODE
 70
     1
  9
$FILLMODE
 70
     1
  9
$QTEXTMODE
 70
     0
  9
$MIRRTEXT
 70
     0
  9
$DRAGMODE
 70
     2
  9
$LTSCALE
 40
0.6431102362
  9
$OSMODE
 70
  4095
  9
$ATTMODE
 70
     1
  9
$TEXTSIZE
 40
0.2
  9
$TRACEWID
 40
0.05
  9
$TEXTSTYLE
  7
STANDARD
  9
$CLAYER
  8
0
  9
$CELTYPE
  6
BYLAYER
  9
$CECOLOR
 62
   256
  9
$DIMSCALE
 40
1.0
  9
$DIMASZ
 40
0.1875
  9
$DIMEXO
 40
0.0625
  9
$DIMDLI
 40
0.4443307087
  9
$DIMRND
 40
0.0
  9
$DIMDLE
 40
0.0
  9
$DIMEXE
 40
0.125
  9
$DIMTP
 40
0.01
  9
$DIMTM
 40
0.01
  9
$DIMTXT
 40
2.0
  9
$DIMCEN
 40
0.1052362205
  9
$DIMTSZ
 40
0.0
  9
$DIMTOL
 70
     1
  9
$DIMLIM
 70
     0
  9
$DIMTIH
 70
     1
  9
$DIMTOH
 70
     1
  9
$DIMSE1
 70
     0
  9
$DIMSE2
 70
     0
  9
$DIMTAD
 70
     0
  9
$DIMZIN
 70
     0
  9
$DIMBLK
  1

  9
$DIMASO
 70
     1
  9
$DIMSHO
 70
     1
  9
$DIMPOST
  1
\X
  9
$DIMAPOST
  1

  9
$DIMALT
 70
     1
  9
$DIMALTD
 70
     2
  9
$DIMALTF
 40
25.3999999999999986
  9
$DIMLFAC
 40
1.0
  9
$DIMTOFL
 70
     0
  9
$DIMTVP
 40
0.0
  9
$DIMTIX
 70
     0
  9
$DIMSOXD
 70
     0
  9
$DIMSAH
 70
     0
  9
$DIMBLK1
  1

  9
$DIMBLK2
  1

  9
$DIMSTYLE
  2
STANDARD
  9
$DIMCLRD
 70
     0
  9
$DIMCLRE
 70
     0
  9
$DIMCLRT
 70
     0
  9
$DIMTFAC
 40
1.0
  9
$DIMGAP
 40
0.09
  9
$LUNITS
 70
     2
  9
$LUPREC
 70
     4
  9
$SKETCHINC
 40
0.1
  9
$FILLETRAD
 40
0.0
  9
$AUNITS
 70
     0
  9
$AUPREC
 70
     0
  9
$MENU
  1
.
  9
$ELEVATION
 40
0.0
  9
$PELEVATION
 40
0.0
  9
$THICKNESS
 40
0.0
  9
$LIMCHECK
 70
     0
  9
$BLIPMODE
 70
     0
  9
$CHAMFERA
 40
0.0
  9
$CHAMFERB
 40
0.0
  9
$SKPOLY
 70
     0
  9
$TDCREATE
 40
2458060.468368056230247
  9
$TDUPDATE
 40
2459149.8060532407835126
  9
$TDINDWG
 40
0.4342200231
  9
$TDUSRTIMER
 40
0.4342200231
  9
$USRTIMER
 70
     1
  9
$ANGBASE
 50
0.0
  9
$ANGDIR
 70
     0
  9
$PDMODE
 70
     0
  9
$PDSIZE
 40
0.3125
  9
$PLINEWID
 40
0.0
  9
$COORDS
 70
     1
  9
$SPLFRAME
 70
     0
  9
$SPLINETYPE
 70
     6
  9
$SPLINESEGS
 70
     8
  9
$ATTDIA
 70
     1
  9
$ATTREQ
 70
     1
  9
$HANDLING
 70
     1
  9
$HANDSEED
  5
C84A
  9
$SURFTAB1
 70
     6
  9
$SURFTAB2
 70
     6
  9
$SURFTYPE
 70
     6
  9
$SURFU
 70
     6
  9
$SURFV
 70
     6
  9
$UCSNAME
  2

  9
$UCSORG
 10
0.0
 20
0.0
 30
0.0
  9
$UCSXDIR
 10
1.0
 20
0.0
 30
0.0
  9
$UCSYDIR
 10
0.0
 20
1.0
 30
0.0
  9
$PUCSNAME
  2

  9
$PUCSORG
 10
0.0
 20
0.0
 30
0.0
  9
$PUCSXDIR
 10
1.0
 20
0.0
 30
0.0
  9
$PUCSYDIR
 10
0.0
 20
1.0
 30
0.0
  9
$USERI1
 70
     0
  9
$USERI2
 70
     0
  9
$USERI3
 70
     0
  9
$USERI4
 70
     0
  9
$USERI5
 70
     0
  9
$USERR1
 40
0.0
  9
$USERR2
 40
0.0
  9
$USERR3
 40
0.0
  9
$USERR4
 40
0.0
  9
$USERR5
 40
0.0
  9
$WORLDVIEW
 70
     1
  9
$SHADEDGE
 70
     3
  9
$SHADEDIF
 70
    70
  9
$TILEMODE
 70
     1
  9
$MAXACTVP
 70
    64
  9
$PLIMCHECK
 70
     0
  9
$PEXTMIN
 10
1.0000000000000000E+20
 20
1.0000000000000000E+20
 30
1.0000000000000000E+20
  9
$PEXTMAX
 10
-1.0000000000000000E+20
 20
-1.0000000000000000E+20
 30
-1.0000000000000000E+20
  9
$PLIMMIN
 10
0.0
 20
0.0
  9
$PLIMMAX
 10
12.0
 20
9.0
  9
$UNITMODE
 70
     0
  9
$VISRETAIN
 70
     1
  9
$PLINEGEN
 70
     0
  9
$PSLTSCALE
 70
     1
  0
ENDSEC
  0
SECTION
  2
TABLES
  0
TABLE
  2
VPORT
 70
     1
  0
VPORT
  2
*ACTIVE
 70
     0
 10
0.0
 20
0.0
 11
1.0
 21
1.0
 12
0.0
 22
0.0
 13
0.0
 23
0.0
 14
1.0
 24
1.0
 15
0.0
 25
0.0
 16
0.0
 26
0.0
 36
23.2237341756877385
 17
3793.8713227963171448
 27
-281.6309661865234943
 37
0.0
 40
6.322193224628851
 41
2.888719512195121
 42
50.0
 43
0.0
 44
0.0
 50
0.0
 51
0.0
 71
     0
 72
 10000
 73
     1
 74
     1
 75
     0
 76
     0
 77
     0
 78
     0
  0
ENDTAB
  0
TABLE
  2
LTYPE
 70
     2
  0
LTYPE
  2
CONTINUOUS
 70
     0
  3
Solid line
 72
    65
 73
     0
 40
0.0
  0
LTYPE
  2
PHANTOM2
 70
     0
  3
___ _ _ ___ _ _ ___ _ _ ___ _ _
 72
    65
 73
     6
 40
1.25
 49
0.625
 49
-0.125
 49
0.125
 49
-0.125
 49
0.125
 49
-0.125
  0
ENDTAB
  0
TABLE
  2
LAYER
 70
     2
  0
LAYER
  2
0
 70
     0
 62
   255
  6
CONTINUOUS
  0
LAYER
  2
DEFPOINTS
 70
     0
 62
     7
  6
CONTINUOUS
  0
ENDTAB
  0
TABLE
  2
STYLE
 70
     1
  0
STYLE
  2
STANDARD
 70
     0
 40
0.0
 41
0.8
 50
0.0
 71
     0
 42
0.2
  3
txt
  4

  0
ENDTAB
  0
TABLE
  2
VIEW
 70
     0
  0
ENDTAB
  0
TABLE
  2
UCS
 70
     0
  0
ENDTAB
  0
TABLE
  2
APPID
 70
    11
  0
APPID
  2
ACAD
 70
     0
  0
APPID
  2
ACAD_MLEADERVER
 70
     0
  0
APPID
  2
ACAD_EXEMPT_FROM_CAD_STANDARDS
 70
     0
  0
APPID
  2
ACAD_NAV_VCDISPLAY
 70
     0
  0
APPID
  2
ACAECLAYERSTANDARD
 70
     0
  0
APPID
  2
ACCMTRANSPARENCY
 70
     0
  0
APPID
  2
ACAD_DSTYLE_DIMJAG
 70
     0
  0
APPID
  2
ACAD_DSTYLE_DIMTALN
 70
     0
  0
APPID
  2
ACDBATTR
 70
     0
  0
APPID
  2
ACADANNOTATIVE
 70
     0
  0
APPID
  2
ACAD_PSEXT
 70
     0
  0
ENDTAB
  0
TABLE
  2
DIMSTYLE
 70
     1
  0
DIMSTYLE
  2
STANDARD
 70
     0
  3

  4

  5

  6

  7

 40
1.0
 41
0.1875
 42
0.0625
 43
0.38
 44
0.125
 45
0.0
 46
0.0
 47
0.01
 48
0.01
140
0.15625
141
0.09
142
0.0
143
25.3999999999999986
144
1.0
145
0.0
146
1.0
147
0.09
 71
     1
 72
     0
 73
     1
 74
     1
 75
     0
 76
     0
 77
     0
 78
     4
170
     0
171
     2
172
     0
173
     0
174
     0
175
     0
176
     0
177
     0
178
     0
  0
ENDTAB
  0
ENDSEC
  0
SECTION
  2
BLOCKS
  0
BLOCK
  8
0
  2
$MODEL_SPACE
 70
     0
 10
0.0
 20
0.0
 30
0.0
  3
$MODEL_SPACE
  1

  0
ENDBLK
  5
21
  8
0
  0
BLOCK
 67
     1
  8
0
  2
$PAPER_SPACE
 70
     0
 10
0.0
 20
0.0
 30
0.0
  3
$PAPER_SPACE
  1

  0
ENDBLK
  5
1D
 67
     1
  8
0
  0
BLOCK
  8
0
  2
_FILLED
 70
     0
 10
0.0
 20
0.0
 30
0.0
  3
_FILLED
  1

  0
SOLID
  5
B039
  8
0
  6
BYBLOCK
 62
     0
 10
0.0
 20
0.0
 30
0.0
 11
-1.0
 21
0.1666666667
 31
0.0
 12
-1.0
 22
-0.1666666667
 32
0.0
 13
-1.0
 23
-0.1666666667
 33
0.0
  0
ENDBLK
  5
B03A
  8
0
  6
BYBLOCK
 62
     0
  0
ENDSEC
  0
SECTION
  2
ENTITIES
  0
ATTDEF
  5
9DCC
  8
DEFPOINTS
 10
3795.3516078318998552
 20
-280.1274429081828998
 30
0.0
 40
0.001
  1
K-72571BR
  3

  2
MODELNUMBER
 70
     0
1001
ACDBATTR
1070
     0
1070
     1
  0
ATTDEF
  5
9DCD
  8
DEFPOINTS
 10
3795.3516078318998552
 20
-280.1291095748496218
 30
0.0
 40
0.001
  1
ARTIFACTS
  3

  2
TRADENAME
 70
     0
1001
ACDBATTR
1070
     0
1070
     1
  0
ATTDEF
  5
9DCE
  8
DEFPOINTS
 10
3795.3516078318998552
 20
-280.130776241516287
 30
0.0
 40
0.001
  1
TOWEL RING
  3

  2
PRODUCT
 70
     0
1001
ACDBATTR
1070
     0
1070
     1
  0
LINE
  5
C49F
  8
0
 10
3795.3388773100068647
 20
-278.8435683339358775
 30
0.0
 11
3795.3507304600047974
 21
-278.8435683339358775
 31
0.0
  0
LINE
  5
C4A0
  8
0
 10
3795.3388818345661093
 20
-281.4184946005358938
 30
0.0
 11
3795.3507304600047974
 21
-281.4184946005358938
 31
0.0
  0
ARC
  5
C4A1
  8
0
 10
3792.8495493372079181
 20
-280.1310314672360278
 30
0.0
 40
0.4691704128000005
 50
311.7160840924523768
 51
311.9202101910046849
  0
ARC
  5
C4A2
  8
0
 10
3792.85073043950797
 20
-284.1074094200358786
 30
0.0
 40
0.3110236220000004
 50
180.0
 51
0.0
  0
LINE
  5
C4A3
  8
0
 10
3793.1617540615088728
 20
-284.1074094200358786
 30
0.0
 11
3793.1617540615088728
 21
-280.1310314672360278
 31
0.0
  0
LINE
  5
C4A4
  8
0
 10
3792.5397068175088862
 20
-284.1074094200358786
 30
0.0
 11
3792.5397068175088862
 21
-280.1310314672360278
 31
0.0
  0
ARC
  5
C4A5
  8
0
 10
3792.85073043950797
 20
-280.1310314672360278
 30
0.0
 40
0.3110236220000004
 50
0.0
 51
180.0
  0
ARC
  5
C4A6
  8
0
 10
3793.2948629673592222
 20
-279.6310603183393937
 30
0.0
 40
0.2007282529416953
 50
231.2177251686325974
 51
268.4477543943839919
  0
LINE
  5
C4A7
  8
0
 10
3793.2894255435589912
 20
-279.8317149119858982
 30
0.0
 11
3793.7393131167082174
 21
-279.8318188688360237
 31
0.0
  0
ARC
  5
C4A8
  8
0
 10
3793.294408107837171
 20
-280.6282618399749822
 30
0.0
 40
0.1980182533533392
 50
90.1260389156202137
 51
132.0599779483515022
  0
LINE
  5
C4A9
  8
0
 10
3793.2939725088099294
 20
-280.4302440657360194
 30
0.0
 11
3793.7393131167082174
 21
-280.4302440657360194
 31
0.0
  0
ARC
  5
C4AA
  8
0
 10
3793.7393057142639918
 20
-279.7727538807652081
 30
0.0
 40
0.0590649885346179
 50
270.0071807079551149
 51
343.7326145121293735
  0
ARC
  5
C4AB
  8
0
 10
3793.7393076171820212
 20
-280.4893065165372832
 30
0.0
 40
0.0590624510573241
 50
16.2634059239290991
 51
89.9946649754325563
  0
LINE
  5
C4AC
  8
0
 10
3795.3507304600047974
 20
-278.8435683339358775
 30
0.0
 11
3795.3507304600047974
 21
-281.4184946005358938
 31
0.0
  0
ARC
  5
C4AD
  8
0
 10
3796.5617656921717753
 20
-280.6752900302457761
 30
0.0
 40
1.594253110615754
 50
196.2976227287146003
 51
200.0691263026461115
  0
ARC
  5
C4AE
  8
0
 10
3794.9941712902050313
 20
-281.1349684726716873
 30
0.0
 40
0.0393700786999958
 50
18.1869903087092517
 51
89.980143732785308
  0
ARC
  5
C4AF
  8
0
 10
3794.9434108064929205
 20
-281.056228312702217
 30
0.0
 40
0.0393700836337385
 50
189.000002648786193
 51
270.0
  0
ARC
  5
C4B0
  8
0
 10
3789.4654542989451329
 20
-281.859664028004488
 30
0.0
 40
5.4971943053411554
 50
8.339214313530249
 51
9.7793979370732504
  0
LINE
  5
C4B1
  8
0
 10
3793.9204154994049532
 20
-280.5120441449718101
 30
0.0
 11
3793.9204154994049532
 21
-279.750022194571784
 31
0.0
  0
ARC
  5
C4B2
  8
0
 10
3793.9397418871130867
 20
-279.750022194571784
 30
0.0
 40
0.0193263877079772
 50
155.6115287172077899
 51
179.9999999999934914
  0
ARC
  5
C4B3
  8
0
 10
3806.646679891806798
 20
-285.9003607962803812
 30
0.0
 40
14.1364353862772507
 50
153.9971118021242091
 51
154.174325411188704
  0
ARC
  5
C4B4
  8
0
 10
3793.9555545759480992
 20
-279.7101432929287057
 30
0.0
 40
0.0161198392334617
 50
89.763627155518094
 51
152.5599084960904861
  0
LINE
  5
C4B5
  8
0
 10
3793.9556210779051071
 20
-279.6940235908717796
 30
0.0
 11
3794.0820652458050972
 21
-279.6940235908717796
 31
0.0
  0
ARC
  5
C4B6
  8
0
 10
3794.0820447064538712
 20
-279.7102871070288188
 30
0.0
 40
0.0162635276087064
 50
27.73555376858193
 51
89.9320070405539553
  0
ARC
  5
C4B7
  8
0
 10
3794.5311041665268021
 20
-279.4861508316658956
 30
0.0
 40
0.4856281290134012
 50
206.4843340166333121
 51
208.8665892147010084
  0
ARC
  5
C4B8
  8
0
 10
3794.1347983462369484
 20
-279.7038661099825845
 30
0.0
 40
0.0334645674891974
 50
210.0000010685041048
 51
269.9999994331450921
  0
LINE
  5
C4B9
  8
0
 10
3794.1347983455311805
 20
-279.7373306774717889
 30
0.0
 11
3794.1680532946052153
 21
-279.7373306774717889
 31
0.0
  0
ARC
  5
C4BA
  8
0
 10
3794.1680532946052153
 20
-279.6900865829717873
 30
0.0
 40
0.0472440945000017
 50
270.0
 51
359.9999999999968168
  0
LINE
  5
C4BB
  8
0
 10
3794.215297389105217
 20
-279.68299996877181
 30
0.0
 11
3794.215297389105217
 21
-280.579062960871795
 31
0.0
  0
ARC
  5
C4BC
  8
0
 10
3794.2751399088051585
 20
-280.579062960871795
 30
0.0
 40
0.0598425197000019
 50
179.9999999999967031
 51
223.2911313787477923
  0
ARC
  5
C4BD
  8
0
 10
3794.3658386534220881
 20
-280.6192733742187215
 30
0.0
 40
0.0393700783738893
 50
109.6997178525686962
 51
156.0903578994536076
  0
ARC
  5
C4BE
  8
0
 10
3794.4720089325119261
 20
-280.9158000650980966
 30
0.0
 40
0.3543307212583636
 50
98.8231960726239436
 51
109.6997178525686962
  0
ARC
  5
C4BF
  8
0
 10
3794.5034227271489726
 20
-280.7788376468237743
 30
0.0
 40
0.2297803647988913
 50
105.0357276093980943
 51
111.9155515837579031
  0
ARC
  5
C4C0
  8
0
 10
3794.495163353713906
 20
-280.7416169128438241
 30
0.0
 40
0.1916986082136667
 50
77.6623705222882279
 51
105.5376343714483056
  0
ARC
  5
C4C1
  8
0
 10
3794.4856881704231455
 20
-280.7774582954428979
 30
0.0
 40
0.2287424142486631
 50
61.0878663393283432
 51
77.2620831695103618
  0
ARC
  5
C4C2
  8
0
 10
3794.4260379512788859
 20
-280.8896114552763947
 30
0.0
 40
0.3557616657930866
 50
54.9678367466424405
 51
61.4110803000130474
  0
ARC
  5
C4C3
  8
0
 10
3794.4375087194048319
 20
-281.0079806087716747
 30
0.0
 40
0.4527559054999819
 50
32.5348062853235618
 51
64.8034669245108432
  0
ARC
  5
C4C4
  8
0
 10
3794.4375087194048319
 20
-281.0079806087716747
 30
0.0
 40
0.4527559054999316
 50
10.4401835584593297
 51
32.5348062853235618
  0
ARC
  5
C4C5
  8
0
 10
3793.9375892626530913
 20
-280.5125815351174197
 30
0.0
 40
0.0171822804866939
 50
178.1958835098675138
 51
205.9550950859012062
  0
ARC
  5
C4C6
  8
0
 10
-1413.1286985570939123
 20
-2815.1186555604408568
 30
0.0
 40
5791.1629458311381313
 50
25.9546632202380216
 51
25.9550950859011387
  0
ARC
  5
C4C7
  8
0
 10
3793.955057101140028
 20
-280.5526263472451092
 30
0.0
 40
0.015362154326475
 50
205.9546632202321064
 51
266.0309074527630173
  0
LINE
  5
C4C8
  8
0
 10
3793.9539937583049323
 20
-280.5679516559716831
 30
0.0
 11
3794.0820640044148604
 21
-280.568039338871813
 31
0.0
  0
ARC
  5
C4C9
  8
0
 10
3794.0819821898649025
 20
-280.5516724738704966
 30
0.0
 40
0.0163670694869019
 50
270.2864072860716078
 51
332.0480060550098074
  0
ARC
  5
C4CA
  8
0
 10
3794.2767637343658862
 20
-280.6425194762283013
 30
0.0
 40
0.1985820363526384
 50
149.4105719320735943
 51
155.2385264189055079
  0
ARC
  5
C4CB
  8
0
 10
3794.1351488695290755
 20
-280.5588039438966916
 30
0.0
 40
0.0340734946402083
 50
90.5894281979170302
 51
149.4105719320735943
  0
LINE
  5
C4CC
  8
0
 10
3794.1347983459049829
 20
-280.52473225227169
 30
0.0
 11
3794.1680532946052153
 21
-280.52473225227169
 31
0.0
  0
ARC
  5
C4CD
  8
0
 10
3794.1680532946052153
 20
-280.5719763467716916
 30
0.0
 40
0.0472440945000008
 50
0.0
 51
90.0
  0
ARC
  5
C4CE
  8
0
 10
3794.2751399088051585
 20
-279.68299996877181
 30
0.0
 40
0.0598425196999844
 50
122.1989296594170042
 51
180.0000000000098055
  0
ARC
  5
C4CF
  8
0
 10
3794.2751846839169048
 20
-279.6829288641537801
 30
0.0
 40
0.0597584918629654
 50
23.8337284888703209
 51
57.8010703399053227
  0
ARC
  5
C4D0
  8
0
 10
3794.3656513704499957
 20
-279.6429646697446856
 30
0.0
 40
0.0391422574114932
 50
203.8337284888702925
 51
250.4719729436017133
  0
ARC
  5
C4D1
  8
0
 10
3794.4719866611098951
 20
-279.3431492400861771
 30
0.0
 40
0.3572562085371789
 50
250.4719729436017133
 51
290.3475634229408229
  0
ARC
  5
C4D2
  8
0
 10
3794.4395844644668614
 20
-279.2557776943060048
 30
0.0
 40
0.4504425238376209
 50
290.3475634229408229
 51
351.1716910612061042
  0
ARC
  5
C4D3
  8
0
 10
3815.7906005806039502
 20
-282.5718924658268065
 30
0.0
 40
21.1565588037283412
 50
170.8283089195178945
 51
171.1716910612092875
  0
ARC
  5
C4D4
  8
0
 10
3794.9435291930190033
 20
-279.2059732326562198
 30
0.0
 40
0.0395088742684963
 50
90.1728314534356485
 51
170.8283089195209925
  0
ARC
  5
C4D5
  8
0
 10
3794.9937158917127817
 20
-279.126486623005178
 30
0.0
 40
0.039980506231669
 50
270.6523159448864817
 51
343.0295968895006808
  0
ARC
  5
C4D6
  8
0
 10
3797.0481366260319191
 20
-279.7463323773062029
 30
0.0
 40
2.10591189242413
 50
160.5456599237072055
 51
163.2141856826760034
  0
LINE
  5
C4D7
  8
0
 10
3795.031954563105046
 20
-279.1381591519717063
 30
0.0
 11
3795.031954563105046
 21
-281.1239779954173059
 31
0.0
  0
LINE
  5
C4D8
  8
0
 10
3794.9045254342049702
 20
-279.199675777271807
 30
0.0
 11
3794.9045254342049702
 21
-281.0623871524716719
 31
0.0
  0
LINE
  5
C4D9
  8
0
 10
3794.3298470882577931
 20
-279.6587460684601751
 30
0.0
 11
3794.3298470882577931
 21
-280.603316861183373
 31
0.0
  0
LINE
  5
C4DA
  8
0
 10
3794.1058171809759187
 20
-279.7205983942677108
 30
0.0
 11
3794.1058171809759187
 21
-280.5414645354916274
 31
0.0
  0
ARC
  5
C4DB
  8
0
 10
3794.3500027964118999
 20
-279.8280615751589266
 30
0.0
 40
0.4094548656932015
 50
162.456277170100492
 51
197.5465616299771909
  0
ARC
  5
C4DC
  8
0
 10
3793.9499994566490386
 20
-279.953995090522028
 30
0.0
 40
0.0099173542871899
 50
345.3892826116093033
 51
14.5456644099652603
  0
ARC
  5
C4DD
  8
0
 10
3794.737526148462166
 20
-280.1310615471916208
 30
0.0
 40
0.7972753754486526
 50
167.3525311211529072
 51
192.6479235221123076
  0
ARC
  5
C4DE
  8
0
 10
3793.9497881526021956
 20
-280.3081278580852995
 30
0.0
 40
0.0101217481532008
 50
345.7288308412715878
 51
14.2724045200603697
  0
ARC
  5
C4DF
  8
0
 10
3794.3435664446728879
 20
-280.4340550808371972
 30
0.0
 40
0.4033207163922864
 50
162.1792824376856004
 51
197.8219291107106983
  0
ARC
  5
C4E0
  8
0
 10
3793.9554689816382052
 20
-280.5590671614559142
 30
0.0
 40
0.0044201055514759
 50
357.6423162745502964
 51
20.83126500918112
  0
ARC
  5
C4E1
  8
0
 10
3793.9595307129379762
 20
-280.5592109235661837
 30
0.0
 40
0.0003566702387797
 50
281.553908757011925
 51
353.8725711929196791
  0
ARC
  5
C4E2
  8
0
 10
3793.97359851298188
 20
-280.5522980131125905
 30
0.0
 40
0.0157683208692722
 50
207.4236401755458985
 51
263.4640376616156914
  0
ARC
  5
C4E3
  8
0
 10
3793.9551850160760296
 20
-279.7029787939994776
 30
0.0
 40
0.0047098041439048
 50
339.3705928535459861
 51
1.0297737610859421
  0
ARC
  5
C4E4
  8
0
 10
3793.9595725951257918
 20
-279.7028905353121218
 30
0.0
 40
0.0003214847340937
 50
359.3558541972703892
 51
86.1935180244221471
  0
ARC
  5
C4E5
  8
0
 10
3793.9738996835180842
 20
-279.7101238994840742
 30
0.0
 40
0.0161777438707671
 50
95.6081731149903931
 51
152.1637356270433941
  0
ARC
  5
C4E6
  8
0
 10
3793.6920968559570611
 20
-279.8280625632012857
 30
0.0
 40
0.4033540832230896
 50
342.1789457962404981
 51
17.8192160926263412
  0
ARC
  5
C4E7
  8
0
 10
3794.0857262856761736
 20
-279.9539991875373062
 30
0.0
 40
0.0099467272763331
 50
165.4904902454468925
 51
194.5420536517125925
  0
ARC
  5
C4E8
  8
0
 10
3793.2980486461578948
 20
-280.1310680775965238
 30
0.0
 40
0.7973934365752756
 50
347.3547363482568926
 51
12.6460484218793994
  0
ARC
  5
C4E9
  8
0
 10
3794.0855234230489259
 20
-280.3080991053652156
 30
0.0
 40
0.0097412508041135
 50
165.3097059766488997
 51
194.9745438538182043
  0
ARC
  5
C4EA
  8
0
 10
3793.6919365704629854
 20
-280.4340230881848015
 30
0.0
 40
0.4035105768000496
 50
342.1851014786910241
 51
17.8082999292991886
  0
ARC
  5
C4EB
  8
0
 10
3794.0811543769950731
 20
-280.5592983388914945
 30
0.0
 40
0.0053746110300715
 50
160.1605643647027932
 51
178.0088283159842888
  0
ARC
  5
C4EC
  8
0
 10
3794.0761748122249628
 20
-280.5591739157438838
 30
0.0
 40
0.0003967264595669
 50
170.9621637661157934
 51
258.0020865702481956
  0
ARC
  5
C4ED
  8
0
 10
3794.0620645579169832
 20
-280.5522643088949053
 30
0.0
 40
0.0158124848253932
 50
274.5705739649771999
 51
332.5152199268277968
  0
ARC
  5
C4EE
  8
0
 10
3794.0812502225230674
 20
-279.7027241451953046
 30
0.0
 40
0.0054805826604539
 50
185.0917706944522934
 51
200.33460038255771
  0
ARC
  5
C4EF
  8
0
 10
3794.0762970935879821
 20
-279.7030573315547031
 30
0.0
 40
0.0005285237384705
 50
111.6214502933305965
 51
196.8523197855211038
  0
ARC
  5
C4F0
  8
0
 10
3794.0616747795311312
 20
-279.7102311191238186
 30
0.0
 40
0.0163373444999148
 50
27.9809560138021283
 51
82.7723116581899347
  0
LINE
  5
C4F1
  8
0
 10
3793.9599168093382104
 20
-279.9540007205475263
 30
0.0
 11
3794.0757795588010595
 21
-279.9540020123985755
 31
0.0
  0
LINE
  5
C4F2
  8
0
 10
3793.9599099007550649
 20
-280.3081278580852995
 30
0.0
 11
3794.0757821722449989
 21
-280.3080991053652156
 31
0.0
  0
LINE
  5
C4F3
  8
0
 10
3793.9204154994049532
 20
-279.7609527271359866
 30
0.0
 11
3793.8338013057091302
 21
-279.7609527271359866
 31
0.0
  0
ARC
  5
C4F4
  8
0
 10
3793.8338013057091302
 20
-279.8003228059321827
 30
0.0
 40
0.0393700787962388
 50
90.0
 51
163.7401659061389978
  0
LINE
  5
C4F5
  8
0
 10
3793.9204154789090353
 20
-280.501110207435886
 30
0.0
 11
3793.8338013057091302
 21
-280.501110207435886
 31
0.0
  0
ARC
  5
C4F6
  8
0
 10
3793.8338013057091302
 20
-280.4617401287836742
 30
0.0
 40
0.03937007865221
 50
196.2634057174610973
 51
270.0
  0
LINE
  5
C4F7
  8
0
 10
3793.7960059587589967
 20
-279.7892994283459984
 30
0.0
 11
3793.7960059587589967
 21
-280.4727635063109119
 31
0.0
  0
ARC
  5
C4F8
  8
0
 10
3795.3448061472849986
 20
-281.1199528027548808
 30
0.0
 40
0.2986005735150798
 50
200.0579074814513945
 51
268.8631623025099202
  0
ARC
  5
C4F9
  8
0
 10
3795.3448038850069679
 20
-279.1421053870640208
 30
0.0
 40
0.2985958746895224
 50
91.1372897703130178
 51
161.0110924304935907
  0
LINE
  5
C4FA
  8
0
 10
3794.9941710623820654
 20
-279.1664645381359833
 30
0.0
 11
3794.9434100155531269
 21
-279.1664645381359833
 31
0.0
  0
LINE
  5
C4FB
  8
0
 10
3794.9941849341907982
 20
-281.0955983963360154
 30
0.0
 11
3794.9434108064929205
 21
-281.0955983963360154
 31
0.0
  0
LINE
  5
C4FC
  8
0
 10
3794.9941849341421403
 20
-281.0955983963360154
 30
0.0
 11
3794.9941849341421403
 21
-281.0955983963360154
 31
0.0
  0
ARC
  5
C4FD
  8
0
 10
3794.2690453224731755
 20
-280.5690086504898204
 30
0.0
 40
0.0698133801187272
 50
308.1385709170257883
 51
330.5655536632305029
  0
ARC
  5
C4FE
  8
0
 10
3794.2789920896861986
 20
-280.5783550050571193
 30
0.0
 40
0.0631676824402081
 50
221.3622527224468115
 51
242.8545865944350908
  0
ARC
  5
C4FF
  8
0
 10
3794.2725473891050569
 20
-280.579062960871795
 30
0.0
 40
0.0598425196999966
 50
248.0431836566453967
 51
311.4481374650957264
  0
ARC
  5
C500
  8
0
 10
3794.2751399088051585
 20
-279.6829999687706163
 30
0.0
 40
0.0598425196990252
 50
57.8010703393215408
 51
122.1989296600025057
  0
ARC
  5
C501
  8
0
 10
3792.8495493372079181
 20
-280.1310470455048858
 30
0.0
 40
0.4691859910688013
 50
311.7143881997749872
 51
312.1702216073786076
  0
ARC
  5
C502
  8
0
 10
3792.8495493372079181
 20
-280.1310470455048858
 30
0.0
 40
0.4691859910688013
 50
47.0666090184096504
 51
228.6708999544549954
  0
ARC
  5
C503
  8
0
 10
3792.85073043950797
 20
-280.1310314672360278
 30
0.0
 40
0.3858267717000032
 50
323.7187958763512938
 51
216.2812041236487914
  0
ENDSEC
  0
EOF
