  0
SECTION
  2
HEADER
  9
$ACADVER
  1
AC1009
  9
$INSBASE
 10
3786.6551456768070238
 20
-320.9206394920734056
 30
0.0
  9
$EXTMIN
 10
3782.3677441019071921
 20
-325.2080410668734771
 30
0.0
  9
$EXTMAX
 10
3790.9425472515072215
 20
-319.6331763587734258
 30
0.0
  9
$LIMMIN
 10
0.0
 20
0.0
  9
$LIMMAX
 10
11.6929133858000007
 20
8.2677165353999982
  9
$ORTHOMODE
 70
     0
  9
$REGENMODE
 70
     1
  9
$FILLMODE
 70
     1
  9
$QTEXTMODE
 70
     0
  9
$MIRRTEXT
 70
     0
  9
$DRAGMODE
 70
     2
  9
$LTSCALE
 40
0.6431102362
  9
$OSMODE
 70
  4095
  9
$ATTMODE
 70
     1
  9
$TEXTSIZE
 40
0.2
  9
$TRACEWID
 40
0.05
  9
$TEXTSTYLE
  7
STANDARD
  9
$CLAYER
  8
0
  9
$CELTYPE
  6
BYLAYER
  9
$CECOLOR
 62
   256
  9
$DIMSCALE
 40
1.0
  9
$DIMASZ
 40
0.1875
  9
$DIMEXO
 40
0.0625
  9
$DIMDLI
 40
0.4443307087
  9
$DIMRND
 40
0.0
  9
$DIMDLE
 40
0.0
  9
$DIMEXE
 40
0.125
  9
$DIMTP
 40
0.01
  9
$DIMTM
 40
0.01
  9
$DIMTXT
 40
2.0
  9
$DIMCEN
 40
0.1052362205
  9
$DIMTSZ
 40
0.0
  9
$DIMTOL
 70
     1
  9
$DIMLIM
 70
     0
  9
$DIMTIH
 70
     1
  9
$DIMTOH
 70
     1
  9
$DIMSE1
 70
     0
  9
$DIMSE2
 70
     0
  9
$DIMTAD
 70
     0
  9
$DIMZIN
 70
     0
  9
$DIMBLK
  1

  9
$DIMASO
 70
     1
  9
$DIMSHO
 70
     1
  9
$DIMPOST
  1
\X
  9
$DIMAPOST
  1

  9
$DIMALT
 70
     1
  9
$DIMALTD
 70
     2
  9
$DIMALTF
 40
25.3999999999999986
  9
$DIMLFAC
 40
1.0
  9
$DIMTOFL
 70
     0
  9
$DIMTVP
 40
0.0
  9
$DIMTIX
 70
     0
  9
$DIMSOXD
 70
     0
  9
$DIMSAH
 70
     0
  9
$DIMBLK1
  1

  9
$DIMBLK2
  1

  9
$DIMSTYLE
  2
STANDARD
  9
$DIMCLRD
 70
     0
  9
$DIMCLRE
 70
     0
  9
$DIMCLRT
 70
     0
  9
$DIMTFAC
 40
1.0
  9
$DIMGAP
 40
0.09
  9
$LUNITS
 70
     2
  9
$LUPREC
 70
     4
  9
$SKETCHINC
 40
0.1
  9
$FILLETRAD
 40
0.0
  9
$AUNITS
 70
     0
  9
$AUPREC
 70
     0
  9
$MENU
  1
.
  9
$ELEVATION
 40
0.0
  9
$PELEVATION
 40
0.0
  9
$THICKNESS
 40
0.0
  9
$LIMCHECK
 70
     0
  9
$BLIPMODE
 70
     0
  9
$CHAMFERA
 40
0.0
  9
$CHAMFERB
 40
0.0
  9
$SKPOLY
 70
     0
  9
$TDCREATE
 40
2458060.468368056230247
  9
$TDUPDATE
 40
2459149.805960648227483
  9
$TDINDWG
 40
0.4450186343
  9
$TDUSRTIMER
 40
0.4450186343
  9
$USRTIMER
 70
     1
  9
$ANGBASE
 50
0.0
  9
$ANGDIR
 70
     0
  9
$PDMODE
 70
     0
  9
$PDSIZE
 40
0.3125
  9
$PLINEWID
 40
0.0
  9
$COORDS
 70
     1
  9
$SPLFRAME
 70
     0
  9
$SPLINETYPE
 70
     6
  9
$SPLINESEGS
 70
     8
  9
$ATTDIA
 70
     1
  9
$ATTREQ
 70
     1
  9
$HANDLING
 70
     1
  9
$HANDSEED
  5
C728
  9
$SURFTAB1
 70
     6
  9
$SURFTAB2
 70
     6
  9
$SURFTYPE
 70
     6
  9
$SURFU
 70
     6
  9
$SURFV
 70
     6
  9
$UCSNAME
  2

  9
$UCSORG
 10
0.0
 20
0.0
 30
0.0
  9
$UCSXDIR
 10
1.0
 20
0.0
 30
0.0
  9
$UCSYDIR
 10
0.0
 20
1.0
 30
0.0
  9
$PUCSNAME
  2

  9
$PUCSORG
 10
0.0
 20
0.0
 30
0.0
  9
$PUCSXDIR
 10
1.0
 20
0.0
 30
0.0
  9
$PUCSYDIR
 10
0.0
 20
1.0
 30
0.0
  9
$USERI1
 70
     0
  9
$USERI2
 70
     0
  9
$USERI3
 70
     0
  9
$USERI4
 70
     0
  9
$USERI5
 70
     0
  9
$USERR1
 40
0.0
  9
$USERR2
 40
0.0
  9
$USERR3
 40
0.0
  9
$USERR4
 40
0.0
  9
$USERR5
 40
0.0
  9
$WORLDVIEW
 70
     1
  9
$SHADEDGE
 70
     3
  9
$SHADEDIF
 70
    70
  9
$TILEMODE
 70
     1
  9
$MAXACTVP
 70
    64
  9
$PLIMCHECK
 70
     0
  9
$PEXTMIN
 10
1.0000000000000000E+20
 20
1.0000000000000000E+20
 30
1.0000000000000000E+20
  9
$PEXTMAX
 10
-1.0000000000000000E+20
 20
-1.0000000000000000E+20
 30
-1.0000000000000000E+20
  9
$PLIMMIN
 10
0.0
 20
0.0
  9
$PLIMMAX
 10
12.0
 20
9.0
  9
$UNITMODE
 70
     0
  9
$VISRETAIN
 70
     1
  9
$PLINEGEN
 70
     0
  9
$PSLTSCALE
 70
     1
  0
ENDSEC
  0
SECTION
  2
TABLES
  0
TABLE
  2
VPORT
 70
     1
  0
VPORT
  2
*ACTIVE
 70
     0
 10
0.0
 20
0.0
 11
1.0
 21
1.0
 12
0.0
 22
0.0
 13
0.0
 23
0.0
 14
1.0
 24
1.0
 15
0.0
 25
0.0
 16
0.0
 26
0.0
 36
37.5706315300112834
 17
3786.6551513671870453
 27
-322.4206085205078125
 37
0.0
 40
10.2278466635536294
 41
2.888719512195121
 42
50.0
 43
0.0
 44
0.0
 50
0.0
 51
0.0
 71
     0
 72
 10000
 73
     1
 74
     1
 75
     0
 76
     0
 77
     0
 78
     0
  0
ENDTAB
  0
TABLE
  2
LTYPE
 70
     2
  0
LTYPE
  2
CONTINUOUS
 70
     0
  3
Solid line
 72
    65
 73
     0
 40
0.0
  0
LTYPE
  2
PHANTOM2
 70
     0
  3
___ _ _ ___ _ _ ___ _ _ ___ _ _
 72
    65
 73
     6
 40
1.25
 49
0.625
 49
-0.125
 49
0.125
 49
-0.125
 49
0.125
 49
-0.125
  0
ENDTAB
  0
TABLE
  2
LAYER
 70
     2
  0
LAYER
  2
0
 70
     0
 62
   255
  6
CONTINUOUS
  0
LAYER
  2
DEFPOINTS
 70
     0
 62
     7
  6
CONTINUOUS
  0
ENDTAB
  0
TABLE
  2
STYLE
 70
     1
  0
STYLE
  2
STANDARD
 70
     0
 40
0.0
 41
0.8
 50
0.0
 71
     0
 42
0.2
  3
txt
  4

  0
ENDTAB
  0
TABLE
  2
VIEW
 70
     0
  0
ENDTAB
  0
TABLE
  2
UCS
 70
     0
  0
ENDTAB
  0
TABLE
  2
APPID
 70
    11
  0
APPID
  2
ACAD
 70
     0
  0
APPID
  2
ACAD_MLEADERVER
 70
     0
  0
APPID
  2
ACAD_EXEMPT_FROM_CAD_STANDARDS
 70
     0
  0
APPID
  2
ACAD_NAV_VCDISPLAY
 70
     0
  0
APPID
  2
ACAECLAYERSTANDARD
 70
     0
  0
APPID
  2
ACCMTRANSPARENCY
 70
     0
  0
APPID
  2
ACAD_DSTYLE_DIMJAG
 70
     0
  0
APPID
  2
ACAD_DSTYLE_DIMTALN
 70
     0
  0
APPID
  2
ACDBATTR
 70
     0
  0
APPID
  2
ACADANNOTATIVE
 70
     0
  0
APPID
  2
ACAD_PSEXT
 70
     0
  0
ENDTAB
  0
TABLE
  2
DIMSTYLE
 70
     1
  0
DIMSTYLE
  2
STANDARD
 70
     0
  3

  4

  5

  6

  7

 40
1.0
 41
0.1875
 42
0.0625
 43
0.38
 44
0.125
 45
0.0
 46
0.0
 47
0.01
 48
0.01
140
0.15625
141
0.09
142
0.0
143
25.3999999999999986
144
1.0
145
0.0
146
1.0
147
0.09
 71
     1
 72
     0
 73
     1
 74
     1
 75
     0
 76
     0
 77
     0
 78
     4
170
     0
171
     2
172
     0
173
     0
174
     0
175
     0
176
     0
177
     0
178
     0
  0
ENDTAB
  0
ENDSEC
  0
SECTION
  2
BLOCKS
  0
BLOCK
  8
0
  2
$MODEL_SPACE
 70
     0
 10
0.0
 20
0.0
 30
0.0
  3
$MODEL_SPACE
  1

  0
ENDBLK
  5
21
  8
0
  0
BLOCK
 67
     1
  8
0
  2
$PAPER_SPACE
 70
     0
 10
0.0
 20
0.0
 30
0.0
  3
$PAPER_SPACE
  1

  0
ENDBLK
  5
1D
 67
     1
  8
0
  0
BLOCK
  8
0
  2
_FILLED
 70
     0
 10
0.0
 20
0.0
 30
0.0
  3
_FILLED
  1

  0
SOLID
  5
ACE1
  8
0
  6
BYBLOCK
 62
     0
 10
0.0
 20
0.0
 30
0.0
 11
-1.0
 21
0.1666666667
 31
0.0
 12
-1.0
 22
-0.1666666667
 32
0.0
 13
-1.0
 23
-0.1666666667
 33
0.0
  0
ENDBLK
  5
ACE2
  8
0
  6
BYBLOCK
 62
     0
  0
ENDSEC
  0
SECTION
  2
ENTITIES
  0
ATTDEF
  5
9DCC
  8
DEFPOINTS
 10
3786.6552957770891226
 20
-320.9229365316493272
 30
0.0
 40
0.001
  1
K-72571BR
  3

  2
MODELNUMBER
 70
     0
1001
ACDBATTR
1070
     0
1070
     1
  0
ATTDEF
  5
9DCD
  8
DEFPOINTS
 10
3786.6552957770891226
 20
-320.9246031983158787
 30
0.0
 40
0.001
  1
ARTIFACTS
  3

  2
TRADENAME
 70
     0
1001
ACDBATTR
1070
     0
1070
     1
  0
ATTDEF
  5
9DCE
  8
DEFPOINTS
 10
3786.6552957770891226
 20
-320.9262698649826007
 30
0.0
 40
0.001
  1
TOWEL RING
  3

  2
PRODUCT
 70
     0
1001
ACDBATTR
1070
     0
1070
     1
  0
ARC
  5
C2D4
  8
0
 10
3786.6551456768070238
 20
-320.9206394920734056
 30
0.0
 40
1.2874631332999991
 50
196.7052441163594096
 51
343.2947652313516187
  0
ARC
  5
C2D5
  8
0
 10
3786.6551456768070238
 20
-320.9206394920734056
 30
0.0
 40
1.2874631332999991
 50
16.7052347640053007
 51
163.2947652359947028
  0
ARC
  5
C2D6
  8
0
 10
3786.6551456767570016
 20
-320.9206394920734056
 30
0.0
 40
0.9645669291
 50
15.1987665519748703
 51
164.8009372837977935
  0
ARC
  5
C2D7
  8
0
 10
3786.6551456767570016
 20
-320.9206394920734056
 30
0.0
 40
0.9645669291
 50
195.1987665575877884
 51
344.8012334217186208
  0
LINE
  5
C2D8
  8
0
 10
3783.6630035971861616
 20
-325.2080410668734203
 30
0.0
 11
3789.6472877562468966
 21
-325.2080410668734203
 31
0.0
  0
ARC
  5
C2D9
  8
0
 10
3789.6472716610778662
 20
-323.9127654765441093
 30
0.0
 40
1.2952755904292921
 50
270.0007119606659103
 51
0.0000000075494664
  0
LINE
  5
C2DA
  8
0
 10
3783.6630196925061682
 20
-324.5859938228733768
 30
0.0
 11
3789.6472716610069256
 21
-324.5859938227733892
 31
0.0
  0
ARC
  5
C2DB
  8
0
 10
3789.6472716609951021
 20
-323.9127654762622228
 30
0.0
 40
0.6732283465112509
 50
270.0000000009641212
 51
359.999999990532217
  0
LINE
  5
C2DC
  8
0
 10
3790.3205000075067801
 20
-323.9127654763734085
 30
0.0
 11
3790.3205000078392004
 21
-321.904891460573424
 31
0.0
  0
ARC
  5
C2DD
  8
0
 10
3789.6472716614498495
 20
-321.9048914604621814
 30
0.0
 40
0.6732283463887541
 50
359.999999990532217
 51
90.0009875811177835
  0
LINE
  5
C2DE
  8
0
 10
3789.6472600573210912
 20
-321.2316631141733865
 30
0.0
 11
3787.9071141809658911
 21
-321.231693108271088
 31
0.0
  0
LINE
  5
C2DF
  8
0
 10
3785.4031771728068634
 20
-321.2316631141733865
 30
0.0
 11
3783.6630196925061682
 21
-321.2316631140735126
 31
0.0
  0
ARC
  5
C2E0
  8
0
 10
3783.6630196924679694
 20
-321.9048914605348273
 30
0.0
 40
0.6732283464613112
 50
89.9999999967170652
 51
180.0000000032927119
  0
LINE
  5
C2E1
  8
0
 10
3782.9897913460072232
 20
-321.904891460573424
 30
0.0
 11
3782.9897913461218195
 21
-323.9127654763734085
 31
0.0
  0
ARC
  5
C2E2
  8
0
 10
3783.6630196926607823
 20
-323.9127654763346982
 30
0.0
 40
0.6732283465386875
 50
180.0000000032927119
 51
269.9999999878323251
  0
ARC
  5
C2E3
  8
0
 10
3789.6472716612479417
 20
-321.90489146033201
 30
0.0
 40
1.2952755902585831
 50
359.9999999893207132
 51
90.0000000075559825
  0
ARC
  5
C2E4
  8
0
 10
3783.6630196924361371
 20
-323.912765476544223
 30
0.0
 40
1.295275590429291
 50
179.9999999924471865
 51
269.9992880393340897
  0
ARC
  5
C2E5
  8
0
 10
3783.6630196923360927
 20
-321.9048914605027107
 30
0.0
 40
1.295275590429293
 50
89.9999999924440033
 51
180.000000003126587
  0
LINE
  5
C2E6
  8
0
 10
3785.4031771728068634
 20
-320.5623721134733728
 30
0.0
 11
3785.4031771728068634
 21
-321.2789068706733815
 31
0.0
  0
ARC
  5
C2E7
  8
0
 10
3785.4149885344108952
 20
-321.2789068706733815
 30
0.0
 40
0.0118113616048365
 50
179.9999999999967031
 51
269.9983603710418265
  0
LINE
  5
C2E8
  8
0
 10
3785.4149881964071938
 20
-321.2907182322733775
 30
0.0
 11
3785.5747136229410899
 21
-321.2907228031237992
 31
0.0
  0
ARC
  5
C2E9
  8
0
 10
3785.5747144677498
 20
-321.2612015160727879
 30
0.0
 40
0.029521287063101
 50
269.9983603710418265
 51
329.2445436913804997
  0
ARC
  5
C2EA
  8
0
 10
3785.8061755899889249
 20
-321.3989362589127836
 30
0.0
 40
0.2398207083508464
 50
109.9580149395250004
 51
149.2445436913804997
  0
ARC
  5
C2EB
  8
0
 10
3785.8063085269100156
 20
-321.4002282789326728
 30
0.0
 40
0.2410807162410653
 50
69.7070806137541297
 51
109.8829008304147976
  0
ARC
  5
C2EC
  8
0
 10
3785.8062888094627851
 20
-321.3991430181322926
 30
0.0
 40
0.2400699787891062
 50
31.3287115421948883
 51
69.6128365634154704
  0
ARC
  5
C2ED
  8
0
 10
3786.1347557687549852
 20
-321.2821419041994204
 30
0.0
 40
0.0118213512984573
 50
64.1551752119105458
 51
147.1657887340618061
  0
LINE
  5
C2EE
  8
0
 10
3786.1248229610741873
 20
-321.2757322491302716
 30
0.0
 11
3786.1248229611060196
 21
-320.5655371491512824
 31
0.0
  0
ARC
  5
C2EF
  8
0
 10
3785.8078082429628921
 20
-320.4434721539270754
 30
0.0
 40
0.2380724186701051
 50
290.1953478358709049
 51
328.7578958239453186
  0
ARC
  5
C2F0
  8
0
 10
3785.8060133548251542
 20
-320.4437204493899003
 30
0.0
 40
0.2384655938894584
 50
243.0903169129169896
 51
290.6206888912677755
  0
ARC
  5
C2F1
  8
0
 10
3785.8058634831709242
 20
-320.4425392437452729
 30
0.0
 40
0.2394520025403963
 50
210.7532367590422098
 51
243.2502128006748023
  0
ARC
  5
C2F2
  8
0
 10
3785.5747136233121637
 20
-320.5800883105845855
 30
0.0
 40
0.0295275586111732
 50
30.7726982170856793
 51
90.0000005921282735
  0
LINE
  5
C2F3
  8
0
 10
3785.5747136233121637
 20
-320.5505607519734212
 30
0.0
 11
3785.4149881964071938
 21
-320.5505607519734212
 31
0.0
  0
ARC
  5
C2F4
  8
0
 10
3785.4149881964071938
 20
-320.5623717755781854
 30
0.0
 40
0.0118110236048317
 50
90.0
 51
180.0016391438772985
  0
LINE
  5
C2F5
  8
0
 10
3786.011356197906025
 20
-320.5669497086921069
 30
0.0
 11
3786.011356197906025
 21
-321.2743192987820748
 31
0.0
  0
LINE
  5
C2F6
  8
0
 10
3785.5747136233121637
 20
-320.5505607519734212
 30
0.0
 11
3785.5747136233121637
 21
-321.2907228031239129
 31
0.0
  0
ARC
  5
C2F7
  8
0
 10
3786.1347574139931567
 20
-320.5591471807603057
 30
0.0
 40
0.0118120715506639
 50
212.7516548764075139
 51
295.8642805339130177
  0
ARC
  5
C2F8
  8
0
 10
3786.655146281495945
 20
-321.6325688080082159
 30
0.0
 40
1.181099728734617
 50
64.1361533881662211
 51
115.8638466138600052
  0
ARC
  5
C2F9
  8
0
 10
3787.1755346058539544
 20
-320.559148082137483
 30
0.0
 40
0.0118110235255042
 50
244.1361826187794009
 51
327.2522865769985856
  0
ARC
  5
C2FA
  8
0
 10
3787.503978796006777
 20
-320.4421771675733908
 30
0.0
 40
0.2400230854000013
 50
211.3212235849809133
 51
329.2273013256228182
  0
ARC
  5
C2FB
  8
0
 10
3787.7355777304787807
 20
-320.5800883108673816
 30
0.0
 40
0.0295275589939603
 50
89.9999999456229887
 51
149.2273015865548871
  0
LINE
  5
C2FC
  8
0
 10
3787.7355777305069751
 20
-320.5505607519734212
 30
0.0
 11
3787.8953031571068095
 21
-320.5505607519734212
 31
0.0
  0
ARC
  5
C2FD
  8
0
 10
3787.8953031571068095
 20
-320.5623717756060955
 30
0.0
 40
0.0118110236326761
 50
359.9957380324199789
 51
90.0
  0
LINE
  5
C2FE
  8
0
 10
3787.9071141807071399
 20
-320.5623726541733731
 30
0.0
 11
3787.9071141807071399
 21
-321.2789072086735018
 31
0.0
  0
ARC
  5
C2FF
  8
0
 10
3787.8953031571068095
 20
-321.2789072086735018
 30
0.0
 40
0.0118110236
 50
270.0
 51
0.0
  0
LINE
  5
C300
  8
0
 10
3787.8953031571068095
 20
-321.2907182322733775
 30
0.0
 11
3787.7355777305069751
 21
-321.2907182322733775
 31
0.0
  0
ARC
  5
C301
  8
0
 10
3787.7355777305069751
 20
-321.2611906731253839
 30
0.0
 40
0.0295275591480397
 50
210.7726988357582059
 51
270.0
  0
ARC
  5
C302
  8
0
 10
3787.5039787960199646
 20
-321.3991018174680789
 30
0.0
 40
0.240023085794939
 50
30.7726988357582307
 51
148.6780144706870033
  0
ARC
  5
C303
  8
0
 10
3787.1755346057220777
 20
-321.2821309023080971
 30
0.0
 40
0.011811023724003
 50
32.7544940620758283
 51
115.8703343512926978
  0
ARC
  5
C304
  8
0
 10
3786.6551456767610944
 20
-320.2090185126332926
 30
0.0
 40
1.180822548777883
 50
244.1296656697876983
 51
295.8703343512926836
  0
LINE
  5
C305
  8
0
 10
3787.7355777305069751
 20
-320.5505607518733768
 30
0.0
 11
3787.7355777305069751
 21
-321.2907182322733775
 31
0.0
  0
LINE
  5
C306
  8
0
 10
3787.1854683924070741
 20
-320.5655371479101063
 30
0.0
 11
3787.1854683924070741
 21
-321.2757418322020726
 31
0.0
  0
LINE
  5
C307
  8
0
 10
3787.2989351556070687
 20
-320.566949708849279
 30
0.0
 11
3787.2989351556070687
 21
-321.2743292660903194
 31
0.0
  0
LINE
  5
C308
  8
0
 10
3790.9425472515072215
 20
-321.9048914604027232
 30
0.0
 11
3790.9425472515072215
 21
-323.9127654763734085
 31
0.0
  0
LINE
  5
C309
  8
0
 62
     1
 10
3790.9425472515072215
 20
-323.9127654763734085
 30
0.0
 11
3790.9425472515072215
 21
-323.9127654763734085
 31
0.0
  0
LINE
  5
C30A
  8
0
 10
3782.3677441020067818
 20
-321.904891460573424
 30
0.0
 11
3782.3677441020067818
 21
-323.9127654763734085
 31
0.0
  0
ARC
  5
C30B
  8
0
 10
3786.6551456766478623
 20
-320.9204525356478825
 30
0.0
 40
0.5076870617388424
 50
60.631880998469903
 51
119.3682163318789975
  0
ARC
  5
C30C
  8
0
 10
3786.6551456768070238
 20
-320.9208265261626138
 30
0.0
 40
0.5076869792466902
 50
240.6410829651985921
 51
299.3589170420955838
  0
ARC
  5
C30D
  8
0
 10
3787.2417598499728228
 20
-320.6017418541620145
 30
0.0
 40
0.0669291337885447
 50
31.3212235461853901
 51
147.2522866214432042
  0
ARC
  5
C30E
  8
0
 10
3787.2417598499728228
 20
-321.239537129611108
 30
0.0
 40
0.0669291341623719
 50
212.7465172105918043
 51
328.681508176886382
  0
ARC
  5
C30F
  8
0
 10
3786.0685313660619613
 20
-321.23954817037162
 30
0.0
 40
0.066918093401969
 50
211.3059122181090004
 51
327.2672046095198084
  0
ARC
  5
C310
  8
0
 10
3786.0685315035539134
 20
-320.6017418541870825
 30
0.0
 40
0.0669291338136429
 50
32.7473582112128767
 51
148.6787765802658896
  0
LINE
  5
C311
  8
0
 10
3789.6472716610778662
 20
-320.6096158700734122
 30
0.0
 11
3787.9071141807071399
 21
-320.6096158700734122
 31
0.0
  0
LINE
  5
C312
  8
0
 10
3785.4031771728068634
 20
-320.6096158700734122
 30
0.0
 11
3783.6630196925061682
 21
-320.6096158700734122
 31
0.0
  0
ENDSEC
  0
EOF
