  0
SECTION
  2
HEADER
  9
$ACADVER
  1
AC1009
  9
$INSBASE
 10
3745.7967677210472175
 20
19.1744425849172018
 30
0.0
  9
$EXTMIN
 10
3732.1665060226678179
 20
15.0711346922879503
 30
-0.0015258207003583
  9
$EXTMAX
 10
3759.4136173065239745
 20
19.1800074505100611
 30
0.0000000349246037
  9
$LIMMIN
 10
0.0
 20
0.0
  9
$LIMMAX
 10
11.6929133858000007
 20
8.2677165353999982
  9
$ORTHOMODE
 70
     1
  9
$REGENMODE
 70
     1
  9
$FILLMODE
 70
     1
  9
$QTEXTMODE
 70
     0
  9
$MIRRTEXT
 70
     0
  9
$DRAGMODE
 70
     2
  9
$LTSCALE
 40
0.6431102362
  9
$OSMODE
 70
  4095
  9
$ATTMODE
 70
     1
  9
$TEXTSIZE
 40
0.2
  9
$TRACEWID
 40
0.05
  9
$TEXTSTYLE
  7
STANDARD
  9
$CLAYER
  8
0
  9
$CELTYPE
  6
BYLAYER
  9
$CECOLOR
 62
   256
  9
$DIMSCALE
 40
1.0
  9
$DIMASZ
 40
0.1875
  9
$DIMEXO
 40
0.0625
  9
$DIMDLI
 40
0.4443307087
  9
$DIMRND
 40
0.0
  9
$DIMDLE
 40
0.0
  9
$DIMEXE
 40
0.125
  9
$DIMTP
 40
0.01
  9
$DIMTM
 40
0.01
  9
$DIMTXT
 40
2.0
  9
$DIMCEN
 40
0.1052362205
  9
$DIMTSZ
 40
0.0
  9
$DIMTOL
 70
     1
  9
$DIMLIM
 70
     0
  9
$DIMTIH
 70
     1
  9
$DIMTOH
 70
     1
  9
$DIMSE1
 70
     0
  9
$DIMSE2
 70
     0
  9
$DIMTAD
 70
     0
  9
$DIMZIN
 70
     0
  9
$DIMBLK
  1

  9
$DIMASO
 70
     1
  9
$DIMSHO
 70
     1
  9
$DIMPOST
  1
\X
  9
$DIMAPOST
  1

  9
$DIMALT
 70
     1
  9
$DIMALTD
 70
     2
  9
$DIMALTF
 40
25.3999999999999986
  9
$DIMLFAC
 40
1.0
  9
$DIMTOFL
 70
     0
  9
$DIMTVP
 40
0.0
  9
$DIMTIX
 70
     0
  9
$DIMSOXD
 70
     0
  9
$DIMSAH
 70
     0
  9
$DIMBLK1
  1

  9
$DIMBLK2
  1

  9
$DIMSTYLE
  2
STANDARD
  9
$DIMCLRD
 70
     0
  9
$DIMCLRE
 70
     0
  9
$DIMCLRT
 70
     0
  9
$DIMTFAC
 40
1.0
  9
$DIMGAP
 40
0.09
  9
$LUNITS
 70
     2
  9
$LUPREC
 70
     4
  9
$SKETCHINC
 40
0.1
  9
$FILLETRAD
 40
0.0
  9
$AUNITS
 70
     0
  9
$AUPREC
 70
     0
  9
$MENU
  1
.
  9
$ELEVATION
 40
0.0
  9
$PELEVATION
 40
0.0
  9
$THICKNESS
 40
0.0
  9
$LIMCHECK
 70
     0
  9
$BLIPMODE
 70
     0
  9
$CHAMFERA
 40
0.0
  9
$CHAMFERB
 40
0.0
  9
$SKPOLY
 70
     0
  9
$TDCREATE
 40
2458060.468368056230247
  9
$TDUPDATE
 40
2459844.7279282407835126
  9
$TDINDWG
 40
0.4677501157
  9
$TDUSRTIMER
 40
0.4677501157
  9
$USRTIMER
 70
     1
  9
$ANGBASE
 50
0.0
  9
$ANGDIR
 70
     0
  9
$PDMODE
 70
     0
  9
$PDSIZE
 40
0.3125
  9
$PLINEWID
 40
0.0
  9
$COORDS
 70
     1
  9
$SPLFRAME
 70
     0
  9
$SPLINETYPE
 70
     6
  9
$SPLINESEGS
 70
     8
  9
$ATTDIA
 70
     1
  9
$ATTREQ
 70
     1
  9
$HANDLING
 70
     1
  9
$HANDSEED
  5
E742
  9
$SURFTAB1
 70
     6
  9
$SURFTAB2
 70
     6
  9
$SURFTYPE
 70
     6
  9
$SURFU
 70
     6
  9
$SURFV
 70
     6
  9
$UCSNAME
  2

  9
$UCSORG
 10
0.0
 20
0.0
 30
0.0
  9
$UCSXDIR
 10
1.0
 20
0.0
 30
0.0
  9
$UCSYDIR
 10
0.0
 20
1.0
 30
0.0
  9
$PUCSNAME
  2

  9
$PUCSORG
 10
0.0
 20
0.0
 30
0.0
  9
$PUCSXDIR
 10
1.0
 20
0.0
 30
0.0
  9
$PUCSYDIR
 10
0.0
 20
1.0
 30
0.0
  9
$USERI1
 70
     0
  9
$USERI2
 70
     0
  9
$USERI3
 70
     0
  9
$USERI4
 70
     0
  9
$USERI5
 70
     0
  9
$USERR1
 40
0.0
  9
$USERR2
 40
0.0
  9
$USERR3
 40
0.0
  9
$USERR4
 40
0.0
  9
$USERR5
 40
0.0
  9
$WORLDVIEW
 70
     1
  9
$SHADEDGE
 70
     3
  9
$SHADEDIF
 70
    70
  9
$TILEMODE
 70
     1
  9
$MAXACTVP
 70
    64
  9
$PLIMCHECK
 70
     0
  9
$PEXTMIN
 10
1.0000000000000000E+20
 20
1.0000000000000000E+20
 30
1.0000000000000000E+20
  9
$PEXTMAX
 10
-1.0000000000000000E+20
 20
-1.0000000000000000E+20
 30
-1.0000000000000000E+20
  9
$PLIMMIN
 10
0.0
 20
0.0
  9
$PLIMMAX
 10
12.0
 20
9.0
  9
$UNITMODE
 70
     0
  9
$VISRETAIN
 70
     1
  9
$PLINEGEN
 70
     0
  9
$PSLTSCALE
 70
     1
  0
ENDSEC
  0
SECTION
  2
TABLES
  0
TABLE
  2
VPORT
 70
     1
  0
VPORT
  2
*ACTIVE
 70
     0
 10
0.0
 20
0.0
 11
1.0
 21
1.0
 12
-83.5376971244659217
 22
-73.7674724466673979
 13
0.0
 23
0.0
 14
1.0
 24
1.0
 15
0.0
 25
0.0
 16
0.0
 26
0.0
 36
327.1425206445442768
 17
3829.3277587890629547
 27
90.8930435180664063
 37
0.0
 40
11.9714027038352402
 41
2.2831541218637992
 42
50.0
 43
0.0
 44
0.0
 50
0.0
 51
0.0
 71
     0
 72
   100
 73
     1
 74
     1
 75
     0
 76
     0
 77
     0
 78
     2
  0
ENDTAB
  0
TABLE
  2
LTYPE
 70
     2
  0
LTYPE
  2
CONTINUOUS
 70
     0
  3
Solid line
 72
    65
 73
     0
 40
0.0
  0
LTYPE
  2
PHANTOM2
 70
     0
  3
___ _ _ ___ _ _ ___ _ _ ___ _ _
 72
    65
 73
     6
 40
1.25
 49
0.625
 49
-0.125
 49
0.125
 49
-0.125
 49
0.125
 49
-0.125
  0
ENDTAB
  0
TABLE
  2
LAYER
 70
     2
  0
LAYER
  2
0
 70
     0
 62
   255
  6
CONTINUOUS
  0
LAYER
  2
DEFPOINTS
 70
     0
 62
     7
  6
CONTINUOUS
  0
ENDTAB
  0
TABLE
  2
STYLE
 70
     1
  0
STYLE
  2
STANDARD
 70
     0
 40
0.0
 41
0.8
 50
0.0
 71
     0
 42
0.2
  3
txt
  4

  0
ENDTAB
  0
TABLE
  2
VIEW
 70
     0
  0
ENDTAB
  0
TABLE
  2
UCS
 70
     0
  0
ENDTAB
  0
TABLE
  2
APPID
 70
     9
  0
APPID
  2
ACAD
 70
     0
  0
APPID
  2
ACAD_MLEADERVER
 70
     0
  0
APPID
  2
ACAD_EXEMPT_FROM_CAD_STANDARDS
 70
     0
  0
APPID
  2
ACAD_NAV_VCDISPLAY
 70
     0
  0
APPID
  2
ACAECLAYERSTANDARD
 70
     0
  0
APPID
  2
ACCMTRANSPARENCY
 70
     0
  0
APPID
  2
ACAD_DSTYLE_DIMJAG
 70
     0
  0
APPID
  2
ACAD_DSTYLE_DIMTALN
 70
     0
  0
APPID
  2
ACDBATTR
 70
     0
  0
ENDTAB
  0
TABLE
  2
DIMSTYLE
 70
     1
  0
DIMSTYLE
  2
STANDARD
 70
     0
  3

  4

  5

  6

  7

 40
1.0
 41
0.1875
 42
0.0625
 43
0.38
 44
0.125
 45
0.0
 46
0.0
 47
0.01
 48
0.01
140
0.15625
141
0.09
142
0.0
143
25.3999999999999986
144
1.0
145
0.0
146
1.0
147
0.09
 71
     1
 72
     0
 73
     1
 74
     1
 75
     0
 76
     0
 77
     0
 78
     4
170
     0
171
     2
172
     0
173
     0
174
     0
175
     0
176
     0
177
     0
178
     0
  0
ENDTAB
  0
ENDSEC
  0
SECTION
  2
BLOCKS
  0
BLOCK
  8
0
  2
$MODEL_SPACE
 70
     0
 10
0.0
 20
0.0
 30
0.0
  3
$MODEL_SPACE
  1

  0
ENDBLK
  5
21
  8
0
  0
BLOCK
 67
     1
  8
0
  2
$PAPER_SPACE
 70
     0
 10
0.0
 20
0.0
 30
0.0
  3
$PAPER_SPACE
  1

  0
ENDBLK
  5
1D
 67
     1
  8
0
  0
BLOCK
  8
0
  2
_FILLED
 70
     0
 10
0.0
 20
0.0
 30
0.0
  3
_FILLED
  1

  0
SOLID
  5
E1EB
  8
0
  6
BYBLOCK
 62
     0
 10
0.0
 20
0.0
 30
0.0
 11
-1.0
 21
0.1666666667
 31
0.0
 12
-1.0
 22
-0.1666666667
 32
0.0
 13
-1.0
 23
-0.1666666667
 33
0.0
  0
ENDBLK
  5
E1EC
  8
0
  6
BYBLOCK
 62
     0
  0
ENDSEC
  0
SECTION
  2
ENTITIES
  0
ATTDEF
  5
BC50
  8
DEFPOINTS
 10
3745.7972408563650788
 20
19.1784220963415883
 30
0.0
 40
0.001
  1
K-72568BR
  3

  2
MODELNUMBER
 70
     0
1001
ACDBATTR
1070
     0
1070
     1
  0
ATTDEF
  5
BC51
  8
DEFPOINTS
 10
3745.7972408563650788
 20
19.1767554296749303
 30
0.0
 40
0.001
  1
ARTIFACTS
  3

  2
TRADENAME
 70
     0
1001
ACDBATTR
1070
     0
1070
     1
  0
ATTDEF
  5
BC52
  8
DEFPOINTS
 10
3745.7972408563650788
 20
19.1750887630082616
 30
0.0
 40
0.001
  1
TOWEL BAR
  3

  2
PRODUCT
 70
     0
1001
ACDBATTR
1070
     0
1070
     1
  0
LINE
  5
E2F2
  8
0
 10
3755.5842202179428568
 20
15.2229408113171605
 30
0.0
 11
3736.0093523139030367
 21
15.2229408113171694
 31
0.0
  0
LINE
  5
E2F3
  8
0
 10
3755.5842202179428568
 20
16.0890825436171809
 30
0.0
 11
3736.0093523139030367
 21
16.0890825436171809
 31
0.0
  0
LINE
  5
E2F4
  8
0
 10
3734.1440715784351596
 20
16.4591612838172097
 30
0.0
 11
3733.4488200163968941
 21
16.4591612838172097
 31
0.0
  0
LINE
  5
E2F5
  8
0
 10
3734.1383209062760216
 20
16.5630982916171909
 30
0.0
 11
3733.4424231357970712
 21
16.5630982916171909
 31
0.0
  0
LINE
  5
E2F6
  8
0
 10
3732.6178109411707737
 20
18.7627490748171901
 30
0.0
 11
3732.6178109412599042
 21
18.8248888419787015
 31
0.0
  0
LINE
  5
E2F7
  8
0
 10
3733.2342538443967896
 20
17.8927863946172003
 30
0.0
 11
3733.2342538443967896
 21
17.7365038895171914
 31
0.0
  0
LINE
  5
E2F8
  8
0
 10
3733.2849978764970729
 20
18.0088697887450984
 30
0.0
 11
3733.2849978764970729
 21
17.9568808023172011
 31
0.0
  0
LINE
  5
E2F9
  8
0
 10
3733.3046278601968879
 20
17.59577545701719
 30
0.0
 11
3733.3046278601968879
 21
17.6587675830171911
 31
0.0
  0
LINE
  5
E2FA
  8
0
 10
3734.2593462921968239
 20
17.5662478979171901
 30
0.0
 11
3733.3341554191970317
 21
17.5662478979171901
 31
0.0
  0
LINE
  5
E2FB
  8
0
 10
3733.3341554191970317
 20
17.6882951420171892
 30
0.0
 11
3733.3020285421971494
 21
17.6882951420171892
 31
0.0
  0
LINE
  5
E2FC
  8
0
 10
3733.4030530569971233
 20
17.4922185267171884
 30
0.0
 11
3733.4030530569971233
 21
17.5367173491154915
 31
0.0
  0
LINE
  5
E2FD
  8
0
 10
3733.4424231357970712
 20
16.5630982916171909
 30
0.0
 11
3733.4424231357970712
 21
16.6457447510171903
 31
0.0
  0
LINE
  5
E2FE
  8
0
 10
3733.501478253896039
 20
16.4591612838172097
 30
0.0
 11
3733.5014783226802138
 21
15.6558914506401106
 31
0.0
  0
LINE
  5
E2FF
  8
0
 10
3733.2921859150969794
 20
17.6909324372171994
 30
0.0
 11
3733.2447538443971098
 21
17.7183173560171916
 31
0.0
  0
LINE
  5
E300
  8
0
 10
3733.1927883169969391
 20
18.0390778234171982
 30
0.0
 11
3733.2549980200501523
 21
18.039078234211221
 31
0.0
  0
LINE
  5
E301
  8
0
 10
3733.2447538443971098
 20
17.9109729280171983
 30
0.0
 11
3733.2651705393968768
 21
17.9227605124171987
 31
0.0
  0
LINE
  5
E302
  8
0
 10
3734.9989934324289607
 20
18.8541129995171985
 30
0.0
 11
3732.594593871996949
 21
18.8541129995171985
 31
0.0
  0
LINE
  5
E303
  8
0
 10
3732.2958167563160714
 20
19.1744425849172018
 30
0.0
 11
3735.2977186856778644
 21
19.1744425849172018
 31
0.0
  0
ARC
  5
E304
  8
0
 10
3733.3833680176971939
 20
16.6457447510171903
 30
0.0
 40
0.0590551181
 50
0.0
 51
55.0248542171793034
  0
ARC
  5
E305
  8
0
 10
3733.4488200163968941
 20
16.5113266381172004
 30
0.0
 40
0.0521653543
 50
97.0437382838075138
 51
270.0
  0
ARC
  5
E306
  8
0
 10
3733.7146467644802215
 20
17.071497351015779
 30
0.0
 40
0.5016586884230541
 50
131.5065053247894014
 51
176.2323629531805125
  0
ARC
  5
E307
  8
0
 10
3733.7772146259258079
 20
17.1278144817024298
 30
0.0
 40
0.5636263421518094
 50
182.3746424099718126
 51
230.3041481109405026
  0
ARC
  5
E308
  8
0
 10
3733.3439979388967913
 20
17.4922185267171884
 30
0.0
 40
0.0590551181
 50
310.3010399836343822
 51
0.0
  0
ARC
  5
E309
  8
0
 10
3733.2549986189969786
 20
18.0090782525171988
 30
0.0
 40
0.0299999817
 50
359.601860076841092
 51
90.0011439055924996
  0
ARC
  5
E30A
  8
0
 10
3733.1937458571637762
 20
18.1299386126070203
 30
0.0
 40
0.0305038369565729
 50
98.2772421633316355
 51
130.2567230482841012
  0
ARC
  5
E30B
  8
0
 10
3733.192785644183914
 20
18.0690890491726215
 30
0.0
 40
0.0300112258743517
 50
228.5665253163662101
 51
270.0051027871915039
  0
ARC
  5
E30C
  8
0
 10
3733.1851408080960937
 20
18.1898272028171988
 30
0.0
 40
0.0299998952
 50
278.0741476405830781
 51
336.3818164731976026
  0
ARC
  5
E30D
  8
0
 10
3733.3341554191970317
 20
17.6587675830171911
 30
0.0
 40
0.0295275591
 50
90.0
 51
180.0
  0
ARC
  5
E30E
  8
0
 10
3733.3341554191970317
 20
17.59577545701719
 30
0.0
 40
0.0295275591
 50
180.0
 51
270.0
  0
ARC
  5
E30F
  8
0
 10
3733.37352549799607
 20
17.5367203389171884
 30
0.0
 40
0.0295275591
 50
359.9941985377549258
 51
90.0
  0
ARC
  5
E310
  8
0
 10
3733.3020284347990128
 20
17.7079801814218705
 30
0.0
 40
0.019685039404968
 50
240.0000000020777975
 51
270.0003125959271983
  0
ARC
  5
E311
  8
0
 10
3733.2575467391679922
 20
17.7378276932110417
 30
0.0
 40
0.0233304822718308
 50
183.2527884672880134
 51
236.7472122725986026
  0
ARC
  5
E312
  8
0
 10
3733.2575467394058251
 20
17.891462590948791
 30
0.0
 40
0.0233304825080305
 50
123.2527869394188968
 51
176.7472116282843899
  0
ARC
  5
E313
  8
0
 10
3733.2452692454539829
 20
17.9571461640292789
 30
0.0
 40
0.03972951725549
 50
300.0608591698850205
 51
359.61730672189492
  0
ARC
  5
E314
  8
0
 10
3733.2175029845020617
 20
18.0994458419548003
 30
0.0
 40
0.0691447020577142
 50
128.9519800751511127
 51
229.8571603573190032
  0
ARC
  5
E315
  8
0
 10
3732.8724641755570701
 20
18.301413895010409
 30
0.0
 40
0.3619249692395601
 50
340.0302851166377991
 51
67.2255014945737344
  0
ARC
  5
E316
  8
0
 10
3732.6478249982701527
 20
18.7627618653268016
 30
0.0
 40
0.0300140598246622
 50
180.024416631572592
 51
266.75540872766652
  0
ARC
  5
E317
  8
0
 10
3732.587821050823095
 20
18.8248978921521903
 30
0.0
 40
0.0299898917137756
 50
359.982709615716999
 51
76.9479101243465351
  0
ARC
  5
E318
  8
0
 10
3732.6780112700739664
 20
19.3008239781533995
 30
0.0
 40
0.4544327901197295
 50
228.0664899426745933
 51
259.4225911843694234
  0
ARC
  5
E319
  8
0
 10
3732.5861001281368772
 20
19.1617167142723588
 30
0.0
 40
0.2905687860572896
 50
180.0042965682310978
 51
223.2126529780948943
  0
ARC
  5
E31A
  8
0
 10
3732.5580233629748363
 20
17.6660455002870904
 30
0.0
 40
1.070382441319603
 50
64.8711359848750249
 51
85.27865883561212
  0
LINE
  5
E31B
  8
0
 10
3733.2549980200501523
 20
18.039078234211221
 30
0.0
 11
3734.3385090697970554
 21
18.0390782342172002
 31
0.0
  0
LINE
  5
E31C
  8
0
 10
3734.4043917479662014
 20
18.1600854001044993
 30
0.0
 11
3733.189354428848219
 21
18.1601246926171989
 31
0.0
  0
ARC
  5
E31D
  8
0
 10
3734.1861171400619241
 20
18.2419767658902288
 30
0.0
 40
0.5235051561578768
 50
252.1742107458472049
 51
287.7052032646079169
  0
ARC
  5
E31E
  8
0
 10
3733.7980598534750243
 20
18.7695894503074108
 30
0.0
 40
1.0509702913840111
 50
257.5252439445844175
 51
282.518333744010306
  0
ARC
  5
E31F
  8
0
 10
3733.4093373975479153
 20
18.2832159649576198
 30
0.0
 40
0.5634850516090941
 50
253.3847961244912881
 51
286.6766027376569923
  0
ARC
  5
E320
  8
0
 10
3734.1861171400619241
 20
17.3873135181441398
 30
0.0
 40
0.5235051561578768
 50
72.2967871704826734
 51
107.8257892541527951
  0
ARC
  5
E321
  8
0
 10
3733.7980598534750243
 20
16.8597008337269614
 30
0.0
 40
1.0509702913840111
 50
77.4816662559897793
 51
102.4747560554155967
  0
ARC
  5
E322
  8
0
 10
3733.4093373975479153
 20
17.3460743190767808
 30
0.0
 40
0.5634850516090941
 50
73.3233972623430219
 51
106.615203875483104
  0
ARC
  5
E323
  8
0
 10
3733.2591222273681524
 20
17.7553347000270101
 30
0.0
 40
0.0162742758147949
 50
184.4594452987471982
 51
227.9069549456546895
  0
ARC
  5
E324
  8
0
 10
3733.2591222221931275
 20
17.8739555809684312
 30
0.0
 40
0.0162742745337819
 50
132.0930241010597967
 51
175.5405457367664894
  0
LINE
  5
E325
  8
0
 10
3733.2428972162961145
 20
17.8752209644171494
 30
0.0
 11
3733.2428972199968484
 21
17.7540693190172298
 31
0.0
  0
LINE
  5
E326
  8
0
 10
3733.5710403422967829
 20
17.7434312291171992
 30
0.0
 11
3733.5710403421840056
 21
17.8858590549508101
 31
0.0
  0
LINE
  5
E327
  8
0
 10
3734.0258597683277912
 20
17.74360419107391
 30
0.0
 11
3734.0258597683277912
 21
17.8856860929604515
 31
0.0
  0
LINE
  5
E328
  8
0
 10
3734.9266566037281336
 20
16.0258513806171905
 30
0.0
 11
3734.9266566037281336
 21
15.2861719743171793
 31
0.0
  0
LINE
  5
E329
  8
0
 10
3735.1392550289551764
 20
16.0359329373171811
 30
0.0
 11
3735.1392550289551764
 21
15.2760904176171994
 31
0.0
  0
LINE
  5
E32A
  8
0
 10
3735.7220109526301712
 20
15.1321838188171807
 30
0.0
 11
3735.7220109526301712
 21
16.1798395361171785
 31
0.0
  0
LINE
  5
E32B
  8
0
 10
3735.8446705840028699
 20
15.1079932130171901
 30
0.0
 11
3735.8446705840028699
 21
16.2040301418171815
 31
0.0
  0
LINE
  5
E32C
  8
0
 10
3736.0093523141031255
 20
15.1697912050171801
 30
0.0
 11
3736.0093523141031255
 21
16.1422321499171701
 31
0.0
  0
LINE
  5
E32D
  8
0
 10
3735.8973022058030438
 20
15.1402636459171909
 30
0.0
 11
3735.9798247550029373
 21
15.1402636459171909
 31
0.0
  0
LINE
  5
E32E
  8
0
 10
3735.1392550289551764
 20
15.2760904176171994
 30
0.0
 11
3735.2457839823027825
 21
15.2760904176171994
 31
0.0
  0
LINE
  5
E32F
  8
0
 10
3733.7955635344551411
 20
15.3607360870048204
 30
0.0
 11
3734.8676338627519726
 21
15.3607360869217597
 31
0.0
  0
LINE
  5
E330
  8
0
 10
3734.0920240712539453
 20
15.9512870038949899
 30
0.0
 11
3734.8676338495401978
 21
15.9512872493338005
 31
0.0
  0
LINE
  5
E331
  8
0
 10
3735.1392550289551764
 20
16.0359329373171811
 30
0.0
 11
3735.2457839823027825
 21
16.0359329373171811
 31
0.0
  0
LINE
  5
E332
  8
0
 10
3735.8973022058030438
 20
16.171759708917179
 30
0.0
 11
3735.9798247550029373
 21
16.171759708917179
 31
0.0
  0
ARC
  5
E333
  8
0
 10
3735.388641933002873
 20
15.0007778414171895
 30
0.0
 40
0.3700787402
 50
33.9156878928064032
 51
72.4347470725951297
  0
ARC
  5
E334
  8
0
 10
3735.4349800397030776
 20
15.1471620175171893
 30
0.0
 40
0.2165354331
 50
72.4347470725951297
 51
129.4700055112936923
  0
ARC
  5
E335
  8
0
 10
3735.033194896977875
 20
15.2861728945215507
 30
0.0
 40
0.1065382932545956
 50
180.0004948814626005
 51
354.5695659629485021
  0
ARC
  5
E336
  8
0
 10
3735.3589493254039553
 20
15.2394930873172001
 30
0.0
 40
0.0969290119
 50
129.470005511195609
 51
146.1267076103935949
  0
ARC
  5
E337
  8
0
 10
3735.2457839823027825
 20
15.3154604963171792
 30
0.0
 40
0.0393700787
 50
270.0
 51
326.1267076103940212
  0
ARC
  5
E338
  8
0
 10
3735.388641933002873
 20
16.3112455135171892
 30
0.0
 40
0.3700787402
 50
287.565252927404913
 51
326.0843121071933979
  0
ARC
  5
E339
  8
0
 10
3735.4349800397030776
 20
16.1648613374171894
 30
0.0
 40
0.2165354331
 50
230.529994488706194
 51
287.565252927404913
  0
ARC
  5
E33A
  8
0
 10
3735.033194896977875
 20
16.0258504604128298
 30
0.0
 40
0.1065382932545953
 50
5.4304340370514828
 51
179.9995051185370869
  0
ARC
  5
E33B
  8
0
 10
3735.3589493254039553
 20
16.0725302676171893
 30
0.0
 40
0.0969290119
 50
213.8732923896062914
 51
230.529994488804391
  0
ARC
  5
E33C
  8
0
 10
3735.2457839823027825
 20
15.9965628585171906
 30
0.0
 40
0.0393700787
 50
33.8732923896059717
 51
90.0
  0
ARC
  5
E33D
  8
0
 10
3735.5653252881002118
 20
15.1195303454736596
 30
0.0
 40
0.1571957628341576
 50
4.6170190682362771
 51
33.9290020172528912
  0
ARC
  5
E33E
  8
0
 10
3735.7867688343221744
 20
15.1374706898383593
 30
0.0
 40
0.0649733348894315
 50
184.6673095332072876
 51
333.0195945156763742
  0
ARC
  5
E33F
  8
0
 10
3735.8973022058030438
 20
15.0812085278171892
 30
0.0
 40
0.0590551181
 50
90.0
 51
153.0280652285943859
  0
ARC
  5
E340
  8
0
 10
3735.9798247550029373
 20
15.1697912050171801
 30
0.0
 40
0.0295275591
 50
270.0
 51
0.0
  0
ARC
  5
E341
  8
0
 10
3735.5653252881002118
 20
16.1924930094607191
 30
0.0
 40
0.1571957628341503
 50
326.0709979827461211
 51
355.382980931763484
  0
ARC
  5
E342
  8
0
 10
3735.7867688343221744
 20
16.174552665095991
 30
0.0
 40
0.0649733348894287
 50
26.9804054843232493
 51
175.3326904667925987
  0
ARC
  5
E343
  8
0
 10
3735.8973022058030438
 20
16.2308148270171806
 30
0.0
 40
0.0590551181
 50
206.9719347714055004
 51
270.0
  0
ARC
  5
E344
  8
0
 10
3735.9798247550029373
 20
16.1422321499171701
 30
0.0
 40
0.0295275591
 50
0.0
 51
90.0
  0
ARC
  5
E345
  8
0
 10
3733.7967539743858651
 20
15.6560093625425001
 30
0.0
 40
0.2952756752493922
 50
180.022879820823789
 51
0.439145892916871
  0
LINE
  5
E346
  8
0
 10
3734.9757164891279899
 20
18.7627367246801811
 30
0.0
 11
3734.9757171400760853
 21
18.8248764918382889
 31
0.0
  0
LINE
  5
E347
  8
0
 10
3734.3592688624380571
 20
17.8927805020505986
 30
0.0
 11
3734.3592672252962075
 21
17.7364979969591694
 31
0.0
  0
LINE
  5
E348
  8
0
 10
3734.3085260463772102
 20
18.0088644277429815
 30
0.0
 11
3734.308525501764052
 21
17.9568754413179299
 31
0.0
  0
LINE
  5
E349
  8
0
 10
3734.2888917352938734
 20
17.5957703016722995
 30
0.0
 11
3734.2888923951700235
 21
17.6587624276688508
 31
0.0
  0
LINE
  5
E34A
  8
0
 10
3734.2593651454890278
 20
17.6882902959841708
 30
0.0
 11
3734.2914920224870912
 21
17.6882899594379808
 31
0.0
  0
LINE
  5
E34B
  8
0
 10
3734.1904654536861017
 20
17.492214402434481
 30
0.0
 11
3734.1904659198339687
 21
17.5367132248303292
 31
0.0
  0
LINE
  5
E34C
  8
0
 10
3734.1510856418572075
 20
16.5630945798080589
 30
0.0
 11
3734.1510865076229493
 21
16.6457410392035285
 31
0.0
  0
LINE
  5
E34D
  8
0
 10
3734.0920294349648429
 20
16.4591581906476989
 30
0.0
 11
3734.0920209766800326
 21
15.6582724931186998
 31
0.0
  0
LINE
  5
E34E
  8
0
 10
3734.3013346772140721
 20
17.6909271515310706
 30
0.0
 11
3734.3487670347831227
 21
17.7183115734532812
 31
0.0
  0
LINE
  5
E34F
  8
0
 10
3734.400735922316926
 20
18.0390714964690311
 30
0.0
 11
3734.3385090697970554
 21
18.0390782342172002
 31
0.0
  0
LINE
  5
E350
  8
0
 10
3734.3487690529518659
 20
17.9109671454427115
 30
0.0
 11
3734.3283524814360135
 21
17.9227549437178517
 31
0.0
  0
ARC
  5
E351
  8
0
 10
3734.2101416257200981
 20
16.64574042056962
 30
0.0
 40
0.0590551181
 50
124.9745455789453956
 51
179.9993997961072125
  0
ARC
  5
E352
  8
0
 10
3734.1446882189211465
 20
16.5113229933216488
 30
0.0
 40
0.0521653543
 50
269.3226975891877828
 51
97.011016503279933
  0
ARC
  5
E353
  8
0
 10
3733.9034464794908672
 20
17.0841609021891507
 30
0.0
 40
0.4759910774999999
 50
304.9745455789558264
 51
49.6983598124684889
  0
ARC
  5
E354
  8
0
 10
3734.2495205717818862
 20
17.4922137838005796
 30
0.0
 40
0.0590551181
 50
179.9993997961072125
 51
229.6983598124685955
  0
ARC
  5
E355
  8
0
 10
3734.3385349598961511
 20
18.009068637150289
 30
0.0
 40
0.030009608234954
 50
90.0494306229325758
 51
180.3898893763225999
  0
ARC
  5
E356
  8
0
 10
3734.3997793339658529
 20
18.1299322956846112
 30
0.0
 40
0.0305038369565729
 50
49.7426767478060796
 51
81.7221576327876846
  0
ARC
  5
E357
  8
0
 10
3734.4007389095140752
 20
18.0690827221947998
 30
0.0
 40
0.0300112258743517
 50
269.994297008890328
 51
311.4328744797314243
  0
ARC
  5
E358
  8
0
 10
3734.408385010397069
 20
18.1898207957490285
 30
0.0
 40
0.0299998952
 50
203.6175833229087004
 51
261.9252521554965938
  0
ARC
  5
E359
  8
0
 10
3734.2593648361721534
 20
17.6587627369857891
 30
0.0
 40
0.0295275591
 50
359.9993997961072978
 51
89.9993997961105237
  0
ARC
  5
E35A
  8
0
 10
3734.2593724296780238
 20
17.5957671922247094
 30
0.0
 40
0.0295193058790667
 50
269.9492681975241908
 51
0.0060353120690404
  0
ARC
  5
E35B
  8
0
 10
3734.2199934788641258
 20
17.5367159053150914
 30
0.0
 40
0.0295275591
 50
89.9993997961105237
 51
180.0052012583520025
  0
ARC
  5
E35C
  8
0
 10
3734.2914923360967805
 20
17.7079749988404487
 30
0.0
 40
0.019685039404968
 50
269.9990872001832258
 51
299.9993997940114241
  0
ARC
  5
E35D
  8
0
 10
3734.3359743443929801
 20
17.7378220446584685
 30
0.0
 40
0.0233304822718308
 50
303.2521875235083826
 51
356.746611328818517
  0
ARC
  5
E35E
  8
0
 10
3734.3359759535628655
 20
17.8914569423877801
 30
0.0
 40
0.0233304825080305
 50
3.2521881678215441
 51
56.7466128566836687
  0
ARC
  5
E35F
  8
0
 10
3734.3482541355851936
 20
17.9571403868513606
 30
0.0
 40
0.03972951725549
 50
180.3820930742122073
 51
239.9385406262207994
  0
ARC
  5
E360
  8
0
 10
3734.3764165437301017
 20
18.09944387126923
 30
0.0
 40
0.0688940763896116
 50
309.8891381064134976
 51
51.3005210533434592
  0
ARC
  5
E361
  8
0
 10
3734.7210628118491513
 20
18.3014042124813798
 30
0.0
 40
0.36192496923956
 50
112.7738983015320997
 51
199.9691146794689871
  0
ARC
  5
E362
  8
0
 10
3734.9457104674111179
 20
18.7627419854583906
 30
0.0
 40
0.0300060221780692
 50
273.2378889613593742
 51
359.9899546701531108
  0
ARC
  5
E363
  8
0
 10
3735.0057171402308995
 20
18.8248761775722606
 30
0.0
 40
0.0300000000674413
 50
98.4026491401244954
 51
179.9993997961072125
  0
ARC
  5
E364
  8
0
 10
3734.9155261866758337
 20
19.3008122585714794
 30
0.0
 40
0.4544327901197294
 50
280.884068841558701
 51
311.9329029020269104
  0
ARC
  5
E365
  8
0
 10
3735.0074701919188556
 20
19.1616822419813886
 30
0.0
 40
0.2905288531151704
 50
316.785244763739513
 51
2.5173026791518591
  0
ARC
  5
E366
  8
0
 10
3735.0354969685918149
 20
17.6660325238574707
 30
0.0
 40
1.070382441319603
 50
94.7207409605066317
 51
115.1282638112355983
  0
ARC
  5
E367
  8
0
 10
3734.3343990395887886
 20
17.7553290679775415
 30
0.0
 40
0.0162742758147949
 50
312.1738660435419774
 51
4.4588715680166509
  0
ARC
  5
E368
  8
0
 10
3734.3344002873809586
 20
17.8739499489123901
 30
0.0
 40
0.0162742745337819
 50
355.5399349604392114
 51
47.9142984841622308
  0
LINE
  5
E369
  8
0
 10
3734.3506252799429603
 20
17.8726843924920189
 30
0.0
 11
3734.3506240602919206
 21
17.7565942865699498
 31
0.0
  0
LINE
  5
E36A
  8
0
 10
3734.2593651452889389
 20
17.688290296084169
 30
0.0
 11
3733.3341554189969429
 21
17.6882951421172017
 31
0.0
  0
ARC
  5
E36B
  8
0
 10
3734.8676338308519007
 20
16.0103423993283585
 30
0.0
 40
0.0590551499945698
 50
270.0000181310433049
 51
358.102648956953999
  0
ARC
  5
E36C
  8
0
 10
3734.8676338627092264
 20
15.3016809687228506
 30
0.0
 40
0.0590551181943606
 50
1.8973531912388191
 51
89.9999999626630256
  0
LINE
  5
E36D
  8
0
 10
3732.6447022932611617
 20
18.7329136839234707
 30
0.0
 11
3734.948831441260154
 21
18.7329136839234707
 31
0.0
  0
LINE
  5
E36E
  8
0
 10
3733.382209889708065
 20
17.4471806082171987
 30
0.0
 11
3734.2113158966499213
 21
17.4471814646082706
 31
0.0
  0
LINE
  5
E36F
  8
0
 10
3733.4172398203709236
 20
16.6941301601022793
 30
0.0
 11
3734.1762932526980876
 21
16.6941325132092899
 31
0.0
  0
LINE
  5
E371
  8
0
 10
3735.2973155097279232
 20
15.9977204680377998
 30
0.0
 11
3735.2973155097279232
 21
15.3143028868966002
 31
0.0
  0
ARC
  5
E372
  8
0
 10
3731.764049049570076
 20
19.1799715589072584
 30
0.0
 40
0.5317964493034995
 50
358.0304865136329227
 51
359.4042972975029784
  0
LINE
  5
E373
  8
0
 10
3757.4495009534111887
 20
16.4591612838172097
 30
0.0
 11
3758.1447525154489995
 21
16.4591612838172097
 31
0.0
  0
LINE
  5
E374
  8
0
 10
3757.4552516255689625
 20
16.5630982916171909
 30
0.0
 11
3758.1511493960488224
 21
16.5630982916171909
 31
0.0
  0
LINE
  5
E375
  8
0
 10
3758.9757615906751198
 20
18.7627490748171901
 30
0.0
 11
3758.9757615905859893
 21
18.8248888419787015
 31
0.0
  0
LINE
  5
E376
  8
0
 10
3758.3593186874491039
 20
17.8927863946172003
 30
0.0
 11
3758.3593186874491039
 21
17.7365038895171914
 31
0.0
  0
LINE
  5
E377
  8
0
 10
3758.3085746553488207
 20
18.0088697887450984
 30
0.0
 11
3758.3085746553488207
 21
17.9568808023172011
 31
0.0
  0
LINE
  5
E378
  8
0
 10
3758.2889446716499151
 20
17.59577545701719
 30
0.0
 11
3758.2889446716499151
 21
17.6587675830171911
 31
0.0
  0
LINE
  5
E379
  8
0
 10
3757.3342262396490696
 20
17.5662478979171901
 30
0.0
 11
3758.2594171126488618
 21
17.5662478979171901
 31
0.0
  0
LINE
  5
E37A
  8
0
 10
3758.2594171126488618
 20
17.6882951420171892
 30
0.0
 11
3758.2915439896491989
 21
17.6882951420171892
 31
0.0
  0
LINE
  5
E37B
  8
0
 10
3758.1905194748492249
 20
17.4922185267171884
 30
0.0
 11
3758.1905194748492249
 21
17.5367173491154915
 31
0.0
  0
LINE
  5
E37C
  8
0
 10
3758.1511493960488224
 20
16.5630982916171909
 30
0.0
 11
3758.1511493960488224
 21
16.6457447510171903
 31
0.0
  0
LINE
  5
E37D
  8
0
 10
3758.0920942779489451
 20
16.4591612838172097
 30
0.0
 11
3758.0920942091661345
 21
15.6558914506401106
 31
0.0
  0
LINE
  5
E37E
  8
0
 10
3758.3013866167489141
 20
17.6909324372171994
 30
0.0
 11
3758.3488186874487837
 21
17.7183173560171916
 31
0.0
  0
LINE
  5
E37F
  8
0
 10
3758.4007842148489544
 20
18.0390778234171982
 30
0.0
 11
3758.338574511796196
 21
18.039078234211221
 31
0.0
  0
LINE
  5
E380
  8
0
 10
3758.3488186874487837
 20
17.9109729280171983
 30
0.0
 11
3758.3284019924490167
 21
17.9227605124171987
 31
0.0
  0
LINE
  5
E381
  8
0
 10
3756.5945790994169329
 20
18.8541129995171985
 30
0.0
 11
3758.9989786598489445
 21
18.8541129995171985
 31
0.0
  0
LINE
  5
E382
  8
0
 10
3759.2977557755298221
 20
19.1744425849172018
 30
0.0
 11
3756.2958538461680291
 21
19.1744425849172018
 31
0.0
  0
ARC
  5
E383
  8
0
 10
3758.2102045141491544
 20
16.6457447510171903
 30
0.0
 40
0.0590551181
 50
124.9751457828207037
 51
180.0
  0
ARC
  5
E384
  8
0
 10
3758.1447525154489995
 20
16.5113266381172004
 30
0.0
 40
0.0521653543
 50
270.0
 51
82.956261716192472
  0
ARC
  5
E385
  8
0
 10
3757.8789257673670363
 20
17.071497351015779
 30
0.0
 40
0.5016586884230541
 50
3.7676370468194311
 51
48.4934946752104992
  0
ARC
  5
E386
  8
0
 10
3757.8163579059209951
 20
17.1278144817024298
 30
0.0
 40
0.5636263421518094
 50
309.6958518890593837
 51
357.6253575900281021
  0
ARC
  5
E387
  8
0
 10
3758.2495745929481927
 20
17.4922185267171884
 30
0.0
 40
0.0590551181
 50
180.0
 51
229.6989600163655894
  0
ARC
  5
E388
  8
0
 10
3758.3385739128489149
 20
18.0090782525171988
 30
0.0
 40
0.0299999817
 50
89.9988560944075147
 51
180.3981399231587943
  0
ARC
  5
E389
  8
0
 10
3758.3998266746830268
 20
18.1299386126070203
 30
0.0
 40
0.0305038369565729
 50
49.7432769517158917
 51
81.7227578366683787
  0
ARC
  5
E38A
  8
0
 10
3758.4007868876619796
 20
18.0690890491726215
 30
0.0
 40
0.0300112258743517
 50
269.9948972127824049
 51
311.4334746836337899
  0
ARC
  5
E38B
  8
0
 10
3758.4084317237488904
 20
18.1898272028171988
 30
0.0
 40
0.0299998952
 50
203.6181835268023974
 51
261.925852359391115
  0
ARC
  5
E38C
  8
0
 10
3758.2594171126488618
 20
17.6587675830171911
 30
0.0
 40
0.0295275591
 50
0.0
 51
90.0
  0
ARC
  5
E38D
  8
0
 10
3758.2594171126488618
 20
17.59577545701719
 30
0.0
 40
0.0295275591
 50
270.0
 51
0.0
  0
ARC
  5
E38E
  8
0
 10
3758.220047033848914
 20
17.5367203389171884
 30
0.0
 40
0.0295275591
 50
90.0
 51
180.0058014622449889
  0
ARC
  5
E38F
  8
0
 10
3758.2915440970468808
 20
17.7079801814218705
 30
0.0
 40
0.019685039404968
 50
269.999687404072688
 51
299.9999999979220888
  0
ARC
  5
E390
  8
0
 10
3758.3360257926779013
 20
17.7378276932110417
 30
0.0
 40
0.0233304822718308
 50
303.2527877274011985
 51
356.747211532712015
  0
ARC
  5
E391
  8
0
 10
3758.3360257924400685
 20
17.891462590948791
 30
0.0
 40
0.0233304825080305
 50
3.2527883717155821
 51
56.7472130605811316
  0
ARC
  5
E392
  8
0
 10
3758.3483032863919107
 20
17.9571461640292789
 30
0.0
 40
0.03972951725549
 50
180.3826932781051084
 51
239.9391408301150079
  0
ARC
  5
E393
  8
0
 10
3758.3760695473438318
 20
18.0994458419548003
 30
0.0
 40
0.0691447020577142
 50
310.1428396426809968
 51
51.0480199248489015
  0
ARC
  5
E394
  8
0
 10
3758.7211083562888234
 20
18.301413895010409
 30
0.0
 40
0.3619249692395601
 50
112.7744985054262941
 51
199.9697148833620872
  0
ARC
  5
E395
  8
0
 10
3758.9457475335761956
 20
18.7627618653268016
 30
0.0
 40
0.0300140598246622
 50
273.2445912723334231
 51
359.975583368427408
  0
ARC
  5
E396
  8
0
 10
3759.0057514810227985
 20
18.8248978921521903
 30
0.0
 40
0.0299898917137756
 50
103.0520898756534933
 51
180.0172903842828021
  0
ARC
  5
E397
  8
0
 10
3758.9155612617728366
 20
19.3008239781533995
 30
0.0
 40
0.4544327901197295
 50
280.5774088156305766
 51
311.9335100573254067
  0
ARC
  5
E398
  8
0
 10
3759.0074724037090164
 20
19.1617167142723588
 30
0.0
 40
0.2905687860572896
 50
316.7873470219050773
 51
359.9957034317686748
  0
ARC
  5
E399
  8
0
 10
3759.0355491688719667
 20
17.6660455002870904
 30
0.0
 40
1.070382441319603
 50
94.7213411643878942
 51
115.1288640151250036
  0
LINE
  5
E39A
  8
0
 10
3758.338574511796196
 20
18.039078234211221
 30
0.0
 11
3757.2550634620488381
 21
18.0390782342172002
 31
0.0
  0
LINE
  5
E39B
  8
0
 10
3757.1891807838801469
 20
18.1600854001044993
 30
0.0
 11
3758.4042181029981293
 21
18.1601246926171989
 31
0.0
  0
ARC
  5
E39C
  8
0
 10
3757.4074553917839694
 20
18.2419767658902288
 30
0.0
 40
0.5235051561578768
 50
252.2947967353921115
 51
287.8257892541528804
  0
ARC
  5
E39D
  8
0
 10
3757.7955126783708693
 20
18.7695894503074108
 30
0.0
 40
1.0509702913840111
 50
257.481666255989694
 51
282.4747560554155825
  0
ARC
  5
E39E
  8
0
 10
3758.1842351342979782
 20
18.2832159649576198
 30
0.0
 40
0.5634850516090941
 50
253.3233972623430077
 51
286.6152038755087119
  0
ARC
  5
E39F
  8
0
 10
3757.4074553917839694
 20
17.3873135181441398
 30
0.0
 40
0.5235051561578768
 50
72.174210745847148
 51
107.7032128295172981
  0
ARC
  5
E3A0
  8
0
 10
3757.7955126783708693
 20
16.8597008337269614
 30
0.0
 40
1.0509702913840111
 50
77.5252439445844317
 51
102.5183337440102065
  0
ARC
  5
E3A1
  8
0
 10
3758.1842351342979782
 20
17.3460743190767808
 30
0.0
 40
0.5634850516090941
 50
73.3847961245168392
 51
106.6766027376570065
  0
ARC
  5
E3A2
  8
0
 10
3758.3344503044781959
 20
17.7553347000270101
 30
0.0
 40
0.0162742758147949
 50
312.0930450543453958
 51
355.5405547012528018
  0
ARC
  5
E3A3
  8
0
 10
3758.3344503096532208
 20
17.8739555809684312
 30
0.0
 40
0.0162742745337819
 50
4.4594542632334617
 51
47.9069758989401606
  0
LINE
  5
E3A4
  8
0
 10
3758.3506753155488695
 20
17.8752209644171494
 30
0.0
 11
3758.3506753118490451
 21
17.7540693190172298
 31
0.0
  0
LINE
  5
E3A5
  8
0
 10
3758.0225321895491106
 20
17.7434312291171992
 30
0.0
 11
3758.022532189661888
 21
17.8858590549508101
 31
0.0
  0
LINE
  5
E3A6
  8
0
 10
3757.5677127635171928
 20
17.74360419107391
 30
0.0
 11
3757.5677127635171928
 21
17.8856860929604515
 31
0.0
  0
LINE
  5
E3A7
  8
0
 10
3756.6669159281191241
 20
16.0258513806171905
 30
0.0
 11
3756.6669159281191241
 21
15.2861719743171793
 31
0.0
  0
LINE
  5
E3A8
  8
0
 10
3756.4543175028911719
 20
16.0359329373171811
 30
0.0
 11
3756.4543175028911719
 21
15.2760904176171994
 31
0.0
  0
LINE
  5
E3A9
  8
0
 10
3755.8715615792170865
 20
15.1320838188171791
 30
0.0
 11
3755.8715615792170865
 21
16.1798395361171785
 31
0.0
  0
LINE
  5
E3AA
  8
0
 10
3755.7489019478430237
 20
15.1078932130171903
 30
0.0
 11
3755.7489019478430237
 21
16.2040301418171815
 31
0.0
  0
LINE
  5
E3AB
  8
0
 10
3755.5842202177418585
 20
15.1696912050171697
 30
0.0
 11
3755.5842202177418585
 21
16.1422321499171701
 31
0.0
  0
LINE
  5
E3AC
  8
0
 10
3755.6962703260428498
 20
15.1401636459171893
 30
0.0
 11
3755.6137477768420467
 21
15.1401636459171893
 31
0.0
  0
LINE
  5
E3AD
  8
0
 10
3756.4543175028911719
 20
15.2760904176171994
 30
0.0
 11
3756.3477885495422015
 21
15.2760904176171994
 31
0.0
  0
LINE
  5
E3AE
  8
0
 10
3757.7980089973912072
 20
15.3607360870048204
 30
0.0
 11
3756.7259386690939209
 21
15.3607360869217597
 31
0.0
  0
LINE
  5
E3AF
  8
0
 10
3757.5015484605919482
 20
15.9512870038949899
 30
0.0
 11
3756.7259386823061504
 21
15.9512872493338005
 31
0.0
  0
LINE
  5
E3B0
  8
0
 10
3756.4543175028911719
 20
16.0359329373171811
 30
0.0
 11
3756.3477885495422015
 21
16.0359329373171811
 31
0.0
  0
LINE
  5
E3B1
  8
0
 10
3755.6962703260428498
 20
16.171759708917179
 30
0.0
 11
3755.6137477768420467
 21
16.171759708917179
 31
0.0
  0
ARC
  5
E3B2
  8
0
 10
3756.2049305988430206
 20
15.0007778414171895
 30
0.0
 40
0.3700787402
 50
107.5652529274047993
 51
146.0843121071933979
  0
ARC
  5
E3B3
  8
0
 10
3756.1585924921428159
 20
15.1471620175171893
 30
0.0
 40
0.2165354331
 50
50.5299944887062011
 51
107.5652529274047993
  0
ARC
  5
E3B4
  8
0
 10
3756.5603776348680185
 20
15.2861728945215507
 30
0.0
 40
0.1065382932545956
 50
185.4304340370514979
 51
359.9995051185371153
  0
ARC
  5
E3B5
  8
0
 10
3756.2346232064428477
 20
15.2394930873172001
 30
0.0
 40
0.0969290119
 50
33.8732923896063127
 51
50.5299944888044692
  0
ARC
  5
E3B6
  8
0
 10
3756.3477885495422015
 20
15.3154604963171792
 30
0.0
 40
0.0393700787
 50
213.8732923896058082
 51
270.0
  0
ARC
  5
E3B7
  8
0
 10
3756.2049305988430206
 20
16.3112455135171892
 30
0.0
 40
0.3700787402
 50
213.9156878928064032
 51
252.434747072595087
  0
ARC
  5
E3B8
  8
0
 10
3756.1585924921428159
 20
16.1648613374171894
 30
0.0
 40
0.2165354331
 50
252.434747072595087
 51
309.4700055112937775
  0
ARC
  5
E3B9
  8
0
 10
3756.5603776348680185
 20
16.0258504604128298
 30
0.0
 40
0.1065382932545953
 50
0.0004948814628685
 51
174.5695659629485021
  0
ARC
  5
E3BA
  8
0
 10
3756.2346232064428477
 20
16.0725302676171893
 30
0.0
 40
0.0969290119
 50
309.4700055111957226
 51
326.1267076103936802
  0
ARC
  5
E3BB
  8
0
 10
3756.3477885495422015
 20
15.9965628585171906
 30
0.0
 40
0.0393700787
 50
90.0
 51
146.1267076103939928
  0
ARC
  5
E3BC
  8
0
 10
3756.0286147616911876
 20
15.1194187704306895
 30
0.0
 40
0.1575630209541329
 50
146.1119284731383914
 51
175.3895430839808114
  0
ARC
  5
E3BD
  8
0
 10
3755.8068036975241739
 20
15.1373706898383595
 30
0.0
 40
0.0649733348894315
 50
206.9804054843235974
 51
355.3326904667924282
  0
ARC
  5
E3BE
  8
0
 10
3755.6962703260428498
 20
15.0811085278172001
 30
0.0
 40
0.0590551181
 50
26.9719347714055893
 51
90.0
  0
ARC
  5
E3BF
  8
0
 10
3755.6137477768420467
 20
15.1696912050171697
 30
0.0
 40
0.0295275591
 50
180.0
 51
270.0
  0
ARC
  5
E3C0
  8
0
 10
3756.0282472437461365
 20
16.1924930094607191
 30
0.0
 40
0.1571957628341503
 50
184.6170190682362033
 51
213.9290020172537083
  0
ARC
  5
E3C1
  8
0
 10
3755.8068036975241739
 20
16.174552665095991
 30
0.0
 40
0.0649733348894287
 50
4.6673095332073329
 51
153.0195945156766868
  0
ARC
  5
E3C2
  8
0
 10
3755.6962703260428498
 20
16.2308148270171806
 30
0.0
 40
0.0590551181
 50
270.0
 51
333.0280652285944143
  0
ARC
  5
E3C3
  8
0
 10
3755.6137477768420467
 20
16.1422321499171701
 30
0.0
 40
0.0295275591
 50
90.0
 51
180.0
  0
ARC
  5
E3C4
  8
0
 10
3757.7968185574600284
 20
15.6560093625425001
 30
0.0
 40
0.2952756752493922
 50
179.5608541070830881
 51
359.977120179176211
  0
LINE
  5
E3C5
  8
0
 10
3756.6178560427179036
 20
18.7627367246801811
 30
0.0
 11
3756.6178553917698082
 21
18.8248764918382889
 31
0.0
  0
LINE
  5
E3C6
  8
0
 10
3757.2343036694069269
 20
17.8927805020505986
 30
0.0
 11
3757.2343053065501408
 21
17.7364979969591694
 31
0.0
  0
LINE
  5
E3C7
  8
0
 10
3757.2850464854691381
 20
18.0088644277429815
 30
0.0
 11
3757.2850470300818415
 21
17.9568754413179299
 31
0.0
  0
LINE
  5
E3C8
  8
0
 10
3757.3046807965520202
 20
17.5957703016722995
 30
0.0
 11
3757.30468013667587
 21
17.6587624276688508
 31
0.0
  0
LINE
  5
E3C9
  8
0
 10
3757.3342073863568658
 20
17.6882902959841708
 30
0.0
 11
3757.3020805093588024
 21
17.6882899594379808
 31
0.0
  0
LINE
  5
E3CA
  8
0
 10
3757.4031070781597919
 20
17.492214402434481
 30
0.0
 11
3757.4031066120119249
 21
17.5367132248303292
 31
0.0
  0
LINE
  5
E3CB
  8
0
 10
3757.4424868899891408
 20
16.5630945798080589
 30
0.0
 11
3757.4424860242229443
 21
16.6457410392035285
 31
0.0
  0
LINE
  5
E3CC
  8
0
 10
3757.5015430968819601
 20
16.4591581906476989
 30
0.0
 11
3757.5015515551649514
 21
15.6582724931186998
 31
0.0
  0
LINE
  5
E3CD
  8
0
 10
3757.2922378546318214
 20
17.6909271515310706
 30
0.0
 11
3757.2448054970641351
 21
17.7183115734532812
 31
0.0
  0
LINE
  5
E3CE
  8
0
 10
3757.1928366095289675
 20
18.0390714964690311
 30
0.0
 11
3757.2550634620488381
 21
18.0390782342172002
 31
0.0
  0
LINE
  5
E3CF
  8
0
 10
3757.2448034788940276
 20
17.9109671454427115
 30
0.0
 11
3757.2652200504107896
 21
17.9227549437178517
 31
0.0
  0
ARC
  5
E3D0
  8
0
 10
3757.3834309061257954
 20
16.64574042056962
 30
0.0
 40
0.0590551181
 50
0.0006002038927319
 51
55.0254544210545475
  0
ARC
  5
E3D1
  8
0
 10
3757.4488843129252018
 20
16.5113229933216488
 30
0.0
 40
0.0521653543
 50
82.9889834967200812
 51
270.6773024108122172
  0
ARC
  5
E3D2
  8
0
 10
3757.6901260523550263
 20
17.0841609021891507
 30
0.0
 40
0.4759910774999999
 50
130.3016401875314898
 51
235.025454421044202
  0
ARC
  5
E3D3
  8
0
 10
3757.3440519600640073
 20
17.4922137838005796
 30
0.0
 40
0.0590551181
 50
310.3016401875311772
 51
0.0006002038927319
  0
ARC
  5
E3D4
  8
0
 10
3757.2550375719501972
 20
18.009068637150289
 30
0.0
 40
0.030009608234954
 50
359.6101106236773717
 51
89.9505693770673957
  0
ARC
  5
E3D5
  8
0
 10
3757.1937931978800407
 20
18.1299322956846112
 30
0.0
 40
0.0305038369565729
 50
98.2778423672123154
 51
130.2573232521939133
  0
ARC
  5
E3D6
  8
0
 10
3757.1928336223318183
 20
18.0690827221947998
 30
0.0
 40
0.0300112258743517
 50
228.5671255202686041
 51
270.0057029910836945
  0
ARC
  5
E3D7
  8
0
 10
3757.1851875214488246
 20
18.1898207957490285
 30
0.0
 40
0.0299998952
 50
278.0747478444775993
 51
336.382416677091328
  0
ARC
  5
E3D8
  8
0
 10
3757.3342076956741948
 20
17.6587627369857891
 30
0.0
 40
0.0295275591
 50
90.0006002038894621
 51
180.0006002038927022
  0
ARC
  5
E3D9
  8
0
 10
3757.3342001021669603
 20
17.5957671922247094
 30
0.0
 40
0.0295193058790667
 50
179.9939646879309123
 51
270.0507318024497181
  0
ARC
  5
E3DA
  8
0
 10
3757.3735790529822225
 20
17.5367159053150914
 30
0.0
 40
0.0295275591
 50
359.994798741648026
 51
90.0006002038894621
  0
ARC
  5
E3DB
  8
0
 10
3757.302080195749113
 20
17.7079749988404487
 30
0.0
 40
0.019685039404968
 50
240.0006002059886043
 51
270.0009127998167742
  0
ARC
  5
E3DC
  8
0
 10
3757.2575981874520039
 20
17.7378220446584685
 30
0.0
 40
0.0233304822718308
 50
183.2533886711815114
 51
236.7478124764915037
  0
ARC
  5
E3DD
  8
0
 10
3757.2575965782830281
 20
17.8914569423877801
 30
0.0
 40
0.0233304825080305
 50
123.2533871433163029
 51
176.7478118321783995
  0
ARC
  5
E3DE
  8
0
 10
3757.2453183962611547
 20
17.9571403868513606
 30
0.0
 40
0.03972951725549
 50
300.061459373756577
 51
359.617906925787679
  0
ARC
  5
E3DF
  8
0
 10
3757.2171559881157918
 20
18.09944387126923
 30
0.0
 40
0.0688940763896116
 50
128.6994789466565123
 51
230.1108618935865024
  0
ARC
  5
E3E0
  8
0
 10
3756.872509719997197
 20
18.3014042124813798
 30
0.0
 40
0.36192496923956
 50
340.0308853205307855
 51
67.2261016984678861
  0
ARC
  5
E3E1
  8
0
 10
3756.6478620644347757
 20
18.7627419854583906
 30
0.0
 40
0.0300060221780692
 50
180.0100453298468892
 51
266.7621110386406258
  0
ARC
  5
E3E2
  8
0
 10
3756.587855391614994
 20
18.8248761775722606
 30
0.0
 40
0.0300000000674413
 50
0.0006002038927319
 51
81.5973508598755046
  0
ARC
  5
E3E3
  8
0
 10
3756.6780463451691503
 20
19.3008122585714794
 30
0.0
 40
0.4544327901197294
 50
228.0670970979730896
 51
259.115931158441299
  0
ARC
  5
E3E4
  8
0
 10
3756.586102339927038
 20
19.1616822419813886
 30
0.0
 40
0.2905288531151704
 50
177.4826973208481036
 51
223.2147552362604017
  0
ARC
  5
E3E5
  8
0
 10
3756.5580755632531691
 20
17.6660325238574707
 30
0.0
 40
1.070382441319603
 50
64.8717361887643591
 51
85.2792590394933541
  0
ARC
  5
E3E6
  8
0
 10
3757.2591734922580144
 20
17.7553290679775415
 30
0.0
 40
0.0162742758147949
 50
175.5411284319833101
 51
227.8261339564579089
  0
ARC
  5
E3E7
  8
0
 10
3757.2591722444649349
 20
17.8739499489123901
 30
0.0
 40
0.0162742745337819
 50
132.0857015158375987
 51
184.4600650395607886
  0
LINE
  5
E3E8
  8
0
 10
3757.2429472519029332
 20
17.8726843924920189
 30
0.0
 11
3757.2429484715530634
 21
17.7565942865699498
 31
0.0
  0
LINE
  5
E3E9
  8
0
 10
3757.3342073865569546
 20
17.688290296084169
 30
0.0
 11
3758.2594171128480411
 21
17.6882951421172017
 31
0.0
  0
ARC
  5
E3EA
  8
0
 10
3756.7259387009939928
 20
16.0103423993283585
 30
0.0
 40
0.0590551499945698
 50
181.897351043046001
 51
269.9999818689565814
  0
ARC
  5
E3EB
  8
0
 10
3756.7259386691380314
 20
15.3016809687228506
 30
0.0
 40
0.0590551181943606
 50
90.0000000373369744
 51
178.1026468087613921
  0
LINE
  5
E3EC
  8
0
 10
3758.9488702385851866
 20
18.7329136839234707
 30
0.0
 11
3756.6447410905861943
 21
18.7329136839234707
 31
0.0
  0
LINE
  5
E3ED
  8
0
 10
3758.2113626421378285
 20
17.4471806082171987
 30
0.0
 11
3757.3822566351959722
 21
17.4471814646082706
 31
0.0
  0
LINE
  5
E3EE
  8
0
 10
3758.1763327114740605
 20
16.6941301601022793
 30
0.0
 11
3757.4172792791478059
 21
16.6941325132092899
 31
0.0
  0
LINE
  5
E3EF
  8
0
 10
3756.2962570221188798
 20
15.9977204680377998
 30
0.0
 11
3756.2962570221188798
 21
15.3143028868966002
 31
0.0
  0
ARC
  5
E3F0
  8
0
 10
3759.8295234822758175
 20
19.1799715589072584
 30
0.0
 40
0.5317964493034995
 50
180.5957027024967942
 51
181.9695134863671058
  0
ENDSEC
  0
EOF
