  0
SECTION
  2
HEADER
  9
$ACADVER
  1
AC1009
  9
$INSBASE
 10
3745.7963211419078107
 20
11.7905470573226197
 30
0.0
  9
$EXTMIN
 10
3732.166511593533869
 20
9.2059238360955362
 30
-0.0015258207003583
  9
$EXTMAX
 10
3759.4136229180608098
 20
13.2926656967246295
 30
0.0000000349246037
  9
$LIMMIN
 10
0.0
 20
0.0
  9
$LIMMAX
 10
11.6929133858000007
 20
8.2677165353999982
  9
$ORTHOMODE
 70
     1
  9
$REGENMODE
 70
     1
  9
$FILLMODE
 70
     1
  9
$QTEXTMODE
 70
     0
  9
$MIRRTEXT
 70
     0
  9
$DRAGMODE
 70
     2
  9
$LTSCALE
 40
0.6431102362
  9
$OSMODE
 70
  4095
  9
$ATTMODE
 70
     1
  9
$TEXTSIZE
 40
0.2
  9
$TRACEWID
 40
0.05
  9
$TEXTSTYLE
  7
STANDARD
  9
$CLAYER
  8
0
  9
$CELTYPE
  6
BYLAYER
  9
$CECOLOR
 62
   256
  9
$DIMSCALE
 40
1.0
  9
$DIMASZ
 40
0.1875
  9
$DIMEXO
 40
0.0625
  9
$DIMDLI
 40
0.4443307087
  9
$DIMRND
 40
0.0
  9
$DIMDLE
 40
0.0
  9
$DIMEXE
 40
0.125
  9
$DIMTP
 40
0.01
  9
$DIMTM
 40
0.01
  9
$DIMTXT
 40
2.0
  9
$DIMCEN
 40
0.1052362205
  9
$DIMTSZ
 40
0.0
  9
$DIMTOL
 70
     1
  9
$DIMLIM
 70
     0
  9
$DIMTIH
 70
     1
  9
$DIMTOH
 70
     1
  9
$DIMSE1
 70
     0
  9
$DIMSE2
 70
     0
  9
$DIMTAD
 70
     0
  9
$DIMZIN
 70
     0
  9
$DIMBLK
  1

  9
$DIMASO
 70
     1
  9
$DIMSHO
 70
     1
  9
$DIMPOST
  1
\X
  9
$DIMAPOST
  1

  9
$DIMALT
 70
     1
  9
$DIMALTD
 70
     2
  9
$DIMALTF
 40
25.3999999999999986
  9
$DIMLFAC
 40
1.0
  9
$DIMTOFL
 70
     0
  9
$DIMTVP
 40
0.0
  9
$DIMTIX
 70
     0
  9
$DIMSOXD
 70
     0
  9
$DIMSAH
 70
     0
  9
$DIMBLK1
  1

  9
$DIMBLK2
  1

  9
$DIMSTYLE
  2
STANDARD
  9
$DIMCLRD
 70
     0
  9
$DIMCLRE
 70
     0
  9
$DIMCLRT
 70
     0
  9
$DIMTFAC
 40
1.0
  9
$DIMGAP
 40
0.09
  9
$LUNITS
 70
     2
  9
$LUPREC
 70
     4
  9
$SKETCHINC
 40
0.1
  9
$FILLETRAD
 40
0.0
  9
$AUNITS
 70
     0
  9
$AUPREC
 70
     0
  9
$MENU
  1
.
  9
$ELEVATION
 40
0.0
  9
$PELEVATION
 40
0.0
  9
$THICKNESS
 40
0.0
  9
$LIMCHECK
 70
     0
  9
$BLIPMODE
 70
     0
  9
$CHAMFERA
 40
0.0
  9
$CHAMFERB
 40
0.0
  9
$SKPOLY
 70
     0
  9
$TDCREATE
 40
2458060.468368056230247
  9
$TDUPDATE
 40
2459844.7282986110076308
  9
$TDINDWG
 40
0.468421412
  9
$TDUSRTIMER
 40
0.468421412
  9
$USRTIMER
 70
     1
  9
$ANGBASE
 50
0.0
  9
$ANGDIR
 70
     0
  9
$PDMODE
 70
     0
  9
$PDSIZE
 40
0.3125
  9
$PLINEWID
 40
0.0
  9
$COORDS
 70
     1
  9
$SPLFRAME
 70
     0
  9
$SPLINETYPE
 70
     6
  9
$SPLINESEGS
 70
     8
  9
$ATTDIA
 70
     1
  9
$ATTREQ
 70
     1
  9
$HANDLING
 70
     1
  9
$HANDSEED
  5
E580
  9
$SURFTAB1
 70
     6
  9
$SURFTAB2
 70
     6
  9
$SURFTYPE
 70
     6
  9
$SURFU
 70
     6
  9
$SURFV
 70
     6
  9
$UCSNAME
  2

  9
$UCSORG
 10
0.0
 20
0.0
 30
0.0
  9
$UCSXDIR
 10
1.0
 20
0.0
 30
0.0
  9
$UCSYDIR
 10
0.0
 20
1.0
 30
0.0
  9
$PUCSNAME
  2

  9
$PUCSORG
 10
0.0
 20
0.0
 30
0.0
  9
$PUCSXDIR
 10
1.0
 20
0.0
 30
0.0
  9
$PUCSYDIR
 10
0.0
 20
1.0
 30
0.0
  9
$USERI1
 70
     0
  9
$USERI2
 70
     0
  9
$USERI3
 70
     0
  9
$USERI4
 70
     0
  9
$USERI5
 70
     0
  9
$USERR1
 40
0.0
  9
$USERR2
 40
0.0
  9
$USERR3
 40
0.0
  9
$USERR4
 40
0.0
  9
$USERR5
 40
0.0
  9
$WORLDVIEW
 70
     1
  9
$SHADEDGE
 70
     3
  9
$SHADEDIF
 70
    70
  9
$TILEMODE
 70
     1
  9
$MAXACTVP
 70
    64
  9
$PLIMCHECK
 70
     0
  9
$PEXTMIN
 10
1.0000000000000000E+20
 20
1.0000000000000000E+20
 30
1.0000000000000000E+20
  9
$PEXTMAX
 10
-1.0000000000000000E+20
 20
-1.0000000000000000E+20
 30
-1.0000000000000000E+20
  9
$PLIMMIN
 10
0.0
 20
0.0
  9
$PLIMMAX
 10
12.0
 20
9.0
  9
$UNITMODE
 70
     0
  9
$VISRETAIN
 70
     1
  9
$PLINEGEN
 70
     0
  9
$PSLTSCALE
 70
     1
  0
ENDSEC
  0
SECTION
  2
TABLES
  0
TABLE
  2
VPORT
 70
     1
  0
VPORT
  2
*ACTIVE
 70
     0
 10
0.0
 20
0.0
 11
1.0
 21
1.0
 12
-83.5376915332653738
 22
-79.6437487516563039
 13
0.0
 23
0.0
 14
1.0
 24
1.0
 15
0.0
 25
0.0
 16
0.0
 26
0.0
 36
327.1425206445442768
 17
3829.3277587890629547
 27
90.8930435180664063
 37
0.0
 40
11.9714027217045302
 41
2.2831541218637992
 42
50.0
 43
0.0
 44
0.0
 50
0.0
 51
0.0
 71
     0
 72
   100
 73
     1
 74
     1
 75
     0
 76
     0
 77
     0
 78
     2
  0
ENDTAB
  0
TABLE
  2
LTYPE
 70
     2
  0
LTYPE
  2
CONTINUOUS
 70
     0
  3
Solid line
 72
    65
 73
     0
 40
0.0
  0
LTYPE
  2
PHANTOM2
 70
     0
  3
___ _ _ ___ _ _ ___ _ _ ___ _ _
 72
    65
 73
     6
 40
1.25
 49
0.625
 49
-0.125
 49
0.125
 49
-0.125
 49
0.125
 49
-0.125
  0
ENDTAB
  0
TABLE
  2
LAYER
 70
     2
  0
LAYER
  2
0
 70
     0
 62
   255
  6
CONTINUOUS
  0
LAYER
  2
DEFPOINTS
 70
     0
 62
     7
  6
CONTINUOUS
  0
ENDTAB
  0
TABLE
  2
STYLE
 70
     1
  0
STYLE
  2
STANDARD
 70
     0
 40
0.0
 41
0.8
 50
0.0
 71
     0
 42
0.2
  3
txt
  4

  0
ENDTAB
  0
TABLE
  2
VIEW
 70
     0
  0
ENDTAB
  0
TABLE
  2
UCS
 70
     0
  0
ENDTAB
  0
TABLE
  2
APPID
 70
     9
  0
APPID
  2
ACAD
 70
     0
  0
APPID
  2
ACAD_MLEADERVER
 70
     0
  0
APPID
  2
ACAD_EXEMPT_FROM_CAD_STANDARDS
 70
     0
  0
APPID
  2
ACAD_NAV_VCDISPLAY
 70
     0
  0
APPID
  2
ACAECLAYERSTANDARD
 70
     0
  0
APPID
  2
ACCMTRANSPARENCY
 70
     0
  0
APPID
  2
ACAD_DSTYLE_DIMJAG
 70
     0
  0
APPID
  2
ACAD_DSTYLE_DIMTALN
 70
     0
  0
APPID
  2
ACDBATTR
 70
     0
  0
ENDTAB
  0
TABLE
  2
DIMSTYLE
 70
     1
  0
DIMSTYLE
  2
STANDARD
 70
     0
  3

  4

  5

  6

  7

 40
1.0
 41
0.1875
 42
0.0625
 43
0.38
 44
0.125
 45
0.0
 46
0.0
 47
0.01
 48
0.01
140
0.15625
141
0.09
142
0.0
143
25.3999999999999986
144
1.0
145
0.0
146
1.0
147
0.09
 71
     1
 72
     0
 73
     1
 74
     1
 75
     0
 76
     0
 77
     0
 78
     4
170
     0
171
     2
172
     0
173
     0
174
     0
175
     0
176
     0
177
     0
178
     0
  0
ENDTAB
  0
ENDSEC
  0
SECTION
  2
BLOCKS
  0
BLOCK
  8
0
  2
$MODEL_SPACE
 70
     0
 10
0.0
 20
0.0
 30
0.0
  3
$MODEL_SPACE
  1

  0
ENDBLK
  5
21
  8
0
  0
BLOCK
 67
     1
  8
0
  2
$PAPER_SPACE
 70
     0
 10
0.0
 20
0.0
 30
0.0
  3
$PAPER_SPACE
  1

  0
ENDBLK
  5
1D
 67
     1
  8
0
  0
ENDSEC
  0
SECTION
  2
ENTITIES
  0
ATTDEF
  5
DF12
  8
DEFPOINTS
 10
3745.7972408563650788
 20
11.7945431158807992
 30
0.0
 40
0.001
  1
K-72568BR
  3

  2
MODELNUMBER
 70
     0
1001
ACDBATTR
1070
     0
1070
     1
  0
ATTDEF
  5
DF13
  8
DEFPOINTS
 10
3745.7972408563650788
 20
11.7928764492141305
 30
0.0
 40
0.001
  1
ARTIFACTS
  3

  2
TRADENAME
 70
     0
1001
ACDBATTR
1070
     0
1070
     1
  0
ATTDEF
  5
DF14
  8
DEFPOINTS
 10
3745.7972408563650788
 20
11.7912097825474707
 30
0.0
 40
0.001
  1
TOWEL BAR
  3

  2
PRODUCT
 70
     0
1001
ACDBATTR
1070
     0
1070
     1
  0
LINE
  5
E2B3
  8
0
 10
3733.5010317202500119
 20
10.6287361602212496
 30
0.0
 11
3733.5010317202682018
 21
11.7902051212964292
 31
0.0
  0
LINE
  5
E2B4
  8
0
 10
3734.0915798414289384
 20
10.6162920803863194
 30
0.0
 11
3734.0915798414039273
 21
11.7902036963415107
 31
0.0
  0
LINE
  5
E2B5
  8
0
 10
3755.5837550938272216
 20
9.3571542676419917
 30
0.0
 11
3736.0088871899888545
 21
9.3571542676419632
 31
0.0
  0
LINE
  5
E2B6
  8
0
 10
3734.619137521131961
 20
9.4949495432419742
 30
0.0
 11
3734.8710019774161992
 21
9.4949495432419742
 31
0.0
  0
LINE
  5
E2B7
  8
0
 10
3734.619137521131961
 20
10.0855007243419692
 30
0.0
 11
3734.8669660776240562
 21
10.0855007243419799
 31
0.0
  0
LINE
  5
E2B8
  8
0
 10
3755.5837550938272216
 20
10.2232959999419801
 30
0.0
 11
3736.0088871899888545
 21
10.2232959999419997
 31
0.0
  0
ARC
  5
E2B9
  8
0
 10
3733.796302875532092
 20
11.7902251337419699
 30
0.0
 40
0.5826771654
 50
300.5134043867076912
 51
239.5524665191140912
  0
ARC
  5
E2BA
  8
0
 10
3733.7963057808888152
 20
11.7902266629147601
 30
0.0
 40
0.2952740614293256
 50
359.995543503848296
 51
180.0041799940352121
  0
ARC
  5
E2BB
  8
0
 10
3733.7963028754747938
 20
11.7902251338337596
 30
0.0
 40
1.178938513443327
 50
284.5047355758636058
 51
255.4955561194148004
  0
ARC
  5
E2BC
  8
0
 10
3734.6373278510609452
 20
10.6311477652862294
 30
0.0
 40
0.5459501638374376
 50
181.5592505968625119
 51
268.090627801132996
  0
ARC
  5
E2BD
  8
0
 10
3734.6952532018949569
 20
10.6882267449191595
 30
0.0
 40
1.1957023362445101
 50
182.8518529765995879
 51
266.3502136468028993
  0
ARC
  5
E2BE
  8
0
 10
3733.7960999359238485
 20
11.79036320443719
 30
0.0
 40
1.5014151906377191
 50
284.6865280778101237
 51
89.9922555844988068
  0
ARC
  5
E2BF
  8
0
 10
3733.7964916723722126
 20
11.7903714846151804
 30
0.0
 40
1.5014069086146811
 50
90.0072047504848456
 51
261.0074126044838749
  0
LINE
  5
E2C0
  8
0
 10
3734.9262100245878173
 20
10.1600648369419897
 30
0.0
 11
3734.9262100245878173
 21
9.4203854306419732
 31
0.0
  0
LINE
  5
E2C1
  8
0
 10
3735.13880844978803
 20
10.1701463936419696
 30
0.0
 11
3735.13880844978803
 21
9.4103038739419862
 31
0.0
  0
LINE
  5
E2C2
  8
0
 10
3735.2968689305880616
 20
9.4485316181419883
 30
0.0
 11
3735.2968689305880616
 21
10.1319186494419906
 31
0.0
  0
LINE
  5
E2C3
  8
0
 10
3735.7215643734880359
 20
9.2663972751419728
 30
0.0
 11
3735.7215643734880359
 21
10.3140529924419706
 31
0.0
  0
LINE
  5
E2C4
  8
0
 10
3735.8442054598881441
 20
9.2422066693419858
 30
0.0
 11
3735.8442054598881441
 21
10.33824359814197
 31
0.0
  0
LINE
  5
E2C5
  8
0
 10
3736.0088871899888545
 20
9.3040046613419651
 30
0.0
 11
3736.0088871899888545
 21
10.2764456062419693
 31
0.0
  0
LINE
  5
E2C6
  8
0
 10
3735.8968370816878632
 20
9.2744771022419776
 30
0.0
 11
3735.979359630889121
 21
9.2744771022419776
 31
0.0
  0
LINE
  5
E2C7
  8
0
 10
3735.13880844978803
 20
9.4103038739419862
 30
0.0
 11
3735.2453188581889663
 21
9.4103038739419862
 31
0.0
  0
LINE
  5
E2C8
  8
0
 10
3735.13880844978803
 20
10.1701463936419696
 30
0.0
 11
3735.2453188581889663
 21
10.1701463936419696
 31
0.0
  0
LINE
  5
E2C9
  8
0
 10
3735.8968370816878632
 20
10.3059731652419693
 30
0.0
 11
3735.979359630889121
 21
10.3059731652419693
 31
0.0
  0
ARC
  5
E2CA
  8
0
 10
3735.3881768088881472
 20
9.1349912977419798
 30
0.0
 40
0.3700787402
 50
33.9156878928069929
 51
72.4347470725951013
  0
ARC
  5
E2CB
  8
0
 10
3735.4345149155878971
 20
9.2813754738419796
 30
0.0
 40
0.2165354331
 50
72.4347470725951013
 51
129.4700055112936923
  0
ARC
  5
E2CC
  8
0
 10
3735.0327482741881795
 20
9.4203854306419732
 30
0.0
 40
0.1065382496
 50
180.0
 51
354.5700608436998209
  0
ARC
  5
E2CD
  8
0
 10
3735.3584842012887748
 20
9.3737065436419904
 30
0.0
 40
0.0969290119
 50
129.4700055111941879
 51
146.1267076103951013
  0
ARC
  5
E2CE
  8
0
 10
3735.2453188581889663
 20
9.4496739526419766
 30
0.0
 40
0.0393700787
 50
270.0
 51
326.1267076103945897
  0
ARC
  5
E2CF
  8
0
 10
3735.3881768088881472
 20
10.4454589698419795
 30
0.0
 40
0.3700787402
 50
287.565252927404913
 51
326.084312107193
  0
ARC
  5
E2D0
  8
0
 10
3735.4345149155878971
 20
10.2990747937419798
 30
0.0
 40
0.2165354331
 50
230.5299944887061088
 51
287.565252927404913
  0
ARC
  5
E2D1
  8
0
 10
3735.0327482741881795
 20
10.1600648369419897
 30
0.0
 40
0.1065382496
 50
5.429939156300259
 51
180.0
  0
ARC
  5
E2D2
  8
0
 10
3735.3584842012887748
 20
10.2067437239419796
 30
0.0
 40
0.0969290119
 50
213.8732923896048135
 51
230.5299944888058121
  0
ARC
  5
E2D3
  8
0
 10
3735.2453188581889663
 20
10.1307763148419792
 30
0.0
 40
0.0393700787
 50
33.8732923896048774
 51
90.0
  0
ARC
  5
E2D4
  8
0
 10
3735.5646036402881691
 20
9.2536153406419732
 30
0.0
 40
0.157480315
 50
4.6555494410007041
 51
33.9156878929044012
  0
ARC
  5
E2D5
  8
0
 10
3735.7863106758891263
 20
9.2716698231419663
 30
0.0
 40
0.0649606299
 50
184.6555494411994118
 51
333.0280652282053211
  0
ARC
  5
E2D6
  8
0
 10
3735.8968370816878632
 20
9.2154219841419867
 30
0.0
 40
0.0590551181
 50
90.0
 51
153.0280652285943859
  0
ARC
  5
E2D7
  8
0
 10
3735.979359630889121
 20
9.3040046613419651
 30
0.0
 40
0.0295275591
 50
270.0
 51
0.0
  0
ARC
  5
E2D8
  8
0
 10
3735.5646036402881691
 20
10.3268349269419897
 30
0.0
 40
0.157480315
 50
326.0843121070956272
 51
355.3444505589993128
  0
ARC
  5
E2D9
  8
0
 10
3735.7863106758891263
 20
10.3087804444419699
 30
0.0
 40
0.0649606299
 50
26.9719347717945901
 51
175.3444505588005029
  0
ARC
  5
E2DA
  8
0
 10
3735.8968370816878632
 20
10.3650282833419691
 30
0.0
 40
0.0590551181
 50
206.9719347714055004
 51
270.0
  0
ARC
  5
E2DB
  8
0
 10
3735.979359630889121
 20
10.2764456062419693
 30
0.0
 40
0.0295275591
 50
0.0
 51
90.0
  0
ARC
  5
E2DC
  8
0
 10
3734.8667187677338006
 20
9.4354937576518711
 30
0.0
 40
0.0596098676840499
 50
3.6150371233735541
 51
85.8795160185231765
  0
ARC
  5
E2DD
  8
0
 10
3734.8665938339167951
 20
10.1451172559753502
 30
0.0
 40
0.0596176937609044
 50
270.3577483556853736
 51
359.5931414658667222
  0
LINE
  5
E2DE
  8
0
 10
3733.233861013664864
 20
11.9424480988250501
 30
0.0
 11
3733.2337076661078754
 21
12.0088293713419798
 31
0.0
  0
ARC
  5
E2DF
  8
0
 10
3733.2651309205730286
 20
12.0101633395308998
 30
0.0
 40
0.0314515562781528
 50
130.9237860233833999
 51
182.4308393618779007
  0
LINE
  5
E2E0
  8
0
 10
3733.2445284356649609
 20
12.0339275564958008
 30
0.0
 11
3733.2910447724129881
 21
12.0804438931468194
 31
0.0
  0
LINE
  5
E2E1
  8
0
 10
3733.5060841158938274
 20
12.2954832367273408
 30
0.0
 11
3733.5538404318699577
 21
12.3432395526050804
 31
0.0
  0
ARC
  5
E2E2
  8
0
 10
3733.575874621940784
 20
12.3224797255547802
 30
0.0
 40
0.0302733538157363
 50
87.5379495949917157
 51
136.7057069166959877
  0
LINE
  5
E2E3
  8
0
 10
3733.5745741494138201
 20
12.3527251338419699
 30
0.0
 11
3733.6442948857220472
 21
12.3527251338419699
 31
0.0
  0
LINE
  5
E2E4
  8
0
 10
3733.2338211419078107
 20
11.6381495656265308
 30
0.0
 11
3733.2338211419078107
 21
11.5701885685520196
 31
0.0
  0
ARC
  5
E2E5
  8
0
 10
3733.2639937927810934
 20
11.5697017810207292
 30
0.0
 40
0.0301765773876499
 50
179.0757042964866059
 51
227.2084538889251917
  0
LINE
  5
E2E6
  8
0
 10
3733.2434938468381915
 20
11.5475573000118494
 30
0.0
 11
3733.2910447722779281
 21
11.5000063745727203
 31
0.0
  0
LINE
  5
E2E7
  8
0
 10
3734.3583388581819236
 20
11.9424480988250501
 30
0.0
 11
3734.3584922057398217
 21
12.0088293713419798
 31
0.0
  0
ARC
  5
E2E8
  8
0
 10
3734.3270689512742138
 20
12.0101633395308998
 30
0.0
 40
0.0314515562781528
 50
357.5691606381221277
 51
49.076213976616593
  0
LINE
  5
E2E9
  8
0
 10
3734.3476714361818267
 20
12.0339275564958008
 30
0.0
 11
3734.3011550994351637
 21
12.0804438931468194
 31
0.0
  0
LINE
  5
E2EA
  8
0
 10
3734.0861157559538697
 20
12.2954832367273408
 30
0.0
 11
3734.0383594399781941
 21
12.3432395526050804
 31
0.0
  0
ARC
  5
E2EB
  8
0
 10
3734.0163252499069131
 20
12.3224797255547802
 30
0.0
 40
0.0302733538157363
 50
43.2942930833040123
 51
92.4620504050082701
  0
LINE
  5
E2EC
  8
0
 10
3734.0176257224338769
 20
12.3527251338419699
 30
0.0
 11
3733.9479049861261046
 21
12.3527251338419699
 31
0.0
  0
LINE
  5
E2ED
  8
0
 10
3734.3583787299398864
 20
11.6381495656265308
 30
0.0
 11
3734.3583787299398864
 21
11.5701885685520196
 31
0.0
  0
ARC
  5
E2EE
  8
0
 10
3734.328206079066149
 20
11.5697017810207292
 30
0.0
 40
0.0301765773876499
 50
312.7915461110746946
 51
0.9242957035133708
  0
LINE
  5
E2EF
  8
0
 10
3734.3487060250099603
 20
11.5475573000118494
 30
0.0
 11
3734.3011550995711332
 21
11.5000063745727203
 31
0.0
  0
ARC
  5
E2F0
  8
0
 10
3733.7963211419078107
 20
11.7902251338419806
 30
0.0
 40
0.6484056893166339
 50
297.0880310786200766
 51
242.9101559175657883
  0
ARC
  5
E2F1
  8
0
 10
3733.796302875532092
 20
11.7902251337419699
 30
0.0
 40
0.347931118925292
 50
328.0663354606703024
 51
211.9393508572887868
  0
ARC
  5
E2F3
  8
0
 10
3733.796302875532092
 20
11.7902251337419699
 30
0.0
 40
0.4001299342760506
 50
317.5570159780754125
 51
222.4439249756032098
  0
LINE
  5
E2F4
  8
0
 10
3758.0916476533179775
 20
10.6287361602212496
 30
0.0
 11
3758.0916476532997876
 21
11.7902051212964292
 31
0.0
  0
LINE
  5
E2F5
  8
0
 10
3757.5010995321399605
 20
10.6162920803863194
 30
0.0
 11
3757.5010995321640621
 21
11.7902036963415107
 31
0.0
  0
LINE
  5
E2F6
  8
0
 10
3756.9735418524360284
 20
9.4949495432419742
 30
0.0
 11
3756.7216773961540639
 21
9.4949495432419742
 31
0.0
  0
LINE
  5
E2F7
  8
0
 10
3756.9735418524360284
 20
10.0855007243419692
 30
0.0
 11
3756.7257132959439332
 21
10.0855007243419799
 31
0.0
  0
ARC
  5
E2F8
  8
0
 10
3757.7963764980358974
 20
11.7902251337419699
 30
0.0
 40
0.5826771654
 50
300.4475334808859088
 51
239.4865956132923941
  0
ARC
  5
E2F9
  8
0
 10
3757.7963735926791742
 20
11.7902266629147601
 30
0.0
 40
0.2952740614293256
 50
359.9958200059646742
 51
180.004456496151704
  0
ARC
  5
E2FA
  8
0
 10
3757.7963764980918313
 20
11.7902251338337596
 30
0.0
 40
1.178938513443327
 50
284.5044438805850859
 51
255.4952644241363942
  0
ARC
  5
E2FB
  8
0
 10
3756.9553515225079536
 20
10.6311477652862294
 30
0.0
 40
0.5459501638374376
 50
271.909372198867004
 51
358.4407494031373744
  0
ARC
  5
E2FC
  8
0
 10
3756.897426171672123
 20
10.6882267449191595
 30
0.0
 40
1.1957023362445101
 50
273.6497863531972143
 51
357.1481470234003268
  0
ARC
  5
E2FD
  8
0
 10
3757.7965794376441409
 20
11.79036320443719
 30
0.0
 40
1.5014151906377191
 50
90.0077444155272559
 51
255.3134719221899047
  0
ARC
  5
E2FE
  8
0
 10
3757.7961877011957768
 20
11.7903714846151804
 30
0.0
 40
1.5014069086146811
 50
278.9925873955161251
 51
89.9927952495151544
  0
LINE
  5
E2FF
  8
0
 10
3756.6664693489801721
 20
10.1600648369419897
 30
0.0
 11
3756.6664693489801721
 21
9.4203854306419732
 31
0.0
  0
LINE
  5
E300
  8
0
 10
3756.4538709237799594
 20
10.1701463936419696
 30
0.0
 11
3756.4538709237799594
 21
9.4103038739419862
 31
0.0
  0
LINE
  5
E301
  8
0
 10
3756.2958104429799278
 20
9.4485316181419883
 30
0.0
 11
3756.2958104429799278
 21
10.1319186494419906
 31
0.0
  0
LINE
  5
E302
  8
0
 10
3755.8711150000799535
 20
9.2663972751419728
 30
0.0
 11
3755.8711150000799535
 21
10.3140529924419706
 31
0.0
  0
LINE
  5
E303
  8
0
 10
3755.7484739136798453
 20
9.2422066693419858
 30
0.0
 11
3755.7484739136798453
 21
10.33824359814197
 31
0.0
  0
LINE
  5
E304
  8
0
 10
3755.5837921835800444
 20
9.3040046613419651
 30
0.0
 11
3755.5837921835800444
 21
10.2764456062419693
 31
0.0
  0
LINE
  5
E305
  8
0
 10
3755.6958422918801261
 20
9.2744771022419776
 30
0.0
 11
3755.6133197426797778
 21
9.2744771022419776
 31
0.0
  0
LINE
  5
E306
  8
0
 10
3756.4538709237799594
 20
9.4103038739419862
 30
0.0
 11
3756.3473605153799326
 21
9.4103038739419862
 31
0.0
  0
LINE
  5
E307
  8
0
 10
3756.4538709237799594
 20
10.1701463936419696
 30
0.0
 11
3756.3473605153799326
 21
10.1701463936419696
 31
0.0
  0
LINE
  5
E308
  8
0
 10
3755.6958422918801261
 20
10.3059731652419693
 30
0.0
 11
3755.6133197426797778
 21
10.3059731652419693
 31
0.0
  0
ARC
  5
E309
  8
0
 10
3756.2045025646798422
 20
9.1349912977419798
 30
0.0
 40
0.3700787402
 50
107.5652529274048987
 51
146.084312107193
  0
ARC
  5
E30A
  8
0
 10
3756.1581644579800923
 20
9.2813754738419796
 30
0.0
 40
0.2165354331
 50
50.5299944887062011
 51
107.5652529274048987
  0
ARC
  5
E30B
  8
0
 10
3756.5599310993798099
 20
9.4203854306419732
 30
0.0
 40
0.1065382496
 50
185.4299391563002075
 51
0.0
  0
ARC
  5
E30C
  8
0
 10
3756.2341951722801241
 20
9.3737065436419904
 30
0.0
 40
0.0969290119
 50
33.8732923896048774
 51
50.5299944888057624
  0
ARC
  5
E30D
  8
0
 10
3756.3473605153799326
 20
9.4496739526419766
 30
0.0
 40
0.0393700787
 50
213.8732923896054103
 51
270.0
  0
ARC
  5
E30E
  8
0
 10
3756.2045025646798422
 20
10.4454589698419795
 30
0.0
 40
0.3700787402
 50
213.9156878928068863
 51
252.434747072595087
  0
ARC
  5
E30F
  8
0
 10
3756.1581644579800923
 20
10.2990747937419798
 30
0.0
 40
0.2165354331
 50
252.434747072595087
 51
309.4700055112937775
  0
ARC
  5
E310
  8
0
 10
3756.5599310993798099
 20
10.1600648369419897
 30
0.0
 40
0.1065382496
 50
0.0
 51
174.5700608436997072
  0
ARC
  5
E311
  8
0
 10
3756.2341951722801241
 20
10.2067437239419796
 30
0.0
 40
0.0969290119
 50
309.4700055111943016
 51
326.1267076103951013
  0
ARC
  5
E312
  8
0
 10
3756.3473605153799326
 20
10.1307763148419792
 30
0.0
 40
0.0393700787
 50
90.0
 51
146.1267076103951013
  0
ARC
  5
E313
  8
0
 10
3756.0280757332798203
 20
9.2536153406419732
 30
0.0
 40
0.157480315
 50
146.0843121070955988
 51
175.3444505589993128
  0
ARC
  5
E314
  8
0
 10
3755.8063686976802273
 20
9.2716698231419663
 30
0.0
 40
0.0649606299
 50
206.9719347717947073
 51
355.3444505588004745
  0
ARC
  5
E315
  8
0
 10
3755.6958422918801261
 20
9.2154219841419867
 30
0.0
 40
0.0590551181
 50
26.9719347714055893
 51
90.0
  0
ARC
  5
E316
  8
0
 10
3755.6133197426797778
 20
9.3040046613419651
 30
0.0
 40
0.0295275591
 50
180.0
 51
270.0
  0
ARC
  5
E317
  8
0
 10
3756.0280757332798203
 20
10.3268349269419897
 30
0.0
 40
0.157480315
 50
184.6555494410006872
 51
213.9156878929044012
  0
ARC
  5
E318
  8
0
 10
3755.8063686976802273
 20
10.3087804444419699
 30
0.0
 40
0.0649606299
 50
4.6555494411995291
 51
153.0280652282054064
  0
ARC
  5
E319
  8
0
 10
3755.6958422918801261
 20
10.3650282833419691
 30
0.0
 40
0.0590551181
 50
270.0
 51
333.0280652285944143
  0
ARC
  5
E31A
  8
0
 10
3755.6133197426797778
 20
10.2764456062419693
 30
0.0
 40
0.0295275591
 50
90.0
 51
180.0
  0
ARC
  5
E31B
  8
0
 10
3756.7259606058341888
 20
9.4354937576518711
 30
0.0
 40
0.0596098676840499
 50
94.1204839814768235
 51
176.3849628766265027
  0
ARC
  5
E31C
  8
0
 10
3756.72608553964983
 20
10.1451172559753502
 30
0.0
 40
0.0596176937609044
 50
180.4068585341333062
 51
269.6422516443146264
  0
LINE
  5
E31D
  8
0
 10
3758.3588183599031254
 20
11.9424480988250501
 30
0.0
 11
3758.3589717074610235
 21
12.0088293713419798
 31
0.0
  0
ARC
  5
E31E
  8
0
 10
3758.3275484529949608
 20
12.0101633395308998
 30
0.0
 40
0.0314515562781528
 50
357.5691606381221277
 51
49.076213976616593
  0
LINE
  5
E31F
  8
0
 10
3758.348150937902119
 20
12.0339275564958008
 30
0.0
 11
3758.3016346011550013
 21
12.0804438931468194
 31
0.0
  0
LINE
  5
E320
  8
0
 10
3758.0865952576750715
 20
12.2954832367273408
 30
0.0
 11
3758.0388389416989412
 21
12.3432395526050804
 31
0.0
  0
ARC
  5
E321
  8
0
 10
3758.0168047516281149
 20
12.3224797255547802
 30
0.0
 40
0.0302733538157363
 50
43.2942930833040123
 51
92.4620504050082701
  0
LINE
  5
E322
  8
0
 10
3758.0181052241550788
 20
12.3527251338419699
 30
0.0
 11
3757.9483844878450327
 21
12.3527251338419699
 31
0.0
  0
LINE
  5
E323
  8
0
 10
3758.3588582316601787
 20
11.6381495656265308
 30
0.0
 11
3758.3588582316601787
 21
11.5701885685520196
 31
0.0
  0
ARC
  5
E324
  8
0
 10
3758.3286855807859865
 20
11.5697017810207292
 30
0.0
 40
0.0301765773876499
 50
312.7915461110746946
 51
0.9242957035133708
  0
LINE
  5
E325
  8
0
 10
3758.3491855267297979
 20
11.5475573000118494
 30
0.0
 11
3758.3016346012900613
 21
11.5000063745727203
 31
0.0
  0
LINE
  5
E326
  8
0
 10
3757.2343405153860658
 20
11.9424480988250501
 30
0.0
 11
3757.2341871678281677
 21
12.0088293713419798
 31
0.0
  0
ARC
  5
E327
  8
0
 10
3757.2656104222937756
 20
12.0101633395308998
 30
0.0
 40
0.0314515562781528
 50
130.9237860233833999
 51
182.4308393618779007
  0
LINE
  5
E328
  8
0
 10
3757.2450079373870722
 20
12.0339275564958008
 30
0.0
 11
3757.2915242741328257
 21
12.0804438931468194
 31
0.0
  0
LINE
  5
E329
  8
0
 10
3757.5065636176141197
 20
12.2954832367273408
 30
0.0
 11
3757.5543199335897953
 21
12.3432395526050804
 31
0.0
  0
ARC
  5
E32A
  8
0
 10
3757.5763541236610763
 20
12.3224797255547802
 30
0.0
 40
0.0302733538157363
 50
87.5379495949917157
 51
136.7057069166959877
  0
LINE
  5
E32B
  8
0
 10
3757.5750536511341124
 20
12.3527251338419699
 30
0.0
 11
3757.6447743874427943
 21
12.3527251338419699
 31
0.0
  0
LINE
  5
E32C
  8
0
 10
3757.2343006436290125
 20
11.6381495656265308
 30
0.0
 11
3757.2343006436290125
 21
11.5701885685520196
 31
0.0
  0
ARC
  5
E32D
  8
0
 10
3757.2644732945018404
 20
11.5697017810207292
 30
0.0
 40
0.0301765773876499
 50
179.0757042964866059
 51
227.2084538889251917
  0
LINE
  5
E32E
  8
0
 10
3757.2439733485589386
 20
11.5475573000118494
 30
0.0
 11
3757.2915242739982205
 21
11.5000063745727203
 31
0.0
  0
ARC
  5
E32F
  8
0
 10
3757.7963582316610882
 20
11.7902251338419806
 30
0.0
 40
0.6484056893166339
 50
297.0898440824341833
 51
242.9119689213798097
  0
ARC
  5
E330
  8
0
 10
3757.7963764980358974
 20
11.7902251337419699
 30
0.0
 40
0.347931118925292
 50
328.0606491427112132
 51
211.9336645393296124
  0
ARC
  5
E331
  8
0
 10
3757.7963764980358974
 20
11.7902251337419699
 30
0.0
 40
0.4001299342760506
 50
317.5560750243968187
 51
222.4429840219245875
  0
ENDSEC
  0
EOF
