  0
SECTION
  2
HEADER
  9
$ACADVER
  1
AC1009
  9
$INSBASE
 10
4511.446569481367078
 20
464.2226815765797028
 30
0.0
  9
$EXTMIN
 10
4509.377100290663293
 20
463.8683508678798262
 30
0.0
  9
$EXTMAX
 10
4512.0151279365672963
 20
473.0978716640797188
 30
0.0
  9
$LIMMIN
 10
0.0
 20
0.0
  9
$LIMMAX
 10
11.6929133858000007
 20
8.2677165353999982
  9
$ORTHOMODE
 70
     0
  9
$REGENMODE
 70
     1
  9
$FILLMODE
 70
     1
  9
$QTEXTMODE
 70
     0
  9
$MIRRTEXT
 70
     0
  9
$DRAGMODE
 70
     2
  9
$LTSCALE
 40
0.6431102362
  9
$OSMODE
 70
  2039
  9
$ATTMODE
 70
     1
  9
$TEXTSIZE
 40
0.2
  9
$TRACEWID
 40
0.05
  9
$TEXTSTYLE
  7
STANDARD
  9
$CLAYER
  8
0
  9
$CELTYPE
  6
BYLAYER
  9
$CECOLOR
 62
   256
  9
$DIMSCALE
 40
1.0
  9
$DIMASZ
 40
0.1875
  9
$DIMEXO
 40
0.0625
  9
$DIMDLI
 40
0.4443307087
  9
$DIMRND
 40
0.0
  9
$DIMDLE
 40
0.0
  9
$DIMEXE
 40
0.125
  9
$DIMTP
 40
0.01
  9
$DIMTM
 40
0.01
  9
$DIMTXT
 40
2.0
  9
$DIMCEN
 40
0.1052362205
  9
$DIMTSZ
 40
0.0
  9
$DIMTOL
 70
     1
  9
$DIMLIM
 70
     0
  9
$DIMTIH
 70
     1
  9
$DIMTOH
 70
     1
  9
$DIMSE1
 70
     0
  9
$DIMSE2
 70
     0
  9
$DIMTAD
 70
     0
  9
$DIMZIN
 70
     0
  9
$DIMBLK
  1

  9
$DIMASO
 70
     1
  9
$DIMSHO
 70
     1
  9
$DIMPOST
  1
\X
  9
$DIMAPOST
  1

  9
$DIMALT
 70
     1
  9
$DIMALTD
 70
     2
  9
$DIMALTF
 40
25.3999999999999986
  9
$DIMLFAC
 40
1.0
  9
$DIMTOFL
 70
     0
  9
$DIMTVP
 40
0.0
  9
$DIMTIX
 70
     0
  9
$DIMSOXD
 70
     0
  9
$DIMSAH
 70
     0
  9
$DIMBLK1
  1

  9
$DIMBLK2
  1

  9
$DIMSTYLE
  2
STANDARD
  9
$DIMCLRD
 70
     0
  9
$DIMCLRE
 70
     0
  9
$DIMCLRT
 70
     0
  9
$DIMTFAC
 40
1.0
  9
$DIMGAP
 40
0.09
  9
$LUNITS
 70
     2
  9
$LUPREC
 70
     4
  9
$SKETCHINC
 40
0.1
  9
$FILLETRAD
 40
0.0
  9
$AUNITS
 70
     0
  9
$AUPREC
 70
     0
  9
$MENU
  1
.
  9
$ELEVATION
 40
0.0
  9
$PELEVATION
 40
0.0
  9
$THICKNESS
 40
0.0
  9
$LIMCHECK
 70
     0
  9
$BLIPMODE
 70
     0
  9
$CHAMFERA
 40
0.0
  9
$CHAMFERB
 40
0.0
  9
$SKPOLY
 70
     0
  9
$TDCREATE
 40
2458060.468368056230247
  9
$TDUPDATE
 40
2459642.7394675929099321
  9
$TDINDWG
 40
1.5224217593
  9
$TDUSRTIMER
 40
1.5224217593
  9
$USRTIMER
 70
     1
  9
$ANGBASE
 50
0.0
  9
$ANGDIR
 70
     0
  9
$PDMODE
 70
     0
  9
$PDSIZE
 40
0.3125
  9
$PLINEWID
 40
0.0
  9
$COORDS
 70
     1
  9
$SPLFRAME
 70
     0
  9
$SPLINETYPE
 70
     6
  9
$SPLINESEGS
 70
     8
  9
$ATTDIA
 70
     1
  9
$ATTREQ
 70
     1
  9
$HANDLING
 70
     1
  9
$HANDSEED
  5
1B5EA
  9
$SURFTAB1
 70
     6
  9
$SURFTAB2
 70
     6
  9
$SURFTYPE
 70
     6
  9
$SURFU
 70
     6
  9
$SURFV
 70
     6
  9
$UCSNAME
  2

  9
$UCSORG
 10
0.0
 20
0.0
 30
0.0
  9
$UCSXDIR
 10
1.0
 20
0.0
 30
0.0
  9
$UCSYDIR
 10
0.0
 20
1.0
 30
0.0
  9
$PUCSNAME
  2

  9
$PUCSORG
 10
0.0
 20
0.0
 30
0.0
  9
$PUCSXDIR
 10
1.0
 20
0.0
 30
0.0
  9
$PUCSYDIR
 10
0.0
 20
1.0
 30
0.0
  9
$USERI1
 70
     0
  9
$USERI2
 70
     0
  9
$USERI3
 70
     0
  9
$USERI4
 70
     0
  9
$USERI5
 70
     0
  9
$USERR1
 40
0.0
  9
$USERR2
 40
0.0
  9
$USERR3
 40
0.0
  9
$USERR4
 40
0.0
  9
$USERR5
 40
0.0
  9
$WORLDVIEW
 70
     1
  9
$SHADEDGE
 70
     3
  9
$SHADEDIF
 70
    70
  9
$TILEMODE
 70
     1
  9
$MAXACTVP
 70
    64
  9
$PLIMCHECK
 70
     0
  9
$PEXTMIN
 10
1.0000000000000000E+20
 20
1.0000000000000000E+20
 30
1.0000000000000000E+20
  9
$PEXTMAX
 10
-1.0000000000000000E+20
 20
-1.0000000000000000E+20
 30
-1.0000000000000000E+20
  9
$PLIMMIN
 10
0.0
 20
0.0
  9
$PLIMMAX
 10
12.0
 20
9.0
  9
$UNITMODE
 70
     0
  9
$VISRETAIN
 70
     1
  9
$PLINEGEN
 70
     0
  9
$PSLTSCALE
 70
     1
  0
ENDSEC
  0
SECTION
  2
TABLES
  0
TABLE
  2
VPORT
 70
     1
  0
VPORT
  2
*ACTIVE
 70
     0
 10
0.0
 20
0.0
 11
1.0
 21
1.0
 12
604.352823059367438
 22
332.14640267045462
 13
0.0
 23
0.0
 14
1.0
 24
1.0
 15
0.0
 25
0.0
 16
0.0
 26
0.0
 36
60.4960186965801583
 17
3911.3653564453120453
 27
132.5796051025390057
 37
0.0
 40
27.4969514544613709
 41
2.000833333333333
 42
50.0
 43
0.0
 44
0.0
 50
0.0
 51
0.0
 71
     0
 72
   100
 73
     1
 74
     1
 75
     0
 76
     0
 77
     0
 78
     0
  0
ENDTAB
  0
TABLE
  2
LTYPE
 70
     2
  0
LTYPE
  2
CONTINUOUS
 70
     0
  3
Solid line
 72
    65
 73
     0
 40
0.0
  0
LTYPE
  2
PHANTOM2
 70
     0
  3
___ _ _ ___ _ _ ___ _ _ ___ _ _
 72
    65
 73
     6
 40
1.25
 49
0.625
 49
-0.125
 49
0.125
 49
-0.125
 49
0.125
 49
-0.125
  0
ENDTAB
  0
TABLE
  2
LAYER
 70
     2
  0
LAYER
  2
0
 70
     0
 62
   255
  6
CONTINUOUS
  0
LAYER
  2
DEFPOINTS
 70
     0
 62
     7
  6
CONTINUOUS
  0
ENDTAB
  0
TABLE
  2
STYLE
 70
     1
  0
STYLE
  2
STANDARD
 70
     0
 40
0.0
 41
0.8
 50
0.0
 71
     0
 42
0.2
  3
txt
  4

  0
ENDTAB
  0
TABLE
  2
VIEW
 70
     0
  0
ENDTAB
  0
TABLE
  2
UCS
 70
     0
  0
ENDTAB
  0
TABLE
  2
APPID
 70
    11
  0
APPID
  2
ACAD
 70
     0
  0
APPID
  2
ACAD_MLEADERVER
 70
     0
  0
APPID
  2
ACAD_EXEMPT_FROM_CAD_STANDARDS
 70
     0
  0
APPID
  2
ACAD_NAV_VCDISPLAY
 70
     0
  0
APPID
  2
ACAECLAYERSTANDARD
 70
     0
  0
APPID
  2
ACCMTRANSPARENCY
 70
     0
  0
APPID
  2
ACAD_DSTYLE_DIMJAG
 70
     0
  0
APPID
  2
ACAD_DSTYLE_DIMTALN
 70
     0
  0
APPID
  2
ACDBATTR
 70
     0
  0
APPID
  2
ACADANNOTATIVE
 70
     0
  0
APPID
  2
DCO15
 70
     0
  0
ENDTAB
  0
TABLE
  2
DIMSTYLE
 70
     1
  0
DIMSTYLE
  2
STANDARD
 70
     0
  3

  4

  5

  6

  7

 40
1.0
 41
0.1875
 42
0.0625
 43
0.38
 44
0.125
 45
0.0
 46
0.0
 47
0.01
 48
0.01
140
0.15625
141
0.09
142
0.0
143
25.3999999999999986
144
1.0
145
0.0
146
1.0
147
0.09
 71
     1
 72
     0
 73
     1
 74
     1
 75
     0
 76
     0
 77
     0
 78
     4
170
     0
171
     2
172
     0
173
     0
174
     0
175
     0
176
     0
177
     0
178
     0
  0
ENDTAB
  0
ENDSEC
  0
SECTION
  2
BLOCKS
  0
BLOCK
  8
0
  2
$MODEL_SPACE
 70
     0
 10
0.0
 20
0.0
 30
0.0
  3
$MODEL_SPACE
  1

  0
ENDBLK
  5
21
  8
0
  0
BLOCK
 67
     1
  8
0
  2
$PAPER_SPACE
 70
     0
 10
0.0
 20
0.0
 30
0.0
  3
$PAPER_SPACE
  1

  0
ENDBLK
  5
1D
 67
     1
  8
0
  0
ENDSEC
  0
SECTION
  2
ENTITIES
  0
ATTDEF
  5
159BF
  8
DEFPOINTS
 10
4511.4465696694323924
 20
464.2260161108010266
 30
0.0
 40
0.001
  1
K-72414BR
  3

  2
MODELNUMBER
 70
     0
1001
ACDBATTR
1070
     0
1070
     1
  0
ATTDEF
  5
159C0
  8
DEFPOINTS
 10
4511.4465696694323924
 20
464.224349270421726
 30
0.0
 40
0.001
  1
AWAKEN
  3

  2
TRADENAME
 70
     0
1001
ACDBATTR
1070
     0
1070
     1
  0
ATTDEF
  5
159C1
  8
DEFPOINTS
 10
4511.4465696694323924
 20
464.2226827774675826
 30
0.0
 40
0.001
  1
HANDSHOWER
  3

  2
PRODUCT
 70
     0
1001
ACDBATTR
1070
     0
1070
     1
  0
LINE
  5
1B1DD
  8
0
 10
4510.9593647570045505
 20
464.2226815765797028
 30
0.0
 11
4511.933774205728696
 21
464.2226815765797028
 31
0.0
  0
ARC
  5
1B1DE
  8
0
 10
4510.7408114148965979
 20
469.1867344101190156
 30
0.0
 40
0.0294810300304357
 50
179.9640581402603914
 51
269.0900097808519718
  0
LINE
  5
1B1DF
  8
0
 10
4510.7403432072678697
 20
469.1572570982796719
 30
0.0
 11
4510.9776109726672075
 21
469.1530874591796874
 31
0.0
  0
ARC
  5
1B1E0
  8
0
 10
4510.9778442217721022
 20
469.166671140205608
 30
0.0
 40
0.013585683470487
 50
269.0162551647716782
 51
359.9939479723969953
  0
LINE
  5
1B1E1
  8
0
 10
4510.9914299051679336
 20
469.1666697051796859
 30
0.0
 11
4510.9907343021977795
 21
469.2166346082011046
 31
0.0
  0
ARC
  5
1B1E2
  8
0
 10
4510.292809663747903
 20
469.2220775665990118
 30
0.0
 40
0.6979458623355888
 50
359.5531720692912927
 51
25.0096706921650203
  0
ARC
  5
1B1E3
  8
0
 10
4510.9432032051754504
 20
469.5253626545763268
 30
0.0
 40
0.0196850394083733
 50
141.30210232410289
 51
204.6613348526462914
  0
LINE
  5
1B1E4
  8
0
 10
4510.7113303906671717
 20
469.1867529036796896
 30
0.0
 11
4510.7113303906671717
 21
469.7569156627916982
 31
0.0
  0
LINE
  5
1B1E5
  8
0
 10
4510.7113303906671717
 20
469.7870433765149869
 30
0.0
 11
4510.7113303906671717
 21
469.8439104547431953
 31
0.0
  0
LINE
  5
1B1E6
  8
0
 10
4509.3880019085672757
 20
472.6035361846796832
 30
0.0
 11
4510.3794854920679427
 21
473.0978716640797188
 31
0.0
  0
LINE
  5
1B1E7
  8
0
 10
4510.3794854920679427
 20
473.0978716640797188
 30
0.0
 11
4510.4823370722542677
 21
473.0675827342557795
 31
0.0
  0
LINE
  5
1B1E8
  8
0
 10
4510.4823370722542677
 20
473.0675827342557795
 30
0.0
 11
4512.0151279365672963
 21
470.0593112811797027
 31
0.0
  0
LINE
  5
1B1E9
  8
0
 10
4512.0151279365672963
 20
470.0593112811797027
 30
0.0
 11
4511.9791775535677516
 21
469.9582992187798141
 31
0.0
  0
LINE
  5
1B1EA
  8
0
 10
4511.9791775535677516
 20
469.9582992187798141
 30
0.0
 11
4510.3794854920679427
 21
473.0978716640797188
 31
0.0
  0
ARC
  5
1B1EB
  8
0
 10
4487.8717205813127293
 20
459.6522644993485187
 30
0.0
 40
26.2908870417291105
 50
23.3185202771989708
 51
30.6814797245608695
  0
LINE
  5
1B1EC
  8
0
 10
4511.9534592451673234
 20
469.9257988356840769
 30
0.0
 11
4511.9534592451673234
 21
464.2423666159951949
 31
0.0
  0
LINE
  5
1B1ED
  8
0
 10
4511.9791775535677516
 20
469.9582992187798141
 30
0.0
 11
4511.9704120635669824
 21
469.9537361934796991
 31
0.0
  0
ARC
  5
1B1EE
  8
0
 10
4511.9849605626086486
 20
469.9257956461266872
 30
0.0
 40
0.0315013176036286
 50
117.5057607379795002
 51
179.9941987212145875
  0
LINE
  5
1B1EF
  8
0
 10
4511.0189087781682247
 20
465.1440241348797144
 30
0.0
 11
4511.0139982424670961
 21
469.2586643367797024
 31
0.0
  0
ARC
  5
1B1F0
  8
0
 10
4510.5722257702709612
 20
469.2625935376192956
 30
0.0
 40
0.4417899453462554
 50
359.4904148558193242
 51
27.8920374828697994
  0
LINE
  5
1B1F1
  8
0
 10
4510.9626932651672178
 20
469.4692659625796978
 30
0.0
 11
4509.3792458315665499
 21
472.576982545679698
 31
0.0
  0
ARC
  5
1B1F2
  8
0
 10
4509.3967853299027411
 20
472.5859193665920088
 30
0.0
 40
0.0196850392406514
 50
116.4999995970388937
 51
207.0000003594182942
  0
LINE
  5
1B1F3
  8
0
 10
4510.8314766719086037
 20
469.6793132817923038
 30
0.0
 11
4510.7920518603668825
 21
469.6600829975797069
 31
0.0
  0
ARC
  5
1B1F4
  8
0
 10
4510.7867521987864166
 20
469.6709073466271889
 30
0.0
 40
0.0120520929789669
 50
224.6407815867889894
 51
296.0866274796409243
  0
ARC
  5
1B1F5
  8
0
 10
4511.7116777826413454
 20
470.3938177351553236
 30
0.0
 40
1.1858917127673241
 50
211.8074664673370933
 51
218.0779731196869022
  0
ARC
  5
1B1F6
  8
0
 10
4510.7144019616853257
 20
469.7748912020903163
 30
0.0
 40
0.0121722738149539
 50
118.446411079914796
 51
210.1696002750859975
  0
LINE
  5
1B1F7
  8
0
 10
4510.7086038622674096
 20
469.7855938322796874
 30
0.0
 11
4510.7480009330047324
 21
469.8065390741385841
 31
0.0
  0
ARC
  5
1B1F8
  8
0
 10
4510.5553577646996928
 20
469.589227051139801
 30
0.0
 40
0.2252695900632918
 50
30.8621809362132495
 51
38.7531222505904296
  0
ARC
  5
1B1F9
  8
0
 10
4510.9336232640798698
 20
469.8522033461090928
 30
0.0
 40
0.2364694105985679
 50
211.0493241099283921
 51
218.5659790768644939
  0
ARC
  5
1B1FA
  8
0
 10
4510.709557137694901
 20
469.7846300750504724
 30
0.0
 40
0.0413062133632872
 50
29.7984991079843908
 51
41.6945311981555875
  0
ARC
  5
1B1FB
  8
0
 10
4510.7410169512031644
 20
469.8096201941571053
 30
0.0
 40
0.0025603877035711
 50
57.843850996374421
 51
103.9303835552255038
  0
ARC
  5
1B1FC
  8
0
 10
4510.7199043153314051
 20
469.7820828182944979
 30
0.0
 40
0.0372495419387974
 50
37.0365599146622131
 51
52.8881850916974727
  0
ARC
  5
1B1FD
  8
0
 10
4508.5674061657346101
 20
468.2888054296411156
 30
0.0
 40
2.6569771063784309
 50
31.5112970807826009
 51
34.7826909488026104
  0
ARC
  5
1B1FE
  8
0
 10
4510.8040586118377178
 20
469.6595891749669249
 30
0.0
 40
0.0336870209363898
 50
21.5825699707401917
 51
32.1570342700632565
  0
ARC
  5
1B1FF
  8
0
 10
4510.8788636954832327
 20
469.7113367184724098
 30
0.0
 40
0.0586464125113795
 50
213.8494896258297047
 51
222.1499716591131914
  0
LINE
  5
1B200
  8
0
 10
4510.7161642369674155
 20
469.8477011314797096
 30
0.0
 11
4510.7404005563666942
 21
469.812105278179672
 31
0.0
  0
LINE
  5
1B201
  8
0
 10
4510.7111451471364489
 20
469.8452527843667781
 30
0.0
 11
4510.7422853869256869
 21
469.8035004346469918
 31
0.0
  0
LINE
  5
1B202
  8
0
 10
4510.7404385737672783
 20
469.8025185863796764
 30
0.0
 11
4510.7113303906671717
 21
469.8439104547431953
 31
0.0
  0
LINE
  5
1B203
  8
0
 10
4510.7113303906671717
 20
469.8424661149036865
 30
0.0
 11
4510.7100148563022231
 21
469.8447014205996766
 31
0.0
  0
LINE
  5
1B204
  8
0
 10
4510.710359168807372
 20
469.8441163779550038
 30
0.0
 11
4510.6713420815667632
 21
469.8250864724797111
 31
0.0
  0
LINE
  5
1B205
  8
0
 10
4510.5875263701682343
 20
469.936288323879694
 30
0.0
 11
4510.6569623080667952
 21
469.8282960121796918
 31
0.0
  0
ARC
  5
1B206
  8
0
 10
4510.6661774805870664
 20
469.8357651760895237
 30
0.0
 40
0.0118620324597088
 50
219.0257670647660859
 51
295.8100627073833948
  0
LINE
  5
1B207
  8
0
 10
4510.5919350519670843
 20
469.9530728922796925
 30
0.0
 11
4510.6256023809683029
 21
469.9709741283796802
 31
0.0
  0
ARC
  5
1B208
  8
0
 10
4510.5974824957884266
 20
469.9426445025688963
 30
0.0
 40
0.011812088930662
 50
118.011009676716796
 51
212.5549298997715084
  0
LINE
  5
1B209
  8
0
 10
4510.6511166871669047
 20
469.9835416541797031
 30
0.0
 11
4510.6107502801669398
 21
469.9620841593796854
 31
0.0
  0
LINE
  5
1B20A
  8
0
 10
4510.7328283490160175
 20
469.8558300017630245
 30
0.0
 11
4510.6923318100671167
 21
469.8360755070797268
 31
0.0
  0
ARC
  5
1B20B
  8
0
 10
4510.6867592037242503
 20
469.8471418117263738
 30
0.0
 40
0.0123901993524726
 50
227.4373158412724081
 51
296.7282365323537192
  0
ARC
  5
1B20C
  8
0
 10
4511.137000138143776
 20
470.2311894854133811
 30
0.0
 40
0.6040854332825621
 50
208.6167589183534119
 51
220.6062835132379121
  0
ARC
  5
1B20D
  8
0
 10
4510.6167255152322468
 20
469.9510657288309972
 30
0.0
 40
0.0125343227113282
 50
118.470736506883199
 51
191.8592938893337134
  0
ARC
  5
1B20E
  8
0
 10
4510.6329993661584012
 20
469.9544830936263793
 30
0.0
 40
0.0291631111849812
 50
191.8592938893368967
 51
205.6404050205896112
  0
ARC
  5
1B20F
  8
0
 10
4512.4580974741829777
 20
470.6729929453459818
 30
0.0
 40
1.909227143994757
 50
211.4107738974917083
 51
215.9367384106566021
  0
ARC
  5
1B210
  8
0
 10
4510.9271955115309538
 20
469.5633080491421083
 30
0.0
 40
0.0184438702923353
 50
215.9367384106539021
 51
260.1344774308320211
  0
ARC
  5
1B211
  8
0
 10
4511.4562587101845565
 20
470.1729159246918925
 30
0.0
 40
0.7934438935767982
 50
216.161662593484408
 51
222.0155693486296968
  0
ARC
  5
1B212
  8
0
 10
3830.1997853304501405
 20
83.8538790175399953
 30
0.0
 40
782.374670949709639
 50
29.5560051856219417
 51
29.5621738805510788
  0
ARC
  5
1B213
  8
0
 10
4510.7334505643093507
 20
469.9561446447003163
 30
0.0
 40
0.1125510012542465
 50
206.0831054634543023
 51
221.9141508890164118
  0
ARC
  5
1B214
  8
0
 10
4510.5535423504597929
 20
469.8348012893764007
 30
0.0
 40
0.106658601865389
 50
25.6427660015156889
 51
42.354490350964987
  0
ARC
  5
1B215
  8
0
 10
4509.4421420147673416
 20
472.4810907324796858
 30
0.0
 40
0.0196793962000101
 50
156.4609083725515006
 51
197.7272682210902985
  0
ARC
  5
1B216
  8
0
 10
4513.5076527163710125
 20
473.7682264158776775
 30
0.0
 40
4.2840779334615711
 50
197.5684558983323029
 51
199.6205368264498077
  0
ARC
  5
1B217
  8
0
 10
4511.2329338793006173
 20
473.0610367922483874
 30
0.0
 40
1.9020375999905379
 50
197.9422439983119943
 51
202.5452373160541129
  0
LINE
  5
1B218
  8
0
 10
4509.5413404403989261
 20
472.1384837285332878
 30
0.0
 11
4509.5030032163103897
 21
472.1180997984637884
 31
0.0
  0
LINE
  5
1B219
  8
0
 10
4509.5437008629423872
 20
471.9849283796423265
 30
0.0
 11
4509.4971474781150391
 21
472.1045798368816122
 31
0.0
  0
ARC
  5
1B21A
  8
0
 10
4509.5086067219126562
 20
472.1076447260566056
 30
0.0
 40
0.0118620324597088
 50
118.1895492642498056
 51
194.9738449068726993
  0
LINE
  5
1B21B
  8
0
 10
4509.5598711795046256
 20
471.9786292468580768
 30
0.0
 11
4509.5941428564028683
 21
471.9953443734967777
 31
0.0
  0
ARC
  5
1B21C
  8
0
 10
4509.5546952125769167
 20
471.9892469119154725
 30
0.0
 40
0.011812088930662
 50
201.4446820718706022
 51
295.9886022949137896
  0
LINE
  5
1B21D
  8
0
 10
4509.4791964359556005
 20
472.3333348963357139
 30
0.0
 11
4509.4404653469664481
 21
472.3127430935575717
 31
0.0
  0
ARC
  5
1B21E
  8
0
 10
4509.4461072942540341
 20
472.3020931463287866
 30
0.0
 40
0.0120520929789669
 50
117.9129844919562942
 51
189.3588303848505916
  0
ARC
  5
1B21F
  8
0
 10
4510.5746138915610572
 20
472.6254499544339751
 30
0.0
 40
1.1858917127673241
 50
195.921638851939889
 51
202.1921455042833031
  0
ARC
  5
1B220
  8
0
 10
4509.487704787761686
 20
472.1824401165322911
 30
0.0
 40
0.0121722738149539
 50
203.8300116965498887
 51
295.5532008917267035
  0
LINE
  5
1B221
  8
0
 10
4509.492955285770222
 20
472.1714584718238825
 30
0.0
 11
4509.5330574920262734
 21
472.1910197957225819
 31
0.0
  0
ARC
  5
1B222
  8
0
 10
4509.2440153686284248
 20
472.1629029584773889
 30
0.0
 40
0.2252695900632918
 50
15.2464897210438206
 51
23.1374310354111508
  0
ARC
  5
1B223
  8
0
 10
4509.6791075680257563
 20
472.3143496413740081
 30
0.0
 40
0.2364694105985678
 50
195.4336328947757977
 51
202.9502878616937096
  0
ARC
  5
1B224
  8
0
 10
4509.4927359200901265
 20
472.1727961716165964
 30
0.0
 40
0.0413062133632872
 50
12.3050807734628407
 51
24.2011128636363289
  0
ARC
  5
1B225
  8
0
 10
4509.5314450384457814
 20
472.1835586097685109
 30
0.0
 40
0.0025603877035711
 50
310.0692284164082935
 51
356.1557609752484836
  0
ARC
  5
1B226
  8
0
 10
4509.4967571313336521
 20
472.1826644268904829
 30
0.0
 40
0.0372495419387974
 50
1.111426879952061
 51
16.9630520569872587
  0
ARC
  5
1B227
  8
0
 10
4507.0234578295639949
 20
471.3190000202230863
 30
0.0
 40
2.6569771063784309
 50
19.2169210228161411
 51
22.4883148908519495
  0
ARC
  5
1B228
  8
0
 10
4509.4471232952728315
 20
472.3227469761046109
 30
0.0
 40
0.0336870209363898
 50
21.8425777015874196
 51
32.4170420008870792
  0
ARC
  5
1B229
  8
0
 10
4509.5329574662109735
 20
472.3528485358240232
 30
0.0
 40
0.0586464125113795
 50
191.8496403125307097
 51
200.1501223457875085
  0
LINE
  5
1B22A
  8
0
 10
4509.5476448172403252
 20
472.1410688185320055
 30
0.0
 11
4509.5330931925891491
 21
472.1815992289701853
 31
0.0
  0
LINE
  5
1B22B
  8
0
 10
4509.5427138980803647
 20
472.1384474252815266
 30
0.0
 11
4509.5272396481241231
 21
472.1881819286925861
 31
0.0
  0
LINE
  5
1B22C
  8
0
 10
4509.6193072210216997
 20
472.0085987040670261
 30
0.0
 11
4509.5782208286009336
 21
471.9885542720485887
 31
0.0
  0
LINE
  5
1B22D
  8
0
 10
4509.5640084664355527
 20
472.149768121567206
 30
0.0
 11
4509.5242310561716295
 21
472.1286215092900989
 31
0.0
  0
ARC
  5
1B22E
  8
0
 10
4509.5299083142872405
 20
472.1176085269377722
 30
0.0
 40
0.0123901993524726
 50
117.2713754393138998
 51
186.5622961303438103
  0
ARC
  5
1B22F
  8
0
 10
4510.1052553282443114
 20
472.2561196392152851
 30
0.0
 40
0.6040854332825619
 50
193.3933284584095986
 51
205.3828530532670129
  0
ARC
  5
1B230
  8
0
 10
4509.5728189626852327
 20
471.9998648463248969
 30
0.0
 40
0.0125343227113282
 50
222.1403180822829029
 51
295.5288754647428959
  0
ARC
  5
1B231
  8
0
 10
4509.5851492740130197
 20
472.011021908154305
 30
0.0
 40
0.0291631111849812
 50
208.3592069510536078
 51
222.1403180822829029
  0
ARC
  5
1B232
  8
0
 10
4508.6466364660700492
 20
471.9594519858052877
 30
0.0
 40
0.8581052774568563
 50
14.7220355290339793
 51
23.3917488271851006
  0
ARC
  5
1B233
  8
0
 10
4510.2457684887831419
 20
472.5486566375868165
 30
0.0
 40
0.7934438935767981
 50
191.9213735739560036
 51
197.8379493781490908
  0
ARC
  5
1B234
  8
0
 10
3797.27239955572486
 20
148.4780532331608072
 30
0.0
 40
782.3746709497095253
 50
24.4374380910796987
 51
24.4436067859997017
  0
ARC
  5
1B235
  8
0
 10
4509.6455377736701848
 20
472.0913115903750281
 30
0.0
 40
0.1125510012542465
 50
192.0854610826314115
 51
207.9165065081658952
  0
ARC
  5
1B236
  8
0
 10
4509.4416210395165763
 20
472.0170880036657195
 30
0.0
 40
0.106658601865389
 50
11.6451216206756598
 51
28.3568459701403413
  0
ARC
  5
1B237
  8
0
 10
4509.5364335263720932
 20
472.1436722395364995
 30
0.0
 40
0.0021113460364608
 50
31.2170048175169796
 51
67.1100366995927544
  0
ARC
  5
1B238
  8
0
 10
4509.4828839045603672
 20
472.113535569462897
 30
0.0
 40
0.0635576684844588
 50
22.4992747615959594
 51
29.4312976019287298
  0
LINE
  5
1B239
  8
0
 10
4509.537254760966789
 20
472.145617324579689
 30
0.0
 11
4509.5229536040824314
 21
472.1860912533015835
 31
0.0
  0
ARC
  5
1B23A
  8
0
 10
4515.7026377284000773
 20
474.4682546786382886
 30
0.0
 40
6.5642480223946054
 50
198.9588304968000045
 51
200.6192767890723019
  0
ARC
  5
1B23B
  8
0
 10
4509.6369711337920307
 20
472.1724049115509274
 30
0.0
 40
0.0796641498122292
 50
191.4345066505613033
 51
197.6832639345111033
  0
ARC
  5
1B23C
  8
0
 10
4509.5595993389997602
 20
472.1549928088181787
 30
0.0
 40
0.0017681950571197
 50
37.5803801267510593
 51
113.7161189044197016
  0
ARC
  5
1B23D
  8
0
 10
4508.5663293257593978
 20
471.6775426673252127
 30
0.0
 40
1.1037937068924939
 50
17.4531370970165085
 51
25.6918402289949306
  0
ARC
  5
1B23E
  8
0
 10
4509.6085281965733884
 20
472.0044661965872024
 30
0.0
 40
0.0115440454845348
 50
328.5364254206613737
 51
20.9760335703479797
  0
LINE
  5
1B23F
  8
0
 10
4509.6145030314382893
 20
472.0062026405012148
 30
0.0
 11
4509.6183749460669787
 21
471.9984407081796007
 31
0.0
  0
LINE
  5
1B240
  8
0
 10
4509.6183749460669787
 20
471.9984407081796007
 30
0.0
 11
4509.6338089108676286
 21
471.9582669065796949
 31
0.0
  0
LINE
  5
1B241
  8
0
 10
4509.5938030649676875
 20
471.9961597803796849
 30
0.0
 11
4509.6151810789506271
 21
471.9438505261593946
 31
0.0
  0
LINE
  5
1B242
  8
0
 10
4509.5986457391672957
 20
471.9985223434796922
 30
0.0
 11
4509.616998296136444
 21
471.9475989384142167
 31
0.0
  0
LINE
  5
1B243
  8
0
 10
4509.6081504029671123
 20
472.0031593226797213
 30
0.0
 11
4509.6220124421415676
 21
471.9519949494124944
 31
0.0
  0
LINE
  5
1B244
  8
0
 10
4509.6087316064667903
 20
472.0409621508796931
 30
0.0
 11
4509.6505611993670755
 21
471.9671737741796846
 31
0.0
  0
ARC
  5
1B245
  8
0
 10
4512.4562716547270611
 20
473.1414829252905747
 30
0.0
 40
3.031829673875833
 50
199.3463660899973888
 51
202.536809244335501
  0
ARC
  5
1B246
  8
0
 10
4510.7947554732700155
 20
472.4462284818574744
 30
0.0
 40
1.2599999625317191
 50
190.6044892569358922
 51
195.0496054512229023
  0
ARC
  5
1B247
  8
0
 10
4510.3801738526117333
 20
472.3190500449319984
 30
0.0
 40
0.8066533972111978
 50
213.3852497092858016
 51
221.3123087886436906
  0
ARC
  5
1B248
  8
0
 10
4509.5852655979788324
 20
471.9888553299649061
 30
0.0
 40
0.0106679328598788
 50
349.360896908080008
 51
21.2279168888518193
  0
LINE
  5
1B249
  8
0
 10
4509.614775108966569
 20
471.9375117096797112
 30
0.0
 11
4509.5957501445673188
 21
471.986885793379713
 31
0.0
  0
LINE
  5
1B24A
  8
0
 10
4509.6622692930677658
 20
471.9733987503797152
 30
0.0
 11
4509.62158209226709
 21
471.9517661405797071
 31
0.0
  0
ARC
  5
1B24B
  8
0
 10
4509.6644046508436077
 20
471.9769970771030216
 30
0.0
 40
0.0087826877617373
 50
163.7639954132312994
 51
190.28212513246919
  0
ARC
  5
1B24C
  8
0
 10
4509.648212850181153
 20
471.9650797039564054
 30
0.0
 40
0.0163337111522594
 50
30.6183855354719512
 51
61.6371831374143895
  0
ARC
  5
1B24D
  8
0
 10
4726.4811549096348244
 20
516.8193949003876924
 30
0.0
 40
221.4141635091799003
 50
191.6851979941457103
 51
191.6865049992707952
  0
LINE
  5
1B24E
  8
0
 10
4509.7205269624673747
 20
471.8333874320796895
 30
0.0
 11
4509.67864339796688
 21
471.812954979579672
 31
0.0
  0
ARC
  5
1B24F
  8
0
 10
4509.6728997346499455
 20
471.8249385403478868
 30
0.0
 40
0.0132889200835655
 50
217.4951790719464952
 51
295.608177157614989
  0
ARC
  5
1B250
  8
0
 10
4510.0003931699629902
 20
472.0198615046741111
 30
0.0
 40
0.394313045310306
 50
192.0545986709790895
 51
210.9873933411375901
  0
ARC
  5
1B251
  8
0
 10
4509.6282460488246215
 20
471.939831370742013
 30
0.0
 40
0.0136692007108551
 50
119.1774578242181946
 51
189.770367111013087
  0
ARC
  5
1B252
  8
0
 10
4509.711558071690888
 20
471.9050949682102782
 30
0.0
 40
0.0788213220461889
 50
190.0654856774704058
 51
212.7459951162927894
  0
ARC
  5
1B253
  8
0
 10
4509.5699384478102729
 20
471.8495784760214065
 30
0.0
 40
0.0764182314784318
 50
9.7039116531285305
 51
33.1075691406625907
  0
LINE
  5
1B254
  8
0
 10
4509.6168562979446506
 20
471.9283069007245217
 30
0.0
 11
4509.5790899423673181
 21
471.9083949602796793
 31
0.0
  0
LINE
  5
1B255
  8
0
 10
4509.6582145565243991
 20
471.8239110665343787
 30
0.0
 11
4509.6217389735666075
 21
471.8059628544796738
 31
0.0
  0
ARC
  5
1B256
  8
0
 10
4510.3118891067779259
 20
472.1361832635752762
 30
0.0
 40
0.7772645066506425
 50
198.0983214777203045
 51
204.737081849242287
  0
ARC
  5
1B257
  8
0
 10
4509.5848844532602016
 20
471.8976916955706997
 30
0.0
 40
0.0121711228696015
 50
118.4301348231442006
 51
194.0974843125007965
  0
ARC
  5
1B258
  8
0
 10
4509.6165021580382017
 20
471.8168942484608124
 30
0.0
 40
0.0121210400235267
 50
209.4592609946695063
 51
295.5973104716903208
  0
ARC
  5
1B259
  8
0
 10
4509.8289008341480439
 20
471.9454165255061184
 30
0.0
 40
0.257154284459113
 50
197.6297835358656982
 51
205.206875945771003
  0
ARC
  5
1B25A
  8
0
 10
4509.3595596996283348
 20
471.7613105152857997
 30
0.0
 40
0.2481489041271273
 50
17.4920845155169786
 51
25.3445749661339406
  0
LINE
  5
1B25B
  8
0
 10
4509.6592955361693384
 20
471.8220353640289773
 30
0.0
 11
4509.6881528758676723
 21
471.7470653317797087
 31
0.0
  0
ARC
  5
1B25C
  8
0
 10
4509.6734927602401513
 20
471.7342912622497124
 30
0.0
 40
0.0194446867437436
 50
22.1951022350521683
 51
41.0672162500399409
  0
LINE
  5
1B25D
  8
0
 10
4509.6922372915669257
 20
471.7395928724797045
 30
0.0
 11
4509.6652470499730043
 21
471.8140742955873748
 31
0.0
  0
LINE
  5
1B25E
  8
0
 10
4509.6690345021297617
 20
471.8122241636601757
 30
0.0
 11
4509.6976207930665623
 21
471.7424312653797074
 31
0.0
  0
LINE
  5
1B25F
  8
0
 10
4509.6757660271987334
 20
471.8119624175058107
 30
0.0
 11
4509.7083182948672402
 21
471.7480725721796944
 31
0.0
  0
ARC
  5
1B260
  8
0
 10
4509.6887657513861996
 20
471.7458197085161942
 30
0.0
 40
0.0013882340277665
 50
54.5420027325299301
 51
116.1982553017218009
  0
LINE
  5
1B261
  8
0
 10
4509.6878999622667834
 20
471.8174706957797184
 30
0.0
 11
4509.7105665332674107
 21
471.7584707676796825
 31
0.0
  0
ARC
  5
1B262
  8
0
 10
4509.6953006663752603
 20
471.7473401252422036
 30
0.0
 40
0.0188928000319816
 50
11.1274996431639792
 51
36.0965225068180828
  0
ARC
  5
1B263
  8
0
 10
4509.709169130810551
 20
471.7488322259138727
 30
0.0
 40
0.0097393131685885
 50
26.175045083018091
 51
81.7506962541520608
  0
ARC
  5
1B264
  8
0
 10
4509.6216518780820479
 20
471.7040313941225804
 30
0.0
 40
0.1080559084694322
 50
14.2278437606008907
 51
27.0241835840061491
  0
ARC
  5
1B265
  8
0
 10
4509.4665762568502032
 20
471.5901300915572847
 30
0.0
 40
0.2953534336288443
 50
15.8501920815148907
 51
28.3960030575290787
  0
LINE
  5
1B266
  8
0
 10
4509.7507000877667451
 20
471.6707979256796079
 30
0.0
 11
4509.8005487575674124
 21
471.5903291401796764
 31
0.0
  0
LINE
  5
1B267
  8
0
 10
4509.7179096830668641
 20
471.7531283831797282
 30
0.0
 11
4509.6475509921674529
 21
471.7160100117797015
 31
0.0
  0
LINE
  5
1B268
  8
0
 10
4509.6422570490676662
 20
471.7007864931796917
 30
0.0
 11
4509.6774924702676799
 21
471.621085543479694
 31
0.0
  0
LINE
  5
1B269
  8
0
 10
4509.6935095530670878
 20
471.6152637154797276
 30
0.0
 11
4509.7348596871679547
 21
471.6356105038672126
 31
0.0
  0
LINE
  5
1B26A
  8
0
 10
4509.7142827410671089
 20
471.6262714350796728
 30
0.0
 11
4509.7604446818677388
 21
471.6489859262796926
 31
0.0
  0
ARC
  5
1B26B
  8
0
 10
4509.6530644411332105
 20
471.7055604852711781
 30
0.0
 40
0.0118148518293145
 50
117.8173247412679956
 51
203.8326756608319954
  0
ARC
  5
1B26C
  8
0
 10
4509.6882970633150762
 20
471.6258671602051891
 30
0.0
 40
0.0118153751297181
 50
203.8719811501680113
 51
296.1780190500567187
  0
ARC
  5
1B26D
  8
0
 10
4509.6762346100176728
 20
471.7168737423984908
 30
0.0
 40
0.0126360568846037
 50
118.9597594148356023
 51
188.0238330195059007
  0
ARC
  5
1B26E
  8
0
 10
4509.698723244176108
 20
471.719417486407508
 30
0.0
 40
0.0352650526157961
 50
187.016073634573786
 51
195.4590007535219911
  0
LINE
  5
1B26F
  8
0
 10
4509.7049147736661325
 20
471.8257711914397987
 30
0.0
 11
4509.7263932822661445
 21
471.7305892103797191
 31
0.0
  0
ARC
  5
1B270
  8
0
 10
4509.6655139952636091
 20
471.6196579962327178
 30
0.0
 40
0.099357751282697
 50
17.168034939129349
 51
30.9777375191024618
  0
ARC
  5
1B271
  8
0
 10
4509.7488016456791229
 20
471.645251341916719
 30
0.0
 40
0.0122273223577021
 50
329.7287443532890165
 51
17.7840026057213585
  0
ARC
  5
1B272
  8
0
 10
4509.7422361995495521
 20
471.6370694011296223
 30
0.0
 40
0.0172440669202067
 50
6.7212039827866663
 51
34.9990549037967185
  0
LINE
  5
1B273
  8
0
 10
4509.7593617549682676
 20
471.6390876170797242
 30
0.0
 11
4509.7842634694670778
 21
471.5816698645796805
 31
0.0
  0
LINE
  5
1B274
  8
0
 10
4509.7508380433673665
 20
471.6442588766796007
 30
0.0
 11
4509.7727992546106179
 21
471.5750715613575039
 31
0.0
  0
LINE
  5
1B275
  8
0
 10
4509.7400127267674179
 20
471.6389321577797205
 30
0.0
 11
4509.7683426457670066
 21
471.5697651907797194
 31
0.0
  0
LINE
  5
1B276
  8
0
 10
4509.7683426457670066
 20
471.5697651907797194
 30
0.0
 11
4509.7690389817253163
 21
471.5687662887168017
 31
0.0
  0
ARC
  5
1B277
  8
0
 10
4509.7689833808090043
 20
471.5693937949126848
 30
0.0
 40
0.0007405918465818
 50
53.630827502359331
 51
149.9016897229244023
  0
ARC
  5
1B278
  8
0
 10
4509.7817680867592571
 20
471.565448930041498
 30
0.0
 40
0.0131542762454455
 50
119.3360553826360047
 51
186.2837583744712049
  0
LINE
  5
1B279
  8
0
 10
4509.7753233972671296
 20
471.5769163168797036
 30
0.0
 11
4509.815913679568439
 21
471.5984986783797126
 31
0.0
  0
ARC
  5
1B27A
  8
0
 10
4509.8240316230949247
 20
471.5996005043477908
 30
0.0
 40
0.0159463814794917
 50
164.1000697846403966
 51
197.7473926679012948
  0
ARC
  5
1B27B
  8
0
 10
4509.8064996897946912
 20
471.5935743806920186
 30
0.0
 40
0.0106241193115956
 50
27.6132996551115291
 51
78.0730129873690828
  0
ARC
  5
1B27C
  8
0
 10
4509.6194724477290947
 20
471.4786419765999881
 30
0.0
 40
0.2301190703258703
 50
22.9486357695628307
 51
31.3890471011709913
  0
ARC
  5
1B27D
  8
0
 10
4509.4858535630655751
 20
471.3672141507647098
 30
0.0
 40
0.3998124218691301
 50
18.1498793843077912
 51
30.2064592647443604
  0
ARC
  5
1B27E
  8
0
 10
4509.7545547087056548
 20
471.4343762078847249
 30
0.0
 40
0.1251485252826114
 50
11.6160303912512699
 51
27.2905788672908294
  0
ARC
  5
1B27F
  8
0
 10
4510.2915842792008334
 20
471.7274235273399086
 30
0.0
 40
0.5491844545527773
 50
198.9794792779065062
 51
210.4921878034901113
  0
ARC
  5
1B280
  8
0
 10
4509.8396618060469336
 20
471.4618786538670179
 30
0.0
 40
0.0250254928991718
 50
211.626288053239108
 51
236.040443461107202
  0
ARC
  5
1B281
  8
0
 10
4509.832367181873451
 20
471.4510474448804871
 30
0.0
 40
0.0119669083677813
 50
236.040443461107202
 51
297.3787140000918043
  0
LINE
  5
1B282
  8
0
 10
4509.8378704030674271
 20
471.4404209942796911
 30
0.0
 11
4509.8771400611667559
 21
471.4595751114798077
 31
0.0
  0
ARC
  5
1B283
  8
0
 10
4509.8649909537352869
 20
471.4563732881185842
 30
0.0
 40
0.0125639358574548
 50
326.4734063960161734
 51
14.7642458421993297
  0
LINE
  5
1B284
  8
0
 10
4509.8754646219667848
 20
471.449433925179676
 30
0.0
 11
4509.8706626733601297
 21
471.4564157092536902
 31
0.0
  0
LINE
  5
1B285
  8
0
 10
4509.8754646219667848
 20
471.449433925179676
 30
0.0
 11
4509.8933873780679278
 21
471.4103059893798218
 31
0.0
  0
LINE
  5
1B286
  8
0
 10
4509.8657732815672716
 20
471.4917572363797262
 30
0.0
 11
4509.9169144243678602
 21
471.4228167535796956
 31
0.0
  0
ARC
  5
1B287
  8
0
 10
4513.3027027671505493
 20
472.361231908331888
 30
0.0
 40
3.5607198770597388
 50
189.9794277439974906
 51
192.8658983137524956
  0
ARC
  5
1B288
  8
0
 10
-4881.1141942826470768
 20
-4313.1782060977830042
 30
0.0
 40
10539.6714278691706568
 50
26.9867001331894514
 51
27.0045308734684717
  0
ARC
  5
1B289
  8
0
 10
4515.4116669456980162
 20
473.9103148387461033
 30
0.0
 40
6.014353277592237
 50
201.5463911286821883
 51
204.2770385952024128
  0
LINE
  5
1B28A
  8
0
 10
4509.9357032024672662
 20
471.4327969714797746
 30
0.0
 11
4509.8934926405672741
 21
471.4103542054796776
 31
0.0
  0
LINE
  5
1B28B
  8
0
 10
4510.0003258037677369
 20
471.2955462480796882
 30
0.0
 11
4509.957088869467043
 21
471.2744580444796725
 31
0.0
  0
LINE
  5
1B28C
  8
0
 10
4509.8607131157759795
 20
471.4515627260275892
 30
0.0
 11
4509.8860850423661759
 21
471.3586044728796765
 31
0.0
  0
LINE
  5
1B28D
  8
0
 10
4509.8441861675137261
 20
471.4435015633056878
 30
0.0
 11
4509.8691550066678246
 21
471.3859276444796933
 31
0.0
  0
LINE
  5
1B28E
  8
0
 10
4509.8316505871289337
 20
471.4391020111145281
 30
0.0
 11
4509.867405219966713
 21
471.3755344371796809
 31
0.0
  0
LINE
  5
1B28F
  8
0
 10
4509.8715723052673638
 20
471.3777831180797193
 30
0.0
 11
4509.8691550066678246
 21
471.3859276444796933
 31
0.0
  0
LINE
  5
1B290
  8
0
 10
4509.8232355086311145
 20
471.4429987161548752
 30
0.0
 11
4509.8567734216676399
 21
471.3699289234796765
 31
0.0
  0
LINE
  5
1B291
  8
0
 10
4509.8564713491814473
 20
471.3704645273728033
 30
0.0
 11
4509.8559983275727063
 21
471.3716176381203127
 31
0.0
  0
LINE
  5
1B292
  8
0
 10
4509.8754912377644359
 20
471.3797977106842723
 30
0.0
 11
4509.8298331955666072
 21
471.3557249560797118
 31
0.0
  0
LINE
  5
1B293
  8
0
 10
4509.856516497407938
 20
471.3704886900442261
 30
0.0
 11
4509.8168799741679322
 21
471.3492758016797097
 31
0.0
  0
ARC
  5
1B294
  8
0
 10
4509.8686259033565875
 20
471.3806895471366829
 30
0.0
 40
0.0052647520443511
 50
35.0294531026281319
 51
84.2320832888503475
  0
ARC
  5
1B295
  8
0
 10
4509.7705326822788265
 20
471.3140890575318167
 30
0.0
 40
0.1238302284124672
 50
21.0708390356562916
 51
34.2109268722564934
  0
ARC
  5
1B296
  8
0
 10
4509.7559889567846767
 20
471.2636625447028109
 30
0.0
 40
0.1610568020624087
 50
13.0988904030511808
 51
36.1229487715196598
  0
LINE
  5
1B297
  8
0
 10
4509.9128551182666342
 20
471.3001632415796962
 30
0.0
 11
4509.9771778073672976
 21
471.2050903543797062
 31
0.0
  0
ARC
  5
1B298
  8
0
 10
4509.8836328367697206
 20
471.2676184225451834
 30
0.0
 40
0.0424480231200738
 50
9.7494172212451726
 51
32.977981015334727
  0
ARC
  5
1B299
  8
0
 10
4509.9197680618117374
 20
471.2740513281668768
 30
0.0
 40
0.0057495703212976
 50
300.8672507494550814
 51
7.5477558788679104
  0
ARC
  5
1B29A
  8
0
 10
4509.9167215681382004
 20
471.2695141339322049
 30
0.0
 40
0.0060095085719026
 50
356.2026412430466848
 51
34.7330720543307407
  0
LINE
  5
1B29B
  8
0
 10
4509.9216602742671967
 20
471.2729380753797273
 30
0.0
 11
4509.9195792833206724
 21
471.2765630225965765
 31
0.0
  0
LINE
  5
1B29C
  8
0
 10
4509.958470958066755
 20
471.1952273429798197
 30
0.0
 11
4509.9227178829669356
 21
471.2691161367797008
 31
0.0
  0
LINE
  5
1B29D
  8
0
 10
4509.9140473326078791
 20
471.2738409653568965
 30
0.0
 11
4509.9319346242673419
 21
471.2246516733796966
 31
0.0
  0
ARC
  5
1B29E
  8
0
 10
4509.5208301883776585
 20
470.958042661447621
 30
0.0
 40
0.4899869615111123
 50
28.4664692897663301
 51
32.9641726018766832
  0
LINE
  5
1B29F
  8
0
 10
4509.9894804545665465
 20
471.21157679407969
 30
0.0
 11
4509.9429114362683322
 21
471.1870237368797234
 31
0.0
  0
LINE
  5
1B2A0
  8
0
 10
4510.0383627982673715
 20
471.1106810029796748
 30
0.0
 11
4509.9916208118665963
 21
471.0876810934797732
 31
0.0
  0
ARC
  5
1B2A1
  8
0
 10
4510.6328812929441483
 20
471.8862168098509073
 30
0.0
 40
0.9786461913480087
 50
201.6533155248766889
 51
206.7989851094540086
  0
ARC
  5
1B2A2
  8
0
 10
4509.7701670687520163
 20
471.4504280794096189
 30
0.0
 40
0.0121123712067543
 50
206.7162356076721039
 51
295.7631497790529238
  0
LINE
  5
1B2A3
  8
0
 10
4509.7754317346661992
 20
471.4395196959796976
 30
0.0
 11
4509.8130207648937358
 21
471.4580157919327235
 31
0.0
  0
LINE
  5
1B2A4
  8
0
 10
4509.7690443978117401
 20
471.56113765139321
 30
0.0
 11
4509.728900654267818
 21
471.5399722564797003
 31
0.0
  0
ARC
  5
1B2A5
  8
0
 10
4509.8272260267558522
 20
471.5697180583796921
 30
0.0
 40
0.0588109286666785
 50
185.5705908340339931
 51
200.8222434645371095
  0
LINE
  5
1B2A6
  8
0
 10
4509.7370504645668916
 20
471.6276872432796949
 30
0.0
 11
4509.7665325565667445
 21
471.5598133312798268
 31
0.0
  0
LINE
  5
1B2A7
  8
0
 10
4509.7690284293475997
 20
471.5611292321768246
 30
0.0
 11
4509.7345654931668832
 21
471.6362517900797116
 31
0.0
  0
ARC
  5
1B2A8
  8
0
 10
4509.723816667014944
 20
471.6279629413626822
 30
0.0
 40
0.0132366690331557
 50
358.8065366834804877
 51
22.3467282492905817
  0
ARC
  5
1B2A9
  8
0
 10
4509.7346117836741541
 20
471.5293286874401133
 30
0.0
 40
0.0120790132460062
 50
118.2171302306509943
 51
200.4593130232036913
  0
ARC
  5
1B2AA
  8
0
 10
4509.4644356548988071
 20
471.3591845495859047
 30
0.0
 40
0.3047690559882316
 50
21.0869738458767806
 51
27.4555930383910116
  0
ARC
  5
1B2AB
  8
0
 10
4510.093062515238671
 20
471.6426412474477843
 30
0.0
 40
0.3856524318939893
 50
201.7553099153853964
 51
206.7872569688748001
  0
ARC
  5
1B2AC
  8
0
 10
4509.1217979945013212
 20
471.2062799087545955
 30
0.0
 40
0.6807706886769016
 50
20.5262273766603194
 51
27.9260732576774693
  0
ARC
  5
1B2AD
  8
0
 10
4510.1276360948204456
 20
471.8567261157037933
 30
0.0
 40
0.4855941729151928
 50
197.5850756092087863
 51
207.1045703752338909
  0
ARC
  5
1B2AE
  8
0
 10
4509.7188771077653655
 20
471.6473336105062231
 30
0.0
 40
0.0263244663949816
 50
206.7581108669870105
 51
227.8728592447345989
  0
ARC
  5
1B2AF
  8
0
 10
4509.7089672029806025
 20
471.6373681494566199
 30
0.0
 40
0.012304146257183
 50
230.9717220342004964
 51
295.5953107871200132
  0
ARC
  5
1B2B0
  8
0
 10
4509.7985684489849518
 20
471.7201022867748179
 30
0.0
 40
0.1275808463554011
 50
194.8770767966420863
 51
210.1841932381394997
  0
ARC
  5
1B2B1
  8
0
 10
4509.5666105345217147
 20
471.6238768376966846
 30
0.0
 40
0.1258332870015308
 50
14.7701347643273806
 51
30.2911352704702885
  0
ARC
  5
1B2B2
  8
0
 10
4509.7396993721204126
 20
471.844631669879675
 30
0.0
 40
0.0293307242716319
 50
209.3270856648636027
 51
226.7458563109964018
  0
ARC
  5
1B2B3
  8
0
 10
4509.704471340629425
 20
471.829755570331713
 30
0.0
 40
0.0164612700714277
 50
336.7950357603344855
 51
12.7460804764824704
  0
ARC
  5
1B2B4
  8
0
 10
4509.4914020241440085
 20
471.7803795934710251
 30
0.0
 40
0.2351766746849459
 50
13.0261546800485792
 51
23.7713084438224485
  0
ARC
  5
1B2B5
  8
0
 10
4509.0946187823219589
 20
471.6579198660920724
 30
0.0
 40
0.6494259224736028
 50
19.5443298196411988
 51
29.0636652087084002
  0
ARC
  5
1B2B6
  8
0
 10
4247.7160570524029026
 20
365.2522201472698953
 30
0.0
 40
282.8484497938551954
 50
22.0862924246514893
 51
22.1342415726495609
  0
ARC
  5
1B2B7
  8
0
 10
4509.9008727927921427
 20
471.3975450495689188
 30
0.0
 40
0.0147831364060939
 50
119.9489228237664946
 51
185.061127627113791
  0
ARC
  5
1B2B8
  8
0
 10
4509.9749371621855971
 20
471.4041044722200127
 30
0.0
 40
0.0891374021835438
 50
185.061127627113791
 51
197.7405788944529093
  0
ARC
  5
1B2B9
  8
0
 10
4509.9512063602396665
 20
471.2872018521644009
 30
0.0
 40
0.0140359733936918
 50
228.6872698936597033
 51
294.7779271288018776
  0
ARC
  5
1B2BA
  8
0
 10
4509.9800534376490759
 20
471.3200230813678218
 30
0.0
 40
0.0577325059956544
 50
213.4762199072968087
 51
228.6872698936597033
  0
ARC
  5
1B2BB
  8
0
 10
4510.2556457575728928
 20
471.4951015590802967
 30
0.0
 40
0.3842263482586631
 50
197.9099398088220028
 51
212.5846491514990078
  0
ARC
  5
1B2BC
  8
0
 10
4509.9669154432076539
 20
471.3611336475563007
 30
0.0
 40
0.0595946527734739
 50
189.6831651645518093
 51
219.8291394850230063
  0
ARC
  5
1B2BD
  8
0
 10
4509.8640696846159699
 20
471.3137077123446943
 30
0.0
 40
0.0578251065860664
 50
9.2104317260109152
 51
40.3018729235565587
  0
ARC
  5
1B2BE
  8
0
 10
4509.4450031868873339
 20
471.1236584365362887
 30
0.0
 40
0.5803404801565412
 50
20.5747152852672883
 51
31.8183075266045989
  0
ARC
  5
1B2BF
  8
0
 10
4509.92044987576719
 20
471.4185816054938982
 30
0.0
 40
0.0208504341807426
 50
31.9972369146534987
 51
69.0348649830992542
  0
ARC
  5
1B2C0
  8
0
 10
4509.9433603155612218
 20
471.4337557161451855
 30
0.0
 40
0.0160363005524069
 50
164.4611581988204989
 51
197.9941214173925914
  0
ARC
  5
1B2C1
  8
0
 10
4509.8293891887442442
 20
471.2498450842776947
 30
0.0
 40
0.1769404496679032
 50
14.9683578529191195
 51
26.0706231153959216
  0
ARC
  5
1B2C2
  8
0
 10
4509.9895048340604262
 20
471.2919639865218073
 30
0.0
 40
0.0113985079405269
 50
326.8575210516121956
 51
18.3170278019887007
  0
ARC
  5
1B2C3
  8
0
 10
4509.942101877364621
 20
471.248651355839911
 30
0.0
 40
0.0679555467752621
 50
33.0699601664823604
 51
40.1609920825421725
  0
ARC
  5
1B2C4
  8
0
 10
5059.4157034611143899
 20
736.5245134488898202
 30
0.0
 40
610.0903796506537446
 50
205.7695944534642081
 51
205.7917547099602871
  0
ARC
  5
1B2C5
  8
0
 10
4511.7047946685579518
 20
471.4475332505037954
 30
0.0
 40
1.6286438825692471
 50
191.0858236778194055
 51
194.5102829704649139
  0
ARC
  5
1B2C6
  8
0
 10
4510.1229312267096248
 20
471.06991888198678
 30
0.0
 40
0.0215150545142192
 50
171.0812670820189965
 51
195.6205705781171957
  0
ARC
  5
1B2C7
  8
0
 10
4510.1001511488238975
 20
471.0612473865429024
 30
0.0
 40
0.0121035238445
 50
35.447382089872832
 51
82.760952895083733
  0
LINE
  5
1B2C8
  8
0
 10
4510.1100112659669321
 20
471.0682668864797051
 30
0.0
 11
4510.0674658259677017
 21
471.0456463225797279
 31
0.0
  0
ARC
  5
1B2C9
  8
0
 10
4510.0757309273985811
 20
471.0323052401060977
 30
0.0
 40
0.0156938326500889
 50
121.7791485021834035
 51
187.3994510416173966
  0
ARC
  5
1B2CA
  8
0
 10
4510.1135083692415719
 20
471.0350551805670989
 30
0.0
 40
0.0535535341345522
 50
185.1112614233443026
 51
196.9998793061895128
  0
ARC
  5
1B2CB
  8
0
 10
4510.1398820291487937
 20
470.9984604824380767
 30
0.0
 40
0.0571461313130549
 50
191.2658047941455948
 51
222.7359844936611921
  0
ARC
  5
1B2CC
  8
0
 10
4510.0434151942836252
 20
470.9493062776928127
 30
0.0
 40
0.0554722535060218
 50
10.7780987343353605
 51
43.223690553479571
  0
ARC
  5
1B2CD
  8
0
 10
4510.3782102319482874
 20
471.1213276993494787
 30
0.0
 40
0.331952182318594
 50
197.8822705607300918
 51
217.727481417547807
  0
ARC
  5
1B2CE
  8
0
 10
4509.9858284147621816
 20
470.970180193303122
 30
0.0
 40
0.1582478433088209
 50
25.9673461410519693
 51
38.3036900733409809
  0
ARC
  5
1B2CF
  8
0
 10
4509.8587287426926196
 20
470.8551953359717004
 30
0.0
 40
0.3263713473047012
 50
19.6242447245393699
 51
34.3757552751734465
  0
LINE
  5
1B2D0
  8
0
 10
4509.9558692129667179
 20
471.2738993738797149
 30
0.0
 11
4509.9820249683671136
 21
471.2167977188797181
 31
0.0
  0
LINE
  5
1B2D1
  8
0
 10
4509.979769407466847
 20
471.2855201560797127
 30
0.0
 11
4510.0014325519678096
 21
471.1906046371796037
 31
0.0
  0
ARC
  5
1B2D2
  8
0
 10
4510.0525799995366469
 20
471.2286834516451108
 30
0.0
 40
0.0715491653809313
 50
189.5622918729524997
 51
196.272983897578996
  0
ARC
  5
1B2D3
  8
0
 10
4509.9791989285540694
 20
471.204828447466582
 30
0.0
 40
0.0122983722171819
 50
33.2791536446385621
 51
76.7153065300319241
  0
ARC
  5
1B2D4
  8
0
 10
4509.8905346401643328
 20
471.1412954197436989
 30
0.0
 40
0.1213661640101947
 50
23.9716591185621297
 51
35.3862406362799575
  0
ARC
  5
1B2D5
  8
0
 10
4509.7864508969860253
 20
471.0511126862925835
 30
0.0
 40
0.2562715675626572
 50
18.5912778875398885
 51
32.9777303187698365
  0
ARC
  5
1B2D6
  8
0
 10
4509.9174806481505584
 20
471.0743602134706975
 30
0.0
 40
0.1262208143187393
 50
16.7236552264888516
 51
27.5887812676719584
  0
ARC
  5
1B2D7
  8
0
 10
4510.0587412969289289
 20
471.1252711491820833
 30
0.0
 40
0.0318791421162763
 50
213.5782725640210913
 51
229.3596112280361012
  0
ARC
  5
1B2D8
  8
0
 10
4510.0243497154742727
 20
471.1064347362107014
 30
0.0
 40
0.0146423109795366
 50
338.5527728648145853
 51
16.8579420591666107
  0
LINE
  5
1B2D9
  8
0
 10
4510.0379781158671904
 20
471.1010808615797032
 30
0.0
 11
4510.0663103940678411
 21
471.045475880279696
 31
0.0
  0
LINE
  5
1B2DA
  8
0
 10
4510.029349433567404
 20
471.1328159130796962
 30
0.0
 11
4510.0899223312671893
 21
471.0575859995797146
 31
0.0
  0
LINE
  5
1B2DB
  8
0
 10
4509.7589479422676959
 20
471.4440759340797058
 30
0.0
 11
4509.8109730473597665
 21
471.336839209005916
 31
0.0
  0
ARC
  5
1B2DC
  8
0
 10
4509.7734520309568325
 20
471.4509504661892834
 30
0.0
 40
0.0160507875331883
 50
188.8802386169234069
 51
205.3596423999705962
  0
ARC
  5
1B2DD
  8
0
 10
4509.8118990909651984
 20
471.348919137854125
 30
0.0
 40
0.0061640993637779
 50
213.7587930861581924
 51
267.4117719031552838
  0
ARC
  5
1B2DE
  8
0
 10
4509.8236225474920502
 20
471.3384522424076977
 30
0.0
 40
0.0127519304564453
 50
121.9209837853359062
 51
208.6997207521305882
  0
ARC
  5
1B2DF
  8
0
 10
4513.716428837251442
 20
473.153231946579524
 30
0.0
 40
4.3077650710745621
 50
205.0053308685010052
 51
206.9534956964388925
  0
ARC
  5
1B2E0
  8
0
 10
4506.3601657949839137
 20
469.5686140676618834
 30
0.0
 40
3.8767082168511968
 50
24.8970089791138918
 51
27.0618175858267698
  0
ARC
  5
1B2E1
  8
0
 10
4509.8896148641515538
 20
471.2067058366145034
 30
0.0
 40
0.0143527406969704
 50
204.8970089791108933
 51
250.6972086811699114
  0
ARC
  5
1B2E2
  8
0
 10
4508.9496316237818974
 20
470.8301286984068952
 30
0.0
 40
0.995794781454397
 50
24.7668303295135495
 51
27.1836037108891304
  0
ARC
  5
1B2E3
  8
0
 10
4511.0696129905418275
 20
471.8629778154282235
 30
0.0
 40
1.3627865908964241
 50
205.0922735064449114
 51
206.858160533941799
  0
ARC
  5
1B2E4
  8
0
 10
4509.8357655261070249
 20
471.3448879927930193
 30
0.0
 40
0.0123544453097051
 50
118.6970159568363954
 51
196.1557519929309024
  0
ARC
  5
1B2E5
  8
0
 10
4509.9116275776768816
 20
471.3668644391518114
 30
0.0
 40
0.0913355510434986
 50
196.1557519929309024
 51
202.5217845308285121
  0
ARC
  5
1B2E6
  8
0
 10
4509.8726295353617388
 20
471.2671220984302067
 30
0.0
 40
0.012258305118045
 50
215.8930469575232109
 51
295.6033458681391153
  0
ARC
  5
1B2E7
  8
0
 10
4509.9237194935376465
 20
471.3040956125058187
 30
0.0
 40
0.0753235456994447
 50
207.8587018077946027
 51
215.8930469575232109
  0
ARC
  5
1B2E8
  8
0
 10
4510.5671981396617412
 20
471.6442064057019934
 30
0.0
 40
0.8031560261964125
 50
202.8844663760671949
 51
207.8587018077946027
  0
ARC
  5
1B2E9
  8
0
 10
4510.010941417873255
 20
471.3804025247121103
 30
0.0
 40
0.1862940433574602
 50
200.2098119066872925
 51
210.6377294911395097
  0
ARC
  5
1B2EA
  8
0
 10
4509.6881586652980332
 20
471.2269698640415072
 30
0.0
 40
0.1727023079716555
 50
19.7981965052495994
 51
31.049344892586781
  0
LINE
  5
1B2EB
  8
0
 10
4509.9245271761228651
 20
471.2789976877119216
 30
0.0
 11
4509.8779268198668433
 21
471.2560674694797171
 31
0.0
  0
LINE
  5
1B2EC
  8
0
 10
4509.9033028743679097
 20
471.2685540356796992
 30
0.0
 11
4509.9084272272675662
 21
471.2573894708796729
 31
0.0
  0
LINE
  5
1B2ED
  8
0
 10
4509.917526341167104
 20
471.2622593127796904
 30
0.0
 11
4509.8754256000665919
 21
471.2397270202798154
 31
0.0
  0
LINE
  5
1B2EE
  8
0
 10
4509.9731593624674133
 20
471.0944317848797027
 30
0.0
 11
4509.9527696091672624
 21
471.0845547891797196
 31
0.0
  0
ARC
  5
1B2EF
  8
0
 10
4509.8674253350245635
 20
471.2389059997133245
 30
0.0
 40
0.0079844524643838
 50
208.5919315944117898
 51
286.7155390858176816
  0
ARC
  5
1B2F0
  8
0
 10
4509.8824940317772416
 20
471.2288110348550276
 30
0.0
 40
0.0130046708770969
 50
122.9242815818791001
 51
209.4669463744052109
  0
ARC
  5
1B2F1
  8
0
 10
4512.0664787223531675
 20
472.2325818935137249
 30
0.0
 40
2.4165704627608662
 50
204.7094712081135128
 51
208.187031212197212
  0
ARC
  5
1B2F2
  8
0
 10
4509.9481256019716966
 20
471.0965154442828862
 30
0.0
 40
0.0128305913082879
 50
204.9075965154671906
 51
291.2198792499324895
  0
ARC
  5
1B2F3
  8
0
 10
4510.4470097347102637
 20
471.4270628273300758
 30
0.0
 40
0.6071613066958946
 50
204.4583446697625106
 51
208.4222546957140025
  0
ARC
  5
1B2F4
  8
0
 10
4509.3629966378666722
 20
470.8880033852659039
 30
0.0
 40
0.6042152811482707
 50
24.4486771929676614
 51
28.4319221724774494
  0
ARC
  5
1B2F5
  8
0
 10
4509.9491494377216441
 20
471.1756377247642149
 30
0.0
 40
0.0129828322814409
 50
118.716807591689502
 51
187.6040318125157
  0
ARC
  5
1B2F6
  8
0
 10
4509.9901386631054265
 20
471.1811097908325223
 30
0.0
 40
0.054335705272078
 50
187.6040318125124884
 51
199.6183170799282891
  0
ARC
  5
1B2F7
  8
0
 10
4509.986112327191222
 20
471.0995298521780796
 30
0.0
 40
0.0130666172410489
 50
225.3358936622335023
 51
294.933703631549804
  0
ARC
  5
1B2F8
  8
0
 10
4510.0103887412724362
 20
471.1240925866230782
 30
0.0
 40
0.0476017038067113
 50
211.3138222522568981
 51
225.3358936622335023
  0
ARC
  5
1B2F9
  8
0
 10
4510.2670749363851428
 20
471.2825883375093099
 30
0.0
 40
0.3492772904991467
 50
200.0457504128530957
 51
211.6422231850143021
  0
ARC
  5
1B2FA
  8
0
 10
4510.0315424206974058
 20
471.168244974300876
 30
0.0
 40
0.0848432115864971
 50
194.3272123207956952
 51
217.4326870166165975
  0
ARC
  5
1B2FB
  8
0
 10
4509.8832759584511223
 20
471.0963147561087112
 30
0.0
 40
0.0834180002739378
 50
14.1270407452425193
 51
37.63285859219733
  0
LINE
  5
1B2FC
  8
0
 10
4509.9891811444977066
 20
471.0868287165416177
 30
0.0
 11
4510.0162998482674084
 21
471.0336052636797035
 31
0.0
  0
LINE
  5
1B2FD
  8
0
 10
4509.9933816215670959
 20
471.0885475194796754
 30
0.0
 11
4510.0412866663673412
 21
471.0109324131797166
 31
0.0
  0
ARC
  5
1B2FE
  8
0
 10
4525.3304494287131092
 20
478.4638241255935895
 30
0.0
 40
17.0031952283773897
 50
205.6814741324772911
 51
205.9611305132590928
  0
LINE
  5
1B2FF
  8
0
 10
4510.0258765529679295
 20
471.1045370084796104
 30
0.0
 11
4510.0597285132671459
 21
470.9978882341796975
 31
0.0
  0
LINE
  5
1B300
  8
0
 10
4510.0430257055668335
 20
471.0204832168797111
 30
0.0
 11
4510.0458163388439061
 21
471.0133533291185017
 31
0.0
  0
ARC
  5
1B301
  8
0
 10
4510.0427754785268917
 20
471.0120821773987245
 30
0.0
 40
0.0084047651920721
 50
25.5996100977523895
 51
88.2939354264435963
  0
ARC
  5
1B302
  8
0
 10
4510.1522506921046443
 20
471.0952505939249022
 30
0.0
 40
0.1432137046303671
 50
201.1529897682414969
 51
204.2318353107853
  0
ARC
  5
1B303
  8
0
 10
4509.3710865242283035
 20
470.6014819784477936
 30
0.0
 40
0.7841098829290351
 50
31.4284238799624482
 51
34.3196607325439231
  0
LINE
  5
1B304
  8
0
 10
4510.0503551938672899
 20
471.0157137050796905
 30
0.0
 11
4510.0057426631674389
 21
470.9921921862796808
 31
0.0
  0
LINE
  5
1B305
  8
0
 10
4510.023056958266352
 20
471.0372216661796756
 30
0.0
 11
4509.9848815621671747
 21
471.016790210079705
 31
0.0
  0
ARC
  5
1B306
  8
0
 10
4509.9319348179969893
 20
470.942066547113825
 30
0.0
 40
0.139453538132531
 50
23.5962329382354916
 51
31.8780131798669899
  0
ARC
  5
1B307
  8
0
 10
4510.6532358648992158
 20
471.8079608206053877
 30
0.0
 40
0.8202710691519657
 50
215.8456853770555881
 51
221.8427988199981087
  0
ARC
  5
1B308
  8
0
 10
4509.8792468289957469
 20
471.5405500982631111
 30
0.0
 40
0.0924531919226818
 50
194.4864901190919113
 51
213.7890468903102033
  0
ARC
  5
1B309
  8
0
 10
4509.7151417637369377
 20
471.4670124956501809
 30
0.0
 40
0.0900280716261854
 50
14.2239195948214494
 51
34.0516174145835393
  0
LINE
  5
1B30A
  8
0
 10
4509.8512398965667671
 20
471.3676647301796834
 30
0.0
 11
4509.8170208962219476
 21
471.4510304003309784
 31
0.0
  0
ARC
  5
1B30B
  8
0
 10
4516.2167186701462924
 20
473.4593140216800862
 30
0.0
 40
6.5642480223946054
 50
213.3807232106616993
 51
215.0269857513148111
  0
ARC
  5
1B30C
  8
0
 10
4510.7940278223895803
 20
469.9015532990305246
 30
0.0
 40
0.0796641498122292
 50
216.3167360652049069
 51
222.5654933491435941
  0
ARC
  5
1B30D
  8
0
 10
4510.7344631354490048
 20
469.8491927793568834
 30
0.0
 40
0.0017681950571197
 50
300.2838810952692938
 51
16.4196198729680312
  0
ARC
  5
1B30E
  8
0
 10
4509.7643683916840018
 20
469.326258610521279
 30
0.0
 40
1.1037937068924939
 50
28.3081597707135586
 51
36.5468629026901795
  0
ARC
  5
1B30F
  8
0
 10
4510.6414442089417207
 20
469.9772543793956743
 30
0.0
 40
0.0115440454845348
 50
33.0239664293714199
 51
85.4635745790556456
  0
LINE
  5
1B310
  8
0
 10
4510.6463609413967788
 20
469.981067466216075
 30
0.0
 11
4510.6423572605563095
 21
469.9887622602997226
 31
0.0
  0
LINE
  5
1B311
  8
0
 10
4510.6423572605563095
 20
469.9887622602997226
 30
0.0
 11
4510.6189278292267772
 21
470.0248621682225121
 31
0.0
  0
LINE
  5
1B312
  8
0
 10
4510.6260689618720789
 20
469.9702238866283892
 30
0.0
 11
4510.5963155675872258
 21
470.0182656714359837
 31
0.0
  0
LINE
  5
1B313
  8
0
 10
4510.6308267680451536
 20
469.9727530126065744
 30
0.0
 11
4510.6004162302651821
 21
470.0175325695789752
 31
0.0
  0
LINE
  5
1B314
  8
0
 10
4510.6401648642313376
 20
469.9777168991577128
 30
0.0
 11
4510.6069199189441861
 21
470.0190051884763989
 31
0.0
  0
LINE
  5
1B315
  8
0
 10
4510.6710896175272865
 20
469.9559671577553104
 30
0.0
 11
4510.6359803846053182
 21
470.0331797288941971
 31
0.0
  0
ARC
  5
1B316
  8
0
 10
4513.2351716723733261
 20
471.6128055679072872
 30
0.0
 40
3.031829673875833
 50
211.4631907553853125
 51
214.6261934414891073
  0
ARC
  5
1B317
  8
0
 10
4511.6960843043116256
 20
470.6772710491280804
 30
0.0
 40
1.2599999625317191
 50
218.9503945484900953
 51
223.3955107427642872
  0
ARC
  5
1B318
  8
0
 10
4511.3495098250259616
 20
470.4166210820966967
 30
0.0
 40
0.8066533972111978
 50
192.7259887657702961
 51
200.6147502904308908
  0
ARC
  5
1B319
  8
0
 10
4510.6151413401639729
 20
469.9676103789768149
 30
0.0
 40
0.0106679328598788
 50
32.7720831108496711
 51
64.6391030916373808
  0
LINE
  5
1B31A
  8
0
 10
4510.590948734162339
 20
470.0216630976642023
 30
0.0
 11
4510.6197106134568457
 21
469.9772502199028281
 31
0.0
  0
LINE
  5
1B31B
  8
0
 10
4510.6478983409488137
 20
470.038992826462902
 30
0.0
 11
4510.6064818554013982
 21
470.0187915185715042
 31
0.0
  0
ARC
  5
1B31C
  8
0
 10
4510.6520645802293075
 20
470.0386053238117938
 30
0.0
 40
0.0087826877617373
 50
223.7178748672612016
 51
250.2360045864627978
  0
ARC
  5
1B31D
  8
0
 10
4510.6329059211875574
 20
470.0325107380883765
 30
0.0
 40
0.0163337111522594
 50
352.3628168623087049
 51
23.3816144642360584
  0
ARC
  5
1B31E
  8
0
 10
4674.3720147406320393
 20
619.0893408295464724
 30
0.0
 40
221.4141635091799003
 50
222.3134950004559869
 51
222.3148020055510869
  0
LINE
  5
1B31F
  8
0
 10
4510.5688698039475639
 20
470.1684208591113929
 30
0.0
 11
4510.5277210611111514
 21
470.1465462378938014
 31
0.0
  0
ARC
  5
1B320
  8
0
 10
4510.5340399248334506
 20
470.1348557563705981
 30
0.0
 40
0.0132889200835655
 50
118.3918228421169943
 51
196.504820927781509
  0
ARC
  5
1B321
  8
0
 10
4510.8842317270682543
 20
470.2852306673194107
 30
0.0
 40
0.394313045310306
 50
203.0126066585949047
 51
221.945401328732089
  0
ARC
  5
1B322
  8
0
 10
4510.600743399165367
 20
470.0311978543759892
 30
0.0
 40
0.0136692007108551
 50
224.2296328886893946
 51
294.822542175480919
  0
ARC
  5
1B323
  8
0
 10
4510.6216106375732124
 20
470.1190162418359932
 30
0.0
 40
0.0788213220461889
 50
201.2540048834025015
 51
223.9345143222454908
  0
ARC
  5
1B324
  8
0
 10
4510.4934549255722231
 20
470.0370753347481809
 30
0.0
 40
0.0764182314784318
 50
20.8924308590545991
 51
44.296088346599511
  0
LINE
  5
1B325
  8
0
 10
4510.584725179475754
 20
470.0287572658698991
 30
0.0
 11
4510.5464175744227759
 21
470.0099075873300194
 31
0.0
  0
LINE
  5
1B326
  8
0
 10
4510.5245769499279049
 20
470.1235791316565269
 30
0.0
 11
4510.4886167316253704
 21
470.1046194595152201
 31
0.0
  0
ARC
  5
1B327
  8
0
 10
4511.1614307246427416
 20
470.4688639594766073
 30
0.0
 40
0.7772645066506425
 50
209.2629181504676126
 51
215.9016785219855024
  0
ARC
  5
1B328
  8
0
 10
4510.5411643794241172
 20
470.0208866662629248
 30
0.0
 40
0.0121711228696015
 50
219.9025156871994966
 51
295.5698651765798104
  0
ARC
  5
1B329
  8
0
 10
4510.4943822921932224
 20
470.0939574745870004
 30
0.0
 40
0.0121210400235267
 50
118.4026895280215967
 51
204.5407390050349079
  0
ARC
  5
1B32A
  8
0
 10
4510.7232038079009726
 20
470.1902481141024168
 30
0.0
 40
0.257154284459113
 50
208.7931240539417104
 51
216.3702164638536942
  0
ARC
  5
1B32B
  8
0
 10
4510.2983871197002372
 20
469.9187579577850897
 30
0.0
 40
0.2481489041271273
 50
28.6554250335992187
 51
36.507915484201618
  0
LINE
  5
1B32C
  8
0
 10
4510.5236948586180006
 20
470.1255561728304997
 30
0.0
 11
4510.4800047471544531
 21
470.1929685303783799
 31
0.0
  0
ARC
  5
1B32D
  8
0
 10
4510.461053308054943
 20
470.1886166573777928
 30
0.0
 40
0.0194446867437436
 50
12.9327837496794196
 51
31.8048977646445508
  0
LINE
  5
1B32E
  8
0
 10
4510.4763601599033791
 20
470.2006650934666254
 30
0.0
 11
4510.5207524309980727
 21
470.1350504472616194
 31
0.0
  0
LINE
  5
1B32F
  8
0
 10
4510.5214818513477439
 20
470.1392020406843244
 30
0.0
 11
4510.4818208107835744
 21
470.2033520721824971
 31
0.0
  0
LINE
  5
1B330
  8
0
 10
4510.5252267854211823
 20
470.1448018093914811
 30
0.0
 11
4510.4926725576488025
 21
470.2086906559953263
 31
0.0
  0
ARC
  5
1B331
  8
0
 10
4510.4793572559556196
 20
470.1941965160723953
 30
0.0
 40
0.0013882340277665
 50
297.8017446979853844
 51
359.4579972671792802
  0
LINE
  5
1B332
  8
0
 10
4510.5368152242408541
 20
470.1513806843360044
 30
0.0
 11
4510.5024063558958005
 21
470.2043976131029126
 31
0.0
  0
ARC
  5
1B333
  8
0
 10
4510.4844284255823368
 20
470.1985896948265236
 30
0.0
 40
0.0188928000319816
 50
17.90347749288388
 51
42.8725003565337133
  0
ARC
  5
1B334
  8
0
 10
4510.4937872392501959
 20
470.2089324834714716
 30
0.0
 40
0.0097393131685885
 50
332.249303745552595
 51
27.8249549167169512
  0
ARC
  5
1B335
  8
0
 10
4510.4061012544943878
 20
470.1644628069300893
 30
0.0
 40
0.1080559084694322
 50
26.9758164156972988
 51
39.7721562391242074
  0
ARC
  5
1B336
  8
0
 10
4510.2228020018874304
 20
470.1059534998072991
 30
0.0
 40
0.2953534336288443
 50
25.6039969421942004
 51
38.1498079181849405
  0
LINE
  5
1B337
  8
0
 10
4510.4550674482288741
 20
470.288399144292498
 30
0.0
 11
4510.4192671461987629
 21
470.3760259306947091
 31
0.0
  0
LINE
  5
1B338
  8
0
 10
4510.5024004712022361
 20
470.2134785209045731
 30
0.0
 11
4510.4310152770549394
 21
470.1783747755628156
 31
0.0
  0
LINE
  5
1B339
  8
0
 10
4510.4155874901116476
 20
470.1830400453488892
 30
0.0
 11
4510.3718189282772073
 21
470.2583931427311086
 31
0.0
  0
LINE
  5
1B33A
  8
0
 10
4510.3765235755408867
 20
470.2747732195564936
 30
0.0
 11
4510.4172894721323246
 21
470.2962666386173964
 31
0.0
  0
LINE
  5
1B33B
  8
0
 10
4510.3976391813157534
 20
470.2851089064334928
 30
0.0
 11
4510.4431488987356715
 21
470.3091034580929772
 31
0.0
  0
ARC
  5
1B33C
  8
0
 10
4510.4258021565174204
 20
470.1889773270488035
 30
0.0
 40
0.0118148518293145
 50
210.1673243388908077
 51
296.1826752584556175
  0
ARC
  5
1B33D
  8
0
 10
4510.3820381179202741
 20
470.2643236783313796
 30
0.0
 40
0.0118153751297181
 50
117.8219809496278003
 51
210.1280188495356924
  0
ARC
  5
1B33E
  8
0
 10
4510.4485738573594062
 20
470.2010726217437764
 30
0.0
 40
0.0126360568846037
 50
225.9761669801956998
 51
295.0402405848404896
  0
ARC
  5
1B33F
  8
0
 10
4510.4638502769939805
 20
470.2177711337441224
 30
0.0
 40
0.0352650526157961
 50
218.54099924620769
 51
226.9839263651415138
  0
LINE
  5
1B340
  8
0
 10
4510.5535315215029186
 20
470.1602670469785039
 30
0.0
 11
4510.4891524318645679
 21
470.2335900902015737
 31
0.0
  0
ARC
  5
1B341
  8
0
 10
4510.3636232473418204
 20
470.2495414441052048
 30
0.0
 40
0.099357751282697
 50
23.0222624806085499
 51
36.8319650605663469
  0
ARC
  5
1B342
  8
0
 10
4510.4332839515545857
 20
470.3018791775630234
 30
0.0
 40
0.0122273223577021
 50
36.2159973939948472
 51
84.2712556464460647
  0
ARC
  5
1B343
  8
0
 10
4510.4228055500034316
 20
470.3013768441990123
 30
0.0
 40
0.0172440669202067
 50
19.000945095927829
 51
47.2787960169271386
  0
LINE
  5
1B344
  8
0
 10
4510.434504469915737
 20
470.3140454319977266
 30
0.0
 11
4510.4026893929049038
 21
470.3679406503566724
 31
0.0
  0
LINE
  5
1B345
  8
0
 10
4510.4336779948416734
 20
470.3041100143295807
 30
0.0
 11
4510.3906127570417084
 21
470.3625442910350785
 31
0.0
  0
LINE
  5
1B346
  8
0
 10
4510.4230056272781439
 20
470.2984831160432009
 30
0.0
 11
4510.3837002841128196
 21
470.3620578251121174
 31
0.0
  0
LINE
  5
1B347
  8
0
 10
4510.3837002841128196
 20
470.3620578251121174
 30
0.0
 11
4510.3833014513747912
 21
470.3632083126369139
 31
0.0
  0
ARC
  5
1B348
  8
0
 10
4510.3837764331528888
 20
470.3627944916627825
 30
0.0
 40
0.0007405918465818
 50
264.0983102767855826
 51
0.3691724973654609
  0
ARC
  5
1B349
  8
0
 10
4510.3880996320440318
 20
470.3754562694383026
 30
0.0
 40
0.0131542762454455
 50
227.7162416252294861
 51
294.6639446170826204
  0
LINE
  5
1B34A
  8
0
 10
4510.3935888494388564
 20
470.3635020452501863
 30
0.0
 11
4510.4349077159931767
 21
470.3836544796378121
 31
0.0
  0
ARC
  5
1B34B
  8
0
 10
4510.4405707194109709
 20
470.3895743968562897
 30
0.0
 40
0.0159463814794917
 50
216.2526073318030058
 51
249.8999302150934056
  0
ARC
  5
1B34C
  8
0
 10
4510.4253904711249561
 20
470.3789328314861109
 30
0.0
 40
0.0106241193115956
 50
335.9269870123292776
 51
26.3867003446026196
  0
ARC
  5
1B34D
  8
0
 10
4510.2224763483463903
 20
470.2951801863802075
 30
0.0
 40
0.2301190703258703
 50
22.6109528985402513
 51
31.0513642301528101
  0
ARC
  5
1B34E
  8
0
 10
4510.0537901337656876
 20
470.2525758706401007
 30
0.0
 40
0.3998124218691301
 50
23.7935407349794907
 51
35.8501206154100132
  0
ARC
  5
1B34F
  8
0
 10
4510.2660639500363686
 20
470.430482797181412
 30
0.0
 40
0.1251485252826114
 50
26.7094211324373809
 51
42.3839696084807969
  0
ARC
  5
1B350
  8
0
 10
4510.8188022732147147
 20
470.6926999535912728
 30
0.0
 40
0.5491844545527773
 50
203.5078121962166904
 51
215.0205207218012049
  0
ARC
  5
1B351
  8
0
 10
4510.3383385929064389
 20
470.483170353122091
 30
0.0
 40
0.0250254928991718
 50
177.9595565386148905
 51
202.3737119464711895
  0
ARC
  5
1B352
  8
0
 10
4510.3252882882552512
 20
470.4836353031038811
 30
0.0
 40
0.0119669083677813
 50
116.6212859996576015
 51
177.9595565386148905
  0
LINE
  5
1B353
  8
0
 10
4510.3199260213868911
 20
470.4943335735213168
 30
0.0
 11
4510.3585041536071003
 21
470.5148448866764284
 31
0.0
  0
ARC
  5
1B354
  8
0
 10
4510.3487727579185957
 20
470.5068980368495772
 30
0.0
 40
0.0125639358574548
 50
39.2357541575038482
 51
87.526593603734625
  0
LINE
  5
1B355
  8
0
 10
4510.3493149630958214
 20
470.5194502676383763
 30
0.0
 11
4510.3521408304877696
 21
470.5114616198953854
 31
0.0
  0
LINE
  5
1B356
  8
0
 10
4510.3493149630958214
 20
470.5194502676383763
 30
0.0
 11
4510.3281945297949278
 21
470.5569489055254166
 31
0.0
  0
LINE
  5
1B357
  8
0
 10
4510.377858814152205
 20
470.4867327904049148
 30
0.0
 11
4510.3521448014898851
 21
470.5686290431177099
 31
0.0
  0
ARC
  5
1B358
  8
0
 10
4513.101455064746915
 20
472.7562027632811805
 30
0.0
 40
3.5607198770597388
 50
221.1341016859745991
 51
224.0136617425295071
  0
ARC
  5
1B359
  8
0
 10
4517.5694402692579388
 20
474.7746862621813193
 30
0.0
 40
8.3372608180824681
 50
210.2979144194590049
 51
212.2523645847267915
  0
LINE
  5
1B35A
  8
0
 10
4510.3712627340546533
 20
470.5779632590077881
 30
0.0
 11
4510.3282954091837382
 21
470.5570057239643234
 31
0.0
  0
LINE
  5
1B35B
  8
0
 10
4510.2982087783429961
 20
470.7109179927614946
 30
0.0
 11
4510.2557340309149367
 21
470.6883339132018023
 31
0.0
  0
LINE
  5
1B35C
  8
0
 10
4510.3423664813708456
 20
470.5062647706932921
 30
0.0
 11
4510.2820749190786955
 21
470.5814305807655273
 31
0.0
  0
LINE
  5
1B35D
  8
0
 10
4510.3261305672804156
 20
470.4976324212482268
 30
0.0
 11
4510.2942286039378814
 21
470.5516737368565146
 31
0.0
  0
LINE
  5
1B35E
  8
0
 10
4510.3152030255123464
 20
470.4900769155776743
 30
0.0
 11
4510.2847918237903286
 21
470.5563671036546225
 31
0.0
  0
LINE
  5
1B35F
  8
0
 10
4510.2890603961377565
 20
470.5584166050091994
 30
0.0
 11
4510.2942286039378814
 21
470.5516737368565146
 31
0.0
  0
LINE
  5
1B360
  8
0
 10
4510.31340926707162
 20
470.4809785483084283
 30
0.0
 11
4510.2740076536983906
 21
470.5510606364335899
 31
0.0
  0
LINE
  5
1B361
  8
0
 10
4510.2742634125979748
 20
470.5505014345894779
 30
0.0
 11
4510.2749182636644036
 21
470.5494409705781891
 31
0.0
  0
LINE
  5
1B362
  8
0
 10
4510.2929937265180342
 20
470.560402940176516
 30
0.0
 11
4510.2466813350893062
 21
470.5376144182483245
 31
0.0
  0
LINE
  5
1B363
  8
0
 10
4510.2743094980705791
 20
470.5505237578100832
 30
0.0
 11
4510.2338501470730989
 21
470.5309257598498789
 31
0.0
  0
ARC
  5
1B364
  8
0
 10
4510.2896798950478114
 20
470.5543245596549013
 30
0.0
 40
0.0052647520443511
 50
329.7679167108598222
 51
18.9705468971055886
  0
ARC
  5
1B365
  8
0
 10
4510.1781412184236615
 20
470.5141122623555248
 30
0.0
 40
0.1238302284124672
 50
19.7890731274619789
 51
32.9291609640650265
  0
ARC
  5
1B366
  8
0
 10
4510.128796725220127
 20
470.5319861018355141
 30
0.0
 40
0.1610568020624087
 50
17.8770512282031611
 51
40.9011095966543721
  0
LINE
  5
1B367
  8
0
 10
4510.2505300256034388
 20
470.6374389209934748
 30
0.0
 11
4510.2114223721946473
 21
470.7453595105885142
 31
0.0
  0
ARC
  5
1B368
  8
0
 10
4510.2070242878226054
 20
470.6329269633155832
 30
0.0
 40
0.0424480231200738
 50
21.0220189843834504
 51
44.250582778454941
  0
ARC
  5
1B369
  8
0
 10
4510.2334683701619724
 20
470.6583798074150877
 30
0.0
 40
0.0057495703212976
 50
46.4522441208436732
 51
113.1327492502473007
  0
ARC
  5
1B36A
  8
0
 10
4510.2280070188662648
 20
470.658582038117288
 30
0.0
 40
0.0060095085719026
 50
19.2669279453765583
 51
57.7973587566614384
  0
LINE
  5
1B36B
  8
0
 10
4510.2336799443128257
 20
470.660564993019193
 30
0.0
 11
4510.2353894124271392
 21
470.6567507454643078
 31
0.0
  0
LINE
  5
1B36C
  8
0
 10
4510.1924474182224003
 20
470.7360226842378097
 30
0.0
 11
4510.2312095778306684
 21
470.6636670955751924
 31
0.0
  0
LINE
  5
1B36D
  8
0
 10
4510.2299356228149918
 20
470.6538752884262067
 30
0.0
 11
4510.2006545359054144
 21
470.6972591517574074
 31
0.0
  0
ARC
  5
1B36E
  8
0
 10
4509.7433221898290867
 20
470.5213775220046841
 30
0.0
 40
0.4899869615111123
 50
21.0358273978529198
 51
25.5335307099400488
  0
LINE
  5
1B36F
  8
0
 10
4510.223901326734449
 20
470.7514999276535264
 30
0.0
 11
4510.1766649040246193
 21
470.7282567253585057
 31
0.0
  0
LINE
  5
1B370
  8
0
 10
4510.1710072377982215
 20
470.85035163245891
 30
0.0
 11
4510.1249256698747558
 21
470.8260555787188082
 31
0.0
  0
ARC
  5
1B371
  8
0
 10
4511.14787808868914
 20
470.8754786882137182
 30
0.0
 40
0.9786461913480087
 50
207.2010148902593016
 51
212.3466844748305959
  0
ARC
  5
1B372
  8
0
 10
4510.2882269018800798
 20
470.4336784084268857
 30
0.0
 40
0.0121123712067543
 50
118.2368502206439018
 51
207.2837643920281039
  0
LINE
  5
1B373
  8
0
 10
4510.2824963272869354
 20
470.4443493995282779
 30
0.0
 11
4510.31955426085824
 21
470.4638878313581927
 31
0.0
  0
LINE
  5
1B374
  8
0
 10
4510.3771329376331778
 20
470.3676966948576137
 30
0.0
 11
4510.3364138730266859
 21
470.3476604311009055
 31
0.0
  0
ARC
  5
1B375
  8
0
 10
4510.4182729361518795
 20
470.4097231847483158
 30
0.0
 40
0.0588109286666785
 50
213.1777565351852957
 51
228.4294091656653904
  0
LINE
  5
1B376
  8
0
 10
4510.4121671263128519
 20
470.3026961904881205
 30
0.0
 11
4510.3745851169151138
 21
470.3664429884349829
 31
0.0
  0
LINE
  5
1B377
  8
0
 10
4510.3771167403156142
 20
470.3676887247893887
 30
0.0
 11
4510.4176353606808334
 21
470.2956516920933154
 31
0.0
  0
ARC
  5
1B378
  8
0
 10
4510.4046115397140966
 20
470.2918277721008735
 30
0.0
 40
0.0132366690331557
 50
31.6532717504126602
 51
55.1934633162342507
  0
ARC
  5
1B379
  8
0
 10
4510.3311599624321389
 20
470.358536964761015
 30
0.0
 40
0.0120790132460062
 50
213.5406869765054978
 51
295.7828697690882223
  0
ARC
  5
1B37A
  8
0
 10
4510.0347049193987914
 20
470.2399681001035106
 30
0.0
 40
0.3047690559882316
 50
26.54440696132027
 51
32.9130261538496995
  0
ARC
  5
1B37B
  8
0
 10
4510.6335238028441381
 20
470.58192624657039
 30
0.0
 40
0.3856524318939893
 50
207.2127430308376006
 51
212.2446900843389983
  0
ARC
  5
1B37C
  8
0
 10
4510.8270439396974325
 20
470.4840609317056987
 30
0.0
 40
0.4855941729151928
 50
206.8954296244764919
 51
216.4149243905129936
  0
ARC
  5
1B37D
  8
0
 10
4510.4173793401641888
 20
470.2764457910733995
 30
0.0
 40
0.0263244663949816
 50
186.1271407549845947
 51
207.2418891327376116
  0
ARC
  5
1B37E
  8
0
 10
4510.4034922169339552
 20
470.2742860607270927
 30
0.0
 40
0.012304146257183
 50
118.4046892125969066
 51
183.0282779654970966
  0
ARC
  5
1B37F
  8
0
 10
4510.5230918310280686
 20
470.2981450856850074
 30
0.0
 40
0.1275808463554011
 50
203.8158067615557911
 51
219.1229232030655112
  0
ARC
  5
1B380
  8
0
 10
4510.3089023661577812
 20
470.1670470907694153
 30
0.0
 40
0.1258332870015308
 50
23.7088647292419594
 51
39.2298652353938024
  0
ARC
  5
1B381
  8
0
 10
4510.5892358430610329
 20
470.1773224671915727
 30
0.0
 40
0.0293307242716319
 50
187.2541436887046871
 51
204.6729143348613889
  0
ARC
  5
1B382
  8
0
 10
4510.5564943083390972
 20
470.1575663429629799
 30
0.0
 40
0.0164612700714277
 50
41.2539195232235372
 51
77.2049642393829458
  0
ARC
  5
1B383
  8
0
 10
4510.391309301997353
 20
470.0142121159632893
 30
0.0
 40
0.2351766746849459
 50
30.228691555874839
 51
40.9738453196597234
  0
ARC
  5
1B384
  8
0
 10
4510.059013963520556
 20
469.7651877520013954
 30
0.0
 40
0.6494259224736028
 50
24.936334791012829
 51
34.4556701800666119
  0
ARC
  5
1B385
  8
0
 10
4270.3405307416278447
 20
320.8491904029983175
 30
0.0
 40
282.8484497938551954
 50
31.8657584270556988
 51
31.9137075750469492
  0
ARC
  5
1B386
  8
0
 10
4510.3222705290063459
 20
470.5705054254734137
 30
0.0
 40
0.0147831364060939
 50
228.9388723726189028
 51
294.0510771759599038
  0
ARC
  5
1B387
  8
0
 10
4510.3711111574539245
 20
470.626569227093114
 30
0.0
 40
0.0891374021835438
 50
216.2594211052694106
 51
228.9388723726189028
  0
ARC
  5
1B388
  8
0
 10
4510.2625863357343405
 20
470.6760842410525925
 30
0.0
 40
0.0140359733936918
 50
119.2220728709143032
 51
185.3127301060578986
  0
ARC
  5
1B389
  8
0
 10
4510.3060951546076467
 20
470.6801301824261827
 30
0.0
 40
0.0577325059956544
 50
185.3127301060578986
 51
200.5237800924219869
  0
ARC
  5
1B38A
  8
0
 10
4510.6097257197234285
 20
470.8001805055693012
 30
0.0
 40
0.3842263482586631
 50
201.4153508481992105
 51
216.0900601909042962
  0
ARC
  5
1B38B
  8
0
 10
4510.3316319819268756
 20
470.6453371371329126
 30
0.0
 40
0.0595946527734739
 50
194.1708605146988873
 51
224.3168348351694874
  0
ARC
  5
1B38C
  8
0
 10
4510.2328123742036041
 20
470.5900094359255945
 30
0.0
 40
0.0578251065860664
 50
13.6981270761566005
 51
44.7895682737199365
  0
ARC
  5
1B38D
  8
0
 10
4509.832738173209691
 20
470.3626856790211264
 30
0.0
 40
0.5803404801565412
 50
22.1816924731226806
 51
33.4252847144483667
  0
ARC
  5
1B38E
  8
0
 10
4510.3507965809076268
 20
470.5739786409693011
 30
0.0
 40
0.0208504341807426
 50
344.9651350166124075
 51
22.0027630850601916
  0
ARC
  5
1B38F
  8
0
 10
4510.3765391129336422
 20
470.5835944576533052
 30
0.0
 40
0.0160363005524069
 50
216.0058785823102028
 51
249.538841800900201
  0
ARC
  5
1B390
  8
0
 10
4510.160761738776273
 20
470.5994898363423999
 30
0.0
 40
0.1769404496679032
 50
27.9293768843229806
 51
39.031642146774189
  0
ARC
  5
1B391
  8
0
 10
4510.2889502614571029
 20
470.7042692448865182
 30
0.0
 40
0.0113985079405269
 50
35.6829721977129211
 51
87.142478948113137
  0
ARC
  5
1B392
  8
0
 10
4510.226046848302758
 20
470.6913779728902227
 30
0.0
 40
0.0679555467752621
 50
13.8390079171753495
 51
20.9300398332289106
  0
ARC
  5
1B393
  8
0
 10
5047.8112070154447792
 20
759.2996200843986117
 30
0.0
 40
610.0903796506537446
 50
208.208245289748902
 51
208.2304055462587087
  0
ARC
  5
1B394
  8
0
 10
4511.423030507950898
 20
472.0005265521893989
 30
0.0
 40
1.6286438825692471
 50
219.4897170292366866
 51
222.9114982357779979
  0
ARC
  5
1B395
  8
0
 10
4510.1877380642372373
 20
470.9427283018289927
 30
0.0
 40
0.0215150545142192
 50
218.3794294216027936
 51
242.9187329176918979
  0
ARC
  5
1B396
  8
0
 10
4510.1673328832266634
 20
470.9293958088222212
 30
0.0
 40
0.0121035238445
 50
331.2390471046472271
 51
18.5526179098485393
  0
LINE
  5
1B397
  8
0
 10
4510.178807409412002
 20
470.9332468526167759
 30
0.0
 11
4510.1354994066095969
 21
470.9121229024827926
 31
0.0
  0
ARC
  5
1B398
  8
0
 10
4510.1295643488956557
 20
470.9266512015291255
 30
0.0
 40
0.0156938326500889
 50
226.6005489581050938
 51
292.220851497542526
  0
ARC
  5
1B399
  8
0
 10
4510.1539941206456206
 20
470.9555974195357066
 30
0.0
 40
0.0535535341345522
 50
224.3008894635893
 51
228.8887385763806037
  0
ARC
  5
1B39A
  8
0
 10
4510.0264607591825552
 20
470.8904347272775794
 30
0.0
 40
0.1582478433088209
 50
15.6963099263727504
 51
28.0326538586581115
  0
LINE
  5
1B39B
  8
0
 10
4510.254565160801576
 20
470.6876755687056857
 30
0.0
 11
4510.223742918786229
 21
470.7423995300155752
 31
0.0
  0
LINE
  5
1B39C
  8
0
 10
4510.2780147529429087
 20
470.7001807078277125
 30
0.0
 11
4510.2139597619789129
 21
470.7734965021031144
 31
0.0
  0
ARC
  5
1B39D
  8
0
 10
4510.274829885381223
 20
470.7924934908380123
 30
0.0
 40
0.0715491653809313
 50
217.7270161021284025
 51
224.437708126779313
  0
ARC
  5
1B39E
  8
0
 10
4510.2123984702775488
 20
470.7471485769963806
 30
0.0
 40
0.0122983722171819
 50
337.2846934696701169
 51
20.7208463550560289
  0
ARC
  5
1B39F
  8
0
 10
4510.1088836100252593
 20
470.7127614376248061
 30
0.0
 40
0.1213661640101947
 50
18.6137593634493292
 51
30.0283408811541292
  0
ARC
  5
1B3A0
  8
0
 10
4509.974745356819767
 20
470.6815640012900985
 30
0.0
 40
0.2562715675626572
 50
21.0222696809402301
 51
35.4087221121594666
  0
ARC
  5
1B3A1
  8
0
 10
4510.0705703567318778
 20
470.7739047431238077
 30
0.0
 40
0.1262208143187393
 50
26.4112187320233396
 51
37.2763447732228528
  0
ARC
  5
1B3A2
  8
0
 10
4510.1947890950032161
 20
470.8582623114290868
 30
0.0
 40
0.0318791421162763
 50
184.640388771669592
 51
200.4217274357118015
  0
ARC
  5
1B3A3
  8
0
 10
4510.1593352524141665
 20
470.8415107033204094
 30
0.0
 40
0.0146423109795366
 50
37.1420579405624025
 51
75.4472271348922447
  0
LINE
  5
1B3A4
  8
0
 10
4510.16301444961573
 20
470.8556832393946934
 30
0.0
 11
4510.1346823700605455
 21
470.9112883219102059
 31
0.0
  0
LINE
  5
1B3A5
  8
0
 10
4510.1836168333929891
 20
470.8300490935224047
 30
0.0
 11
4510.1583584108429932
 21
470.9232726308468955
 31
0.0
  0
LINE
  5
1B3A6
  8
0
 10
4510.2764934712649847
 20
470.4283356417839173
 30
0.0
 11
4510.2203167277830289
 21
470.5334570014409223
 31
0.0
  0
ARC
  5
1B3A7
  8
0
 10
4510.2905803739995463
 20
470.4360289474311116
 30
0.0
 40
0.0160507875331883
 50
208.6403575997478868
 51
225.1197613827960993
  0
ARC
  5
1B3A8
  8
0
 10
4510.2306339102860875
 20
470.5271057824289755
 30
0.0
 40
0.0061640993637779
 50
146.5882280965828102
 51
200.2412069135567947
  0
ARC
  5
1B3A9
  8
0
 10
4510.2290568888447524
 20
470.5427425447736027
 30
0.0
 40
0.0127519304564453
 50
205.3002792475809883
 51
292.0790162143853195
  0
ARC
  5
1B3AA
  8
0
 10
4513.9853786377279903
 20
472.6253882427074018
 30
0.0
 40
4.3077650710745621
 50
207.0465043032760946
 51
208.9946691312296139
  0
ARC
  5
1B3AB
  8
0
 10
4506.7614589270961005
 20
468.7810319507889858
 30
0.0
 40
3.8767082168511968
 50
26.9381824138945198
 51
29.1029910206118387
  0
ARC
  5
1B3AC
  8
0
 10
4510.1612611181080865
 20
470.6735700448172111
 30
0.0
 40
0.0143527406969704
 50
163.302791318536606
 51
209.1029910206119098
  0
ARC
  5
1B3AD
  8
0
 10
4509.3040955275100714
 20
470.1344541171237097
 30
0.0
 40
0.995794781454397
 50
26.8163962888300311
 51
29.2331696702069692
  0
ARC
  5
1B3AE
  8
0
 10
4511.3857817983280256
 20
471.2424615917523738
 30
0.0
 40
1.3627865908964241
 50
207.141839465776286
 51
208.9077264932714115
  0
ARC
  5
1B3AF
  8
0
 10
4510.2414009840258586
 20
470.5487835816708184
 30
0.0
 40
0.0123544453097051
 50
217.8442480067716076
 51
295.3029840428865782
  0
ARC
  5
1B3B0
  8
0
 10
4510.3037708977281
 20
470.5972398395510936
 30
0.0
 40
0.0913355510434986
 50
211.4782154688938078
 51
217.8442480067716076
  0
ARC
  5
1B3B1
  8
0
 10
4510.2001551748835482
 20
470.6243168374764991
 30
0.0
 40
0.012258305118045
 50
118.3966541315707985
 51
198.1069530421935951
  0
ARC
  5
1B3B2
  8
0
 10
4510.2600973000689919
 20
470.6439169955838793
 30
0.0
 40
0.0753235456994447
 50
198.1069530421935951
 51
206.1412981918975902
  0
ARC
  5
1B3B3
  8
0
 10
4510.913479970095068
 20
470.9645900474263271
 30
0.0
 40
0.8031560261964125
 50
206.1412981918975902
 51
211.115533623639493
  0
ARC
  5
1B3B4
  8
0
 10
4510.3730986496329933
 20
470.6696289370094064
 30
0.0
 40
0.1862940433574602
 50
203.3622705085722089
 51
213.7901880930382106
  0
ARC
  5
1B3B5
  8
0
 10
4510.0592420780003522
 20
470.4986776598485108
 30
0.0
 40
0.1727023079716555
 50
22.9506551071278615
 51
34.2018034944616574
  0
LINE
  5
1B3B6
  8
0
 10
4510.2402673963006237
 20
470.6593226145782864
 30
0.0
 11
4510.194325457906416
 21
470.6351001785324115
 31
0.0
  0
LINE
  5
1B3B7
  8
0
 10
4510.2193429727603871
 20
470.6482904184088056
 30
0.0
 11
4510.2133226691648815
 21
470.6589984735277881
 31
0.0
  0
LINE
  5
1B3B8
  8
0
 10
4510.2226107789801972
 20
470.6634973900568184
 30
0.0
 11
4510.1796355766955458
 21
470.6426813242630942
 31
0.0
  0
LINE
  5
1B3B9
  8
0
 10
4510.1195357262467951
 20
470.8071519955657891
 30
0.0
 11
4510.0995602725852223
 21
470.7964618910444869
 31
0.0
  0
ARC
  5
1B3BA
  8
0
 10
4510.1742689192988109
 20
470.6366915576651877
 30
0.0
 40
0.0079844524643838
 50
127.2844609138969929
 51
205.4080684052856043
  0
ARC
  5
1B3BB
  8
0
 10
4510.1749590788940623
 20
470.6548160608865032
 30
0.0
 40
0.0130046708770969
 50
204.5330536253057971
 51
291.0757184178485772
  0
ARC
  5
1B3BC
  8
0
 10
4512.2707407543657609
 20
471.8316950836065189
 30
0.0
 40
2.4165704627608662
 50
205.8129687875174909
 51
209.2905287915926067
  0
ARC
  5
1B3BD
  8
0
 10
4510.1065069668866272
 20
470.7856745136247127
 30
0.0
 40
0.0128305913082879
 50
122.7801207497823981
 51
209.0924034842346941
  0
ARC
  5
1B3BE
  8
0
 10
4510.6671621530449556
 20
470.9949893782908816
 30
0.0
 40
0.6071613066958946
 50
205.5777453040159912
 51
209.5416553299563134
  0
ARC
  5
1B3BF
  8
0
 10
4509.5938869918181808
 20
470.4348555509803873
 30
0.0
 40
0.6042152811482707
 50
25.5680778272196108
 51
29.551322806739929
  0
ARC
  5
1B3C0
  8
0
 10
4510.1711200319841737
 20
470.7399959045504829
 30
0.0
 40
0.0129828322814409
 50
226.3959681871968996
 51
295.2831924080215913
  0
ARC
  5
1B3C1
  8
0
 10
4510.1996398886112729
 20
470.7699404847372193
 30
0.0
 40
0.054335705272078
 50
214.3816829197785978
 51
226.3959681871968996
  0
ARC
  5
1B3C2
  8
0
 10
4510.1312737109683439
 20
470.8146345953812784
 30
0.0
 40
0.0130666172410489
 50
119.0662963681548945
 51
188.6641063374694056
  0
ARC
  5
1B3C3
  8
0
 10
4510.1654146987393688
 20
470.8198370138729842
 30
0.0
 40
0.0476017038067113
 50
188.6641063374694056
 51
202.6861777474516941
  0
ARC
  5
1B3C4
  8
0
 10
4510.4445168146958167
 20
470.9343390430175873
 30
0.0
 40
0.3492772904991467
 50
202.357776814694887
 51
213.9542495868541039
  0
ARC
  5
1B3C5
  8
0
 10
4510.2135685515086152
 20
470.8109985776898725
 30
0.0
 40
0.0848432115864971
 50
196.5673129830803987
 51
219.6727876789252036
  0
ARC
  5
1B3C6
  8
0
 10
4510.0682269426642961
 20
470.7333280114858098
 30
0.0
 40
0.0834180002739378
 50
16.3671414075235688
 51
39.8729592544872702
  0
LINE
  5
1B3C7
  8
0
 10
4510.1228020819462472
 20
470.824582860950386
 30
0.0
 11
4510.0956833782183821
 21
470.8778063138332755
 31
0.0
  0
LINE
  5
1B3C8
  8
0
 10
4510.1266616012062514
 20
470.8269708312649868
 30
0.0
 11
4510.092027540033996
 21
470.9113478414628844
 31
0.0
  0
ARC
  5
1B3C9
  8
0
 10
4525.1082879842588227
 20
478.8998405104002245
 30
0.0
 40
17.0031952283773897
 50
208.0388694864496131
 51
208.3185258672490079
  0
LINE
  5
1B3CA
  8
0
 10
4510.1586974109895891
 20
470.8438613971725886
 30
0.0
 11
4510.0923144231783226
 21
470.9339347850570903
 31
0.0
  0
LINE
  5
1B3CB
  8
0
 10
4510.1007764841324388
 20
470.9071409321671808
 30
0.0
 11
4510.0966485768485654
 21
470.9135894447895225
 31
0.0
  0
ARC
  5
1B3CC
  8
0
 10
4510.0938328206566439
 20
470.911876501350207
 30
0.0
 40
0.0084047651920721
 50
325.7060645732345279
 51
28.4003899019736892
  0
ARC
  5
1B3CD
  8
0
 10
4510.2254653990548832
 20
470.9515586409065122
 30
0.0
 40
0.1432137046303671
 50
209.7681646889271008
 51
212.8470102314734902
  0
ARC
  5
1B3CE
  8
0
 10
4509.3668414203466455
 20
470.6098134639236719
 30
0.0
 40
0.7841098829290351
 50
19.6803392671582102
 51
22.5715761197511284
  0
LINE
  5
1B3CF
  8
0
 10
4510.1012260331599464
 20
470.9158740614586236
 30
0.0
 11
4510.0559741371052951
 21
470.8936073678225966
 31
0.0
  0
LINE
  5
1B3D0
  8
0
 10
4510.1025808389058511
 20
470.8811472626002796
 30
0.0
 11
4510.0636125088713015
 21
470.8622720269669912
 31
0.0
  0
ARC
  5
1B3D1
  8
0
 10
4509.9720384802712942
 20
470.8633586782256089
 30
0.0
 40
0.1394535381325959
 50
22.1219868198631815
 51
30.4037670614920401
  0
ARC
  5
1B3D2
  8
0
 10
4511.096531780690384
 20
470.9379435992212848
 30
0.0
 40
0.8202710691519657
 50
192.1688296653138082
 51
198.1543146226620991
  0
ARC
  5
1B3D3
  8
0
 10
4510.4252526210957512
 20
470.468953394617472
 30
0.0
 40
0.0924531919226818
 50
200.2109531093967121
 51
219.5135098806237011
  0
ARC
  5
1B3D4
  8
0
 10
4510.2693009136701221
 20
470.3794139262653857
 30
0.0
 40
0.0900280716261854
 50
19.9483825851265593
 51
39.7760804049005969
  0
LINE
  5
1B3D5
  8
0
 10
4510.2689233583932946
 20
470.5479147800190844
 30
0.0
 11
4510.3162541785422945
 21
470.4712299157465054
 31
0.0
  0
ARC
  5
1B3D6
  8
0
 10
4510.0592973206212264
 20
470.875221568129291
 30
0.0
 40
0.0136495958168351
 50
206.4949332693022086
 51
288.4296705271999031
  0
ARC
  5
1B3D7
  8
0
 10
4509.9927843578861939
 20
471.0056966644550016
 30
0.0
 40
0.0136206069870258
 50
125.4652282228331046
 51
207.5288815662630952
  0
ARC
  5
1B3D8
  8
0
 10
4511.6987914493056451
 20
471.792764955371581
 30
0.0
 40
1.8924174658683379
 50
204.7861672114682108
 51
209.2138255547623089
  0
ARC
  5
1B3D9
  8
0
 10
4510.4580887684351183
 20
471.1606121261552858
 30
0.0
 40
0.4991035937929296
 50
204.590141682164699
 51
209.4130963565708896
  0
ARC
  5
1B3DA
  8
0
 10
4509.5486375618193051
 20
470.6971912205211765
 30
0.0
 40
0.5224762556060875
 50
24.6980771993494095
 51
29.3051608393946488
  0
ARC
  5
1B3DB
  8
0
 10
4510.0117178447680999
 20
470.981303614099204
 30
0.0
 40
0.0124202978740152
 50
118.756092260351906
 51
194.669923838518514
  0
ARC
  5
1B3DC
  8
0
 10
4510.0789458738199755
 20
470.9997042836589003
 30
0.0
 40
0.0821203811848079
 50
195.210871806938087
 51
207.2969293264027044
  0
ARC
  5
1B3DD
  8
0
 10
4510.0506609434160055
 20
470.904979397103773
 30
0.0
 40
0.0125520148641088
 50
214.6205636931366882
 51
295.0427324484653013
  0
ARC
  5
1B3DE
  8
0
 10
4510.1683206157067616
 20
470.9889710993516019
 30
0.0
 40
0.1571133926629043
 50
207.9670328722106092
 51
215.4493005385016886
  0
ARC
  5
1B3DF
  8
0
 10
4510.590151401896037
 20
471.227414218416925
 30
0.0
 40
0.6416300318403029
 50
204.4304293546829001
 51
209.1077848888212998
  0
ARC
  5
1B3E0
  8
0
 10
4510.1549151705858094
 20
471.0061192821424925
 30
0.0
 40
0.1519231181344758
 50
200.6022193596238026
 51
213.397809957737195
  0
ARC
  5
1B3E1
  8
0
 10
4509.8822872245236795
 20
470.8672083175231933
 30
0.0
 40
0.1559222965084019
 50
20.7669725216227405
 51
33.2330567957465632
  0
ARC
  5
1B3E2
  8
0
 10
4509.8113437526526468
 20
470.8310514776226796
 30
0.0
 40
0.2992147934905604
 50
20.1112647715554012
 51
33.8887352281492866
  0
ARC
  5
1B3E3
  8
0
 10
4510.497334290346771
 20
465.148227156730627
 30
0.0
 40
0.5215914222242651
 50
328.6995995696381101
 51
359.5383014190744007
  0
ARC
  5
1B3E4
  8
0
 10
4510.9594169458341639
 20
464.8662747999545104
 30
0.0
 40
0.0197372302305162
 50
146.2251661938965981
 51
179.9744425383921964
  0
LINE
  5
1B3E5
  8
0
 10
4510.939679717567742
 20
464.8662836039796957
 30
0.0
 11
4510.939679717567742
 21
464.2423666159796767
 31
0.0
  0
ARC
  5
1B3E6
  8
0
 10
4510.9593647569672612
 20
464.2423666159796767
 30
0.0
 40
0.0196850393999935
 50
179.9999999999870113
 51
270.0000001094834943
  0
ARC
  5
1B3E7
  8
0
 10
4511.9337742057668947
 20
464.2423666159796767
 30
0.0
 40
0.0196850393999988
 50
269.999999890516392
 51
0.0000000000032569
  0
LINE
  5
1B3E8
  8
0
 10
4511.1050931033678353
 20
463.8683508678798262
 30
0.0
 11
4511.7880458592671857
 21
463.8683508678798262
 31
0.0
  0
LINE
  5
1B3E9
  8
0
 10
4511.0854080640683605
 20
463.8880359072796864
 30
0.0
 11
4511.0854080640683605
 21
463.951243728078623
 31
0.0
  0
LINE
  5
1B3EA
  8
0
 10
4511.0854080640683605
 20
464.0110284649325081
 30
0.0
 11
4511.0854080640683605
 21
464.0227185175787099
 31
0.0
  0
LINE
  5
1B3EB
  8
0
 10
4511.0854080640683605
 20
464.0825032544324813
 30
0.0
 11
4511.0854080640683605
 21
464.0941688830785097
 31
0.0
  0
LINE
  5
1B3EC
  8
0
 10
4511.0854080640683605
 20
464.1539536199325084
 30
0.0
 11
4511.0854080640683605
 21
464.1655294770786213
 31
0.0
  0
LINE
  5
1B3ED
  8
0
 10
4511.8077308986667049
 20
463.8880359072796864
 30
0.0
 11
4511.8077308986667049
 21
463.9151239122069796
 31
0.0
  0
LINE
  5
1B3EE
  8
0
 10
4511.8077308986667049
 20
463.9749086481289737
 30
0.0
 11
4511.8077308986667049
 21
463.9865736423070075
 31
0.0
  0
LINE
  5
1B3EF
  8
0
 10
4511.8077308986667049
 20
464.0463583782290016
 30
0.0
 11
4511.8077308986667049
 21
464.0580484318069807
 31
0.0
  0
LINE
  5
1B3F0
  8
0
 10
4511.8077308986667049
 20
464.1178331677289748
 30
0.0
 11
4511.8077308986667049
 21
464.1294987973070079
 31
0.0
  0
LINE
  5
1B3F1
  8
0
 10
4511.8077308986667049
 20
464.1892835332288882
 30
0.0
 11
4511.8077308986667049
 21
464.2008593913070058
 31
0.0
  0
LINE
  5
1B3F2
  8
0
 10
4511.0408148856176922
 20
464.1303880436785789
 30
0.0
 11
4511.0408148856176922
 21
464.1173825212787278
 31
0.0
  0
LINE
  5
1B3F3
  8
0
 10
4511.852324076217883
 20
464.1660698954913755
 30
0.0
 11
4511.852324076217883
 21
464.1530643730915244
 31
0.0
  0
LINE
  5
1B3F4
  8
0
 10
4511.24656948091706
 20
464.1646666536224757
 30
0.0
 11
4511.6465694809176057
 21
464.1780143773411851
 31
0.0
  0
LINE
  5
1B3F5
  8
0
 10
4511.6465694809176057
 20
464.154079424912311
 30
0.0
 11
4511.24656948091706
 21
464.1423522280286988
 31
0.0
  0
LINE
  5
1B3F6
  8
0
 10
4511.24656948091706
 20
464.1293464523109265
 30
0.0
 11
4511.6465694809176057
 21
464.1410738959428954
 31
0.0
  0
LINE
  5
1B3F7
  8
0
 10
4511.6465694809176057
 20
464.118785763147514
 30
0.0
 11
4511.24656948091706
 21
464.1054317942459875
 31
0.0
  0
ARC
  5
1B3F8
  8
0
 10
4511.3210272837141019
 20
461.8269898195068777
 30
0.0
 40
2.3388623185554249
 50
91.8243223401721167
 51
95.781839448716795
  0
LINE
  5
1B3F9
  8
0
 10
4511.0854080640683605
 20
464.1539536199325084
 30
0.0
 11
4511.0413777434678195
 21
464.1309834657786269
 31
0.0
  0
ARC
  5
1B3FA
  8
0
 10
4511.0419203843812284
 20
464.1299067541210093
 30
0.0
 40
0.0012057226691455
 50
116.7471807065376055
 51
156.4736343256427062
  0
ARC
  5
1B3FB
  8
0
 10
4511.3524556658885558
 20
460.3800018320907839
 30
0.0
 40
3.763858750017345
 50
91.612077508822523
 51
94.7408277732253907
  0
LINE
  5
1B3FC
  8
0
 10
4511.0414000286673399
 20
464.1167810342785742
 30
0.0
 11
4511.0854080640683605
 21
464.0941688830785097
 31
0.0
  0
ARC
  5
1B3FD
  8
0
 10
4511.0418977697199807
 20
464.1178506155291075
 30
0.0
 40
0.0011797246317905
 50
203.3771990463883981
 51
245.0445834697945884
  0
ARC
  5
1B3FE
  8
0
 10
4511.0419208467255885
 20
464.1169003840370806
 30
0.0
 40
0.0012064850988583
 50
116.7535204820414947
 51
156.4454886804878981
  0
ARC
  5
1B3FF
  8
0
 10
4511.3524556658885558
 20
460.3669960827696741
 30
0.0
 40
3.763858750017345
 50
91.612077508822523
 51
94.7408277732253907
  0
ARC
  5
1B400
  8
0
 10
4511.4812939274970631
 20
459.6036827940957892
 30
0.0
 40
4.5079031635796598
 50
92.9847146638242066
 51
95.0382286979684352
  0
ARC
  5
1B401
  8
0
 10
4511.5721116952436205
 20
466.4564622483355265
 30
0.0
 40
2.3388619692594861
 50
271.8243221930425761
 51
275.7818399181684867
  0
LINE
  5
1B402
  8
0
 10
4511.8077308987676588
 20
464.1294987973591901
 30
0.0
 11
4511.8517612183677556
 21
464.1524689509914197
 31
0.0
  0
ARC
  5
1B403
  8
0
 10
4511.8512185774534373
 20
464.1535456626489804
 30
0.0
 40
0.0012057226691455
 50
296.7471807065376197
 51
336.4736343256428199
  0
ARC
  5
1B404
  8
0
 10
4511.5406832959452004
 20
467.9034505846792058
 30
0.0
 40
3.763858750017345
 50
271.6120775088226083
 51
274.7408277732254192
  0
LINE
  5
1B405
  8
0
 10
4511.8517389331673257
 20
464.1666713824914154
 30
0.0
 11
4511.8077308977672146
 21
464.1892835336914231
 31
0.0
  0
ARC
  5
1B406
  8
0
 10
4511.8512411921137755
 20
464.1656018012408254
 30
0.0
 40
0.0011797246317905
 50
23.3771990463883803
 51
65.044583469794631
  0
ARC
  5
1B407
  8
0
 10
4511.8512181151090772
 20
464.1665520327329091
 30
0.0
 40
0.0012064850988583
 50
296.7535204820416084
 51
336.4454886804879266
  0
ARC
  5
1B408
  8
0
 10
4511.5406832959452004
 20
467.9164563340003724
 30
0.0
 40
3.763858750017345
 50
271.6120775088226083
 51
274.7408277732254192
  0
ARC
  5
1B409
  8
0
 10
4511.4118450343366931
 20
468.6797696226742005
 30
0.0
 40
4.5079031635796598
 50
272.9847146638242066
 51
275.0382286979684068
  0
LINE
  5
1B40A
  8
0
 10
4511.0408148856176922
 20
464.2017486376785769
 30
0.0
 11
4511.0408148856176922
 21
464.1887431152786121
 31
0.0
  0
LINE
  5
1B40B
  8
0
 10
4511.5524824672856994
 20
464.2226815765797028
 30
0.0
 11
4511.24656948091706
 21
464.2137128220286968
 31
0.0
  0
LINE
  5
1B40C
  8
0
 10
4511.24656948091706
 20
464.2007070463109244
 30
0.0
 11
4511.6465694809176057
 21
464.2124344899427797
 31
0.0
  0
LINE
  5
1B40D
  8
0
 10
4511.6465694809176057
 20
464.1901463571476256
 30
0.0
 11
4511.24656948091706
 21
464.1767923882459854
 31
0.0
  0
LINE
  5
1B40E
  8
0
 10
4511.0803616953799065
 20
464.2226815765797028
 30
0.0
 11
4511.0413777434678195
 21
464.2023440597786248
 31
0.0
  0
ARC
  5
1B40F
  8
0
 10
4511.0419203843812284
 20
464.2012673481210072
 30
0.0
 40
0.0012057226691455
 50
116.7471807065376055
 51
156.4736343256427062
  0
ARC
  5
1B410
  8
0
 10
4511.3524556658885558
 20
460.451362426090725
 30
0.0
 40
3.763858750017345
 50
91.612077508822523
 51
94.7408277732253907
  0
LINE
  5
1B411
  8
0
 10
4511.0414000286673399
 20
464.1881416282785722
 30
0.0
 11
4511.0854080640683605
 21
464.1655294770786213
 31
0.0
  0
ARC
  5
1B412
  8
0
 10
4511.0418977697199807
 20
464.1892112095291054
 30
0.0
 40
0.0011797246317905
 50
203.3771990463883981
 51
245.0445834697945884
  0
ARC
  5
1B413
  8
0
 10
4511.0419208467255885
 20
464.1882609780370785
 30
0.0
 40
0.0012064850988583
 50
116.7535204820414947
 51
156.4454886804878981
  0
ARC
  5
1B414
  8
0
 10
4511.3524556658885558
 20
460.438356676769672
 30
0.0
 40
3.763858750017345
 50
91.612077508822523
 51
94.7408277732253907
  0
ARC
  5
1B415
  8
0
 10
4511.4812939274970631
 20
459.6750433880957871
 30
0.0
 40
4.5079031635796598
 50
92.9847146638242066
 51
95.0382286979684352
  0
ARC
  5
1B416
  8
0
 10
4511.5721116952436205
 20
466.5278228423355245
 30
0.0
 40
2.3388619692594861
 50
271.8243221930425761
 51
275.7818399181684867
  0
LINE
  5
1B417
  8
0
 10
4511.8077308987676588
 20
464.2008593913591881
 30
0.0
 11
4511.8495607360855502
 21
464.2226815765797028
 31
0.0
  0
ARC
  5
1B418
  8
0
 10
4511.5406832959452004
 20
467.9748111786793174
 30
0.0
 40
3.763858750017345
 50
271.6120775088226083
 51
274.5244630832792723
  0
LINE
  5
1B419
  8
0
 10
4511.0408148856176922
 20
464.0589376781786086
 30
0.0
 11
4511.0408148856176922
 21
464.045932155778587
 31
0.0
  0
LINE
  5
1B41A
  8
0
 10
4511.852324076217883
 20
464.0946195299914052
 30
0.0
 11
4511.852324076217883
 21
464.0816140075913836
 31
0.0
  0
LINE
  5
1B41B
  8
0
 10
4511.24656948091706
 20
464.0932162881226191
 30
0.0
 11
4511.6465694809176057
 21
464.1065640118411011
 31
0.0
  0
LINE
  5
1B41C
  8
0
 10
4511.6465694809176057
 20
464.0826290594123975
 30
0.0
 11
4511.24656948091706
 21
464.0709018625287854
 31
0.0
  0
LINE
  5
1B41D
  8
0
 10
4511.24656948091706
 20
464.057896086811013
 30
0.0
 11
4511.6465694809176057
 21
464.0696235304429251
 31
0.0
  0
LINE
  5
1B41E
  8
0
 10
4511.6465694809176057
 20
464.0473353976474868
 30
0.0
 11
4511.24656948091706
 21
464.0339814287460172
 31
0.0
  0
ARC
  5
1B41F
  8
0
 10
4511.3210272837141019
 20
461.7555394540067937
 30
0.0
 40
2.3388623185554249
 50
91.8243223401721167
 51
95.781839448716795
  0
LINE
  5
1B420
  8
0
 10
4511.0854080640683605
 20
464.0825032544324813
 30
0.0
 11
4511.0413777434678195
 21
464.0595331002785997
 31
0.0
  0
ARC
  5
1B421
  8
0
 10
4511.0419203843812284
 20
464.0584563886209821
 30
0.0
 40
0.0012057226691455
 50
116.7471807065376055
 51
156.4736343256427062
  0
ARC
  5
1B422
  8
0
 10
4511.3524556658885558
 20
460.3085514665908136
 30
0.0
 40
3.763858750017345
 50
91.612077508822523
 51
94.7408277732253907
  0
LINE
  5
1B423
  8
0
 10
4511.0414000286673399
 20
464.0453306687787176
 30
0.0
 11
4511.0854080640683605
 21
464.0227185175787099
 31
0.0
  0
ARC
  5
1B424
  8
0
 10
4511.0418977697199807
 20
464.046400250029194
 30
0.0
 40
0.0011797246317905
 50
203.3771990463883981
 51
245.0445834697945884
  0
ARC
  5
1B425
  8
0
 10
4511.0419208467255885
 20
464.0454500185371103
 30
0.0
 40
0.0012064850988583
 50
116.7535204820414947
 51
156.4454886804878981
  0
ARC
  5
1B426
  8
0
 10
4511.3524556658885558
 20
460.2955457172695901
 30
0.0
 40
3.763858750017345
 50
91.612077508822523
 51
94.7408277732253907
  0
ARC
  5
1B427
  8
0
 10
4511.4812939274970631
 20
459.5322324285958189
 30
0.0
 40
4.5079031635796598
 50
92.9847146638242066
 51
95.0382286979684352
  0
ARC
  5
1B428
  8
0
 10
4511.5721116952436205
 20
466.3850118828356131
 30
0.0
 40
2.3388619692594861
 50
271.8243221930425761
 51
275.7818399181684867
  0
LINE
  5
1B429
  8
0
 10
4511.8077308987676588
 20
464.0580484318592198
 30
0.0
 11
4511.8517612183677556
 21
464.0810185854913925
 31
0.0
  0
ARC
  5
1B42A
  8
0
 10
4511.8512185774534373
 20
464.0820952971490101
 30
0.0
 40
0.0012057226691455
 50
296.7471807065376197
 51
336.4736343256428199
  0
ARC
  5
1B42B
  8
0
 10
4511.5406832959452004
 20
467.8320002191791787
 30
0.0
 40
3.763858750017345
 50
271.6120775088226083
 51
274.7408277732254192
  0
LINE
  5
1B42C
  8
0
 10
4511.8517389331673257
 20
464.0952210169913883
 30
0.0
 11
4511.8077308977672146
 21
464.117833168191396
 31
0.0
  0
ARC
  5
1B42D
  8
0
 10
4511.8512411921137755
 20
464.0941514357407982
 30
0.0
 40
0.0011797246317905
 50
23.3771990463883803
 51
65.044583469794631
  0
ARC
  5
1B42E
  8
0
 10
4511.8512181151090772
 20
464.0951016672328819
 30
0.0
 40
0.0012064850988583
 50
296.7535204820416084
 51
336.4454886804879266
  0
ARC
  5
1B42F
  8
0
 10
4511.5406832959452004
 20
467.8450059685004021
 30
0.0
 40
3.763858750017345
 50
271.6120775088226083
 51
274.7408277732254192
  0
ARC
  5
1B430
  8
0
 10
4511.4118450343366931
 20
468.6083192571741733
 30
0.0
 40
4.5079031635796598
 50
272.9847146638242066
 51
275.0382286979684068
  0
LINE
  5
1B431
  8
0
 10
4511.0408148856176922
 20
463.9874628886785786
 30
0.0
 11
4511.0408148856176922
 21
463.9744573662786138
 31
0.0
  0
LINE
  5
1B432
  8
0
 10
4511.852324076217883
 20
464.0231447404913752
 30
0.0
 11
4511.852324076217883
 21
464.0101392180914104
 31
0.0
  0
LINE
  5
1B433
  8
0
 10
4511.24656948091706
 20
464.0217414986224753
 30
0.0
 11
4511.6465694809176057
 21
464.0350892223411847
 31
0.0
  0
LINE
  5
1B434
  8
0
 10
4511.6465694809176057
 20
464.0111542699123106
 30
0.0
 11
4511.24656948091706
 21
463.9994270730286985
 31
0.0
  0
LINE
  5
1B435
  8
0
 10
4511.24656948091706
 20
463.9864212973109261
 30
0.0
 11
4511.6465694809176057
 21
463.9981487409427814
 31
0.0
  0
LINE
  5
1B436
  8
0
 10
4511.6465694809176057
 20
463.9758606081476273
 30
0.0
 11
4511.24656948091706
 21
463.9625066392459871
 31
0.0
  0
ARC
  5
1B437
  8
0
 10
4511.3210272837141019
 20
461.6840646645068205
 30
0.0
 40
2.3388623185554249
 50
91.8243223401721167
 51
95.781839448716795
  0
LINE
  5
1B438
  8
0
 10
4511.0854080640683605
 20
464.0110284649325081
 30
0.0
 11
4511.0413777434678195
 21
463.9880583107786265
 31
0.0
  0
ARC
  5
1B439
  8
0
 10
4511.0419203843812284
 20
463.9869815991210089
 30
0.0
 40
0.0012057226691455
 50
116.7471807065376055
 51
156.4736343256427062
  0
ARC
  5
1B43A
  8
0
 10
4511.3524556658885558
 20
460.2370766770907267
 30
0.0
 40
3.763858750017345
 50
91.612077508822523
 51
94.7408277732253907
  0
LINE
  5
1B43B
  8
0
 10
4511.0414000286673399
 20
463.9738558792785739
 30
0.0
 11
4511.0854080640683605
 21
463.951243728078623
 31
0.0
  0
ARC
  5
1B43C
  8
0
 10
4511.0418977697199807
 20
463.9749254605292208
 30
0.0
 40
0.0011797246317905
 50
203.3771990463883981
 51
245.0445834697945884
  0
ARC
  5
1B43D
  8
0
 10
4511.0419208467255885
 20
463.9739752290370802
 30
0.0
 40
0.0012064850988583
 50
116.7535204820414947
 51
156.4454886804878981
  0
ARC
  5
1B43E
  8
0
 10
4511.3524556658885558
 20
460.2240709277696737
 30
0.0
 40
3.763858750017345
 50
91.612077508822523
 51
94.7408277732253907
  0
ARC
  5
1B43F
  8
0
 10
4511.4812939274970631
 20
459.4607576390957888
 30
0.0
 40
4.5079031635796598
 50
92.9847146638242066
 51
95.0382286979684352
  0
ARC
  5
1B440
  8
0
 10
4511.5721116952436205
 20
466.3135370933355262
 30
0.0
 40
2.3388619692594861
 50
271.8243221930425761
 51
275.7818399181684867
  0
LINE
  5
1B441
  8
0
 10
4511.8077308987676588
 20
463.9865736423591898
 30
0.0
 11
4511.8517612183677556
 21
464.0095437959914193
 31
0.0
  0
ARC
  5
1B442
  8
0
 10
4511.8512185774534373
 20
464.01062050764898
 30
0.0
 40
0.0012057226691455
 50
296.7471807065376197
 51
336.4736343256428199
  0
ARC
  5
1B443
  8
0
 10
4511.5406832959452004
 20
467.7605254296793191
 30
0.0
 40
3.763858750017345
 50
271.6120775088226083
 51
274.7408277732254192
  0
LINE
  5
1B444
  8
0
 10
4511.8517389331673257
 20
464.0237462274914151
 30
0.0
 11
4511.8077308977672146
 21
464.0463583786914228
 31
0.0
  0
ARC
  5
1B445
  8
0
 10
4511.8512411921137755
 20
464.0226766462408818
 30
0.0
 40
0.0011797246317905
 50
23.3771990463883803
 51
65.044583469794631
  0
ARC
  5
1B446
  8
0
 10
4511.8512181151090772
 20
464.0236268777329087
 30
0.0
 40
0.0012064850988583
 50
296.7535204820416084
 51
336.4454886804879266
  0
ARC
  5
1B447
  8
0
 10
4511.5406832959452004
 20
467.7735311790003152
 30
0.0
 40
3.763858750017345
 50
271.6120775088226083
 51
274.7408277732254192
  0
ARC
  5
1B448
  8
0
 10
4511.4118450343366931
 20
468.5368444676742001
 30
0.0
 40
4.5079031635796598
 50
272.9847146638242066
 51
275.0382286979684068
  0
LINE
  5
1B449
  8
0
 10
4511.852324076217883
 20
463.9516950103915178
 30
0.0
 11
4511.852324076217883
 21
463.9386894879913825
 31
0.0
  0
LINE
  5
1B44A
  8
0
 10
4511.446569481367078
 20
463.9569656303968941
 30
0.0
 11
4511.6465694809176057
 21
463.9636394922412137
 31
0.0
  0
LINE
  5
1B44B
  8
0
 10
4511.6465694809176057
 20
463.9397045398123964
 30
0.0
 11
4511.4889531307680954
 21
463.9350985173796857
 31
0.0
  0
LINE
  5
1B44C
  8
0
 10
4511.4889430183666263
 20
463.9220927368796765
 30
0.0
 11
4511.6465694809176057
 21
463.9266990108429241
 31
0.0
  0
LINE
  5
1B44D
  8
0
 10
4511.6465694809176057
 20
463.9044108780474858
 30
0.0
 11
4511.446569481367078
 21
463.8977338936117008
 31
0.0
  0
ARC
  5
1B44E
  8
0
 10
4511.5721116952436205
 20
466.2420873632354983
 30
0.0
 40
2.3388619692594861
 50
271.8243221930425761
 51
275.7818399181684867
  0
LINE
  5
1B44F
  8
0
 10
4511.8077308987676588
 20
463.9151239122591051
 30
0.0
 11
4511.8517612183677556
 21
463.9380940658913914
 31
0.0
  0
ARC
  5
1B450
  8
0
 10
4511.8512185774534373
 20
463.939170777549009
 30
0.0
 40
0.0012057226691455
 50
296.7471807065376197
 51
336.4736343256428199
  0
ARC
  5
1B451
  8
0
 10
4511.5406832959452004
 20
467.6890756995792913
 30
0.0
 40
3.763858750017345
 50
271.6120775088226083
 51
274.7408277732254192
  0
LINE
  5
1B452
  8
0
 10
4511.8517389331673257
 20
463.9522964973913872
 30
0.0
 11
4511.8077308977672146
 21
463.9749086485913949
 31
0.0
  0
ARC
  5
1B453
  8
0
 10
4511.8512411921137755
 20
463.9512269161409108
 30
0.0
 40
0.0011797246317905
 50
23.3771990463883803
 51
65.044583469794631
  0
ARC
  5
1B454
  8
0
 10
4511.8512181151090772
 20
463.9521771476328809
 30
0.0
 40
0.0012064850988583
 50
296.7535204820416084
 51
336.4454886804879266
  0
ARC
  5
1B455
  8
0
 10
4511.5406832959452004
 20
467.7020814489002873
 30
0.0
 40
3.763858750017345
 50
271.6120775088226083
 51
274.7408277732254192
  0
ARC
  5
1B456
  8
0
 10
4511.4118450343366931
 20
468.4653947375741723
 30
0.0
 40
4.5079031635796598
 50
272.9847146638242066
 51
275.0382286979684068
  0
LINE
  5
1B457
  8
0
 10
4511.446569481367078
 20
463.9569656303968941
 30
0.0
 11
4511.4889531307680954
 21
463.9350985173796857
 31
0.0
  0
LINE
  5
1B458
  8
0
 10
4511.4889531307680954
 20
463.9350985173796857
 30
0.0
 11
4511.4889430183666263
 21
463.9220927368796765
 31
0.0
  0
LINE
  5
1B459
  8
0
 10
4511.4889430183666263
 20
463.9220927368796765
 30
0.0
 11
4511.446569481367078
 21
463.8977338936117008
 31
0.0
  0
LINE
  5
1B45A
  8
0
 10
4511.0854080640683605
 20
463.8880359072796864
 30
0.0
 11
4511.8077308986667049
 21
463.8880359072796864
 31
0.0
  0
LINE
  5
1B45B
  8
0
 10
4511.8077308986667049
 20
463.8880359072796864
 30
0.0
 11
4511.7880458592671857
 21
463.8683508678798262
 31
0.0
  0
LINE
  5
1B45C
  8
0
 10
4511.0854080640683605
 20
463.8880359072796864
 30
0.0
 11
4511.1050931033678353
 21
463.8683508678798262
 31
0.0
  0
LINE
  5
1B45E
  8
0
 10
4511.446569481367078
 20
463.9569656303968941
 30
0.0
 11
4511.446569481367078
 21
463.8977338936117008
 31
0.0
  0
ENDSEC
  0
EOF
