  0
SECTION
  2
HEADER
  9
$ACADVER
  1
AC1009
  9
$INSBASE
 10
331.2003143991350953
 20
1.1222826650592179
 30
0.0
  9
$EXTMIN
 10
320.5824011739591128
 20
-3.0133685274189821
 30
0.0
  9
$EXTMAX
 10
337.1465390965493043
 20
11.6898023501545207
 30
0.0
  9
$LIMMIN
 10
0.0
 20
0.0
  9
$LIMMAX
 10
22.0
 20
17.0
  9
$ORTHOMODE
 70
     0
  9
$REGENMODE
 70
     1
  9
$FILLMODE
 70
     1
  9
$QTEXTMODE
 70
     0
  9
$MIRRTEXT
 70
     0
  9
$DRAGMODE
 70
     2
  9
$LTSCALE
 40
1.2099999999999991
  9
$OSMODE
 70
  4095
  9
$ATTMODE
 70
     1
  9
$TEXTSIZE
 40
0.2
  9
$TRACEWID
 40
0.05
  9
$TEXTSTYLE
  7
STANDARD
  9
$CLAYER
  8
0
  9
$CELTYPE
  6
BYLAYER
  9
$CECOLOR
 62
   256
  9
$DIMSCALE
 40
1.0
  9
$DIMASZ
 40
0.1875
  9
$DIMEXO
 40
0.0625
  9
$DIMDLI
 40
0.38
  9
$DIMRND
 40
0.0
  9
$DIMDLE
 40
0.0
  9
$DIMEXE
 40
0.125
  9
$DIMTP
 40
1.5
  9
$DIMTM
 40
1.5
  9
$DIMTXT
 40
1.5
  9
$DIMCEN
 40
0.09
  9
$DIMTSZ
 40
0.0
  9
$DIMTOL
 70
     0
  9
$DIMLIM
 70
     0
  9
$DIMTIH
 70
     1
  9
$DIMTOH
 70
     1
  9
$DIMSE1
 70
     0
  9
$DIMSE2
 70
     0
  9
$DIMTAD
 70
     0
  9
$DIMZIN
 70
     4
  9
$DIMBLK
  1

  9
$DIMASO
 70
     1
  9
$DIMSHO
 70
     1
  9
$DIMPOST
  1

  9
$DIMAPOST
  1

  9
$DIMALT
 70
     0
  9
$DIMALTD
 70
     2
  9
$DIMALTF
 40
25.3999999999999986
  9
$DIMLFAC
 40
1.0
  9
$DIMTOFL
 70
     0
  9
$DIMTVP
 40
0.0
  9
$DIMTIX
 70
     0
  9
$DIMSOXD
 70
     0
  9
$DIMSAH
 70
     0
  9
$DIMBLK1
  1

  9
$DIMBLK2
  1

  9
$DIMSTYLE
  2
STANDARD
  9
$DIMCLRD
 70
     0
  9
$DIMCLRE
 70
     0
  9
$DIMCLRT
 70
     0
  9
$DIMTFAC
 40
1.0
  9
$DIMGAP
 40
0.09
  9
$LUNITS
 70
     2
  9
$LUPREC
 70
     4
  9
$SKETCHINC
 40
0.1
  9
$FILLETRAD
 40
0.0
  9
$AUNITS
 70
     0
  9
$AUPREC
 70
     0
  9
$MENU
  1
.
  9
$ELEVATION
 40
0.0
  9
$PELEVATION
 40
0.0
  9
$THICKNESS
 40
0.0
  9
$LIMCHECK
 70
     0
  9
$BLIPMODE
 70
     0
  9
$CHAMFERA
 40
0.0
  9
$CHAMFERB
 40
0.0
  9
$SKPOLY
 70
     0
  9
$TDCREATE
 40
2457827.4934837957844138
  9
$TDUPDATE
 40
2459398.8921527778729796
  9
$TDINDWG
 40
0.3583931713
  9
$TDUSRTIMER
 40
0.3583931713
  9
$USRTIMER
 70
     1
  9
$ANGBASE
 50
0.0
  9
$ANGDIR
 70
     0
  9
$PDMODE
 70
     0
  9
$PDSIZE
 40
0.3125
  9
$PLINEWID
 40
0.0
  9
$COORDS
 70
     1
  9
$SPLFRAME
 70
     0
  9
$SPLINETYPE
 70
     6
  9
$SPLINESEGS
 70
     8
  9
$ATTDIA
 70
     1
  9
$ATTREQ
 70
     1
  9
$HANDLING
 70
     1
  9
$HANDSEED
  5
5DCD
  9
$SURFTAB1
 70
     6
  9
$SURFTAB2
 70
     6
  9
$SURFTYPE
 70
     6
  9
$SURFU
 70
     6
  9
$SURFV
 70
     6
  9
$UCSNAME
  2

  9
$UCSORG
 10
0.0
 20
0.0
 30
0.0
  9
$UCSXDIR
 10
1.0
 20
0.0
 30
0.0
  9
$UCSYDIR
 10
0.0
 20
1.0
 30
0.0
  9
$PUCSNAME
  2

  9
$PUCSORG
 10
0.0
 20
0.0
 30
0.0
  9
$PUCSXDIR
 10
1.0
 20
0.0
 30
0.0
  9
$PUCSYDIR
 10
0.0
 20
1.0
 30
0.0
  9
$USERI1
 70
     0
  9
$USERI2
 70
     0
  9
$USERI3
 70
     0
  9
$USERI4
 70
     0
  9
$USERI5
 70
     0
  9
$USERR1
 40
0.0
  9
$USERR2
 40
0.0
  9
$USERR3
 40
0.0
  9
$USERR4
 40
0.0
  9
$USERR5
 40
0.0
  9
$WORLDVIEW
 70
     1
  9
$SHADEDGE
 70
     3
  9
$SHADEDIF
 70
    70
  9
$TILEMODE
 70
     1
  9
$MAXACTVP
 70
    48
  9
$PLIMCHECK
 70
     0
  9
$PEXTMIN
 10
1.0000000000000000E+20
 20
1.0000000000000000E+20
 30
1.0000000000000000E+20
  9
$PEXTMAX
 10
-1.0000000000000000E+20
 20
-1.0000000000000000E+20
 30
-1.0000000000000000E+20
  9
$PLIMMIN
 10
0.0
 20
0.0
  9
$PLIMMAX
 10
12.0
 20
9.0
  9
$UNITMODE
 70
     0
  9
$VISRETAIN
 70
     1
  9
$PLINEGEN
 70
     0
  9
$PSLTSCALE
 70
     1
  0
ENDSEC
  0
SECTION
  2
TABLES
  0
TABLE
  2
VPORT
 70
     1
  0
VPORT
  2
*ACTIVE
 70
     0
 10
0.0
 20
0.0
 11
1.0
 21
1.0
 12
32.1263131223704477
 22
-21.0089584820808817
 13
0.0
 23
0.0
 14
1.0
 24
1.0
 15
0.0
 25
0.0
 16
-0.0000000000000568
 26
0.0
 36
161.3760680385011881
 17
299.3826613025150891
 27
23.0899863857244405
 37
0.0
 40
47.3942554010453279
 41
2.0416666666666661
 42
50.0
 43
0.0
 44
0.0
 50
0.0
 51
0.0
 71
     0
 72
   100
 73
     1
 74
     1
 75
     0
 76
     0
 77
     0
 78
     0
  0
ENDTAB
  0
TABLE
  2
LTYPE
 70
     2
  0
LTYPE
  2
CONTINUOUS
 70
     0
  3
Solid line
 72
    65
 73
     0
 40
0.0
  0
LTYPE
  2
PHANTOM2
 70
     0
  3
___ _ _ ___ _ _ ___ _ _ ___ _ _
 72
    65
 73
     6
 40
1.25
 49
0.625
 49
-0.125
 49
0.125
 49
-0.125
 49
0.125
 49
-0.125
  0
ENDTAB
  0
TABLE
  2
LAYER
 70
     2
  0
LAYER
  2
0
 70
     0
 62
     7
  6
CONTINUOUS
  0
LAYER
  2
DEFPOINTS
 70
     0
 62
     7
  6
CONTINUOUS
  0
ENDTAB
  0
TABLE
  2
STYLE
 70
     1
  0
STYLE
  2
STANDARD
 70
     0
 40
0.0
 41
0.8
 50
0.0
 71
     0
 42
0.2
  3
txt
  4

  0
ENDTAB
  0
TABLE
  2
VIEW
 70
     0
  0
ENDTAB
  0
TABLE
  2
UCS
 70
     0
  0
ENDTAB
  0
TABLE
  2
APPID
 70
     8
  0
APPID
  2
ACAD
 70
     0
  0
APPID
  2
ACAD_MLEADERVER
 70
     0
  0
APPID
  2
ACAD_EXEMPT_FROM_CAD_STANDARDS
 70
     0
  0
APPID
  2
ACAD_NAV_VCDISPLAY
 70
     0
  0
APPID
  2
ACADANNOMONITORALERTICONDI
 70
     0
  0
APPID
  2
ACAD_DSTYLE_DIMJAG
 70
     0
  0
APPID
  2
ACAD_DSTYLE_DIMTALN
 70
     0
  0
APPID
  2
ACDBATTR
 70
     0
  0
ENDTAB
  0
TABLE
  2
DIMSTYLE
 70
     1
  0
DIMSTYLE
  2
STANDARD
 70
     0
  3

  4

  5

  6

  7

 40
1.0
 41
0.1875
 42
0.0625
 43
0.38
 44
0.125
 45
0.0
 46
0.0
 47
1.5
 48
1.5
140
1.5
141
0.09
142
0.0
143
25.3999999999999986
144
1.0
145
0.0
146
1.0
147
0.09
 71
     0
 72
     0
 73
     1
 74
     1
 75
     0
 76
     0
 77
     0
 78
     4
170
     0
171
     2
172
     0
173
     0
174
     0
175
     0
176
     0
177
     0
178
     0
  0
ENDTAB
  0
ENDSEC
  0
SECTION
  2
BLOCKS
  0
BLOCK
  8
0
  2
$MODEL_SPACE
 70
     0
 10
0.0
 20
0.0
 30
0.0
  3
$MODEL_SPACE
  1

  0
ENDBLK
  5
21
  8
0
  0
BLOCK
 67
     1
  8
0
  2
$PAPER_SPACE
 70
     0
 10
0.0
 20
0.0
 30
0.0
  3
$PAPER_SPACE
  1

  0
ENDBLK
  5
1D
 67
     1
  8
0
  0
BLOCK
  8
0
  2
_FILLED
 70
     0
 10
0.0
 20
0.0
 30
0.0
  3
_FILLED
  1

  0
SOLID
  5
4F44
  8
0
  6
BYBLOCK
 62
     0
 10
0.0
 20
0.0
 30
0.0
 11
-1.0
 21
0.1666666667
 31
0.0
 12
-1.0
 22
-0.1666666667
 32
0.0
 13
-1.0
 23
-0.1666666667
 33
0.0
  0
ENDBLK
  5
4F45
  8
0
  6
BYBLOCK
 62
     0
  0
ENDSEC
  0
SECTION
  2
ENTITIES
  0
ATTDEF
  5
4EF9
  8
DEFPOINTS
 10
331.201679214753085
 20
1.125885265412371
 30
0.0
 40
0.001
  1
K-72298BR-4ND
  3

  2
MODELNUMBER
 70
     0
1001
ACDBATTR
1070
     0
1070
     1
  0
ATTDEF
  5
4EFA
  8
DEFPOINTS
 10
331.201679214753085
 20
1.1242185987456921
 30
0.0
 40
0.001
  1
ALEO
  3

  2
TRADENAME
 70
     0
1001
ACDBATTR
1070
     0
1070
     1
  0
ATTDEF
  5
4EFB
  8
DEFPOINTS
 10
331.201679214753085
 20
1.122551932079012
 30
0.0
 40
0.001
  1
BATHROOM SINK FAUCET
  3

  2
PRODUCT
 70
     0
1001
ACDBATTR
1070
     0
1070
     1
  0
LINE
  5
5C21
  8
0
 10
330.0919018255850119
 20
8.1155391262592182
 30
0.0
 11
330.0919018255850119
 21
1.1222826650592179
 31
0.0
  0
LINE
  5
5C22
  8
0
 10
330.0919018255850119
 20
1.1222826650592179
 30
0.0
 11
332.3087269726851218
 21
1.1222826650592179
 31
0.0
  0
LINE
  5
5C23
  8
0
 10
332.3087269726851218
 20
1.1222826650592179
 30
0.0
 11
332.3087269726851218
 21
10.2167708540592095
 31
0.0
  0
LINE
  5
5C24
  8
0
 10
332.2772309097209131
 20
10.24826691705921
 30
0.0
 11
324.2746450408827172
 21
10.24826691705921
 31
0.0
  0
LINE
  5
5C25
  8
0
 10
332.2628241162701102
 20
11.6898023501545207
 30
0.0
 11
327.7310180013460013
 21
11.6898023501545207
 31
0.0
  0
LINE
  5
5C26
  8
0
 10
330.3184009953851046
 20
10.3512196729592194
 30
0.0
 11
331.1410068039850785
 21
10.3512196729592105
 31
0.0
  0
LINE
  5
5C27
  8
0
 10
332.282508433285102
 20
11.6701173107592204
 30
0.0
 11
332.2824907744850975
 21
10.8224524379592193
 31
0.0
  0
LINE
  5
5C28
  8
0
 10
332.2824907744850975
 20
10.8224524379592193
 30
0.0
 11
331.390584517685113
 21
10.4065497199592194
 31
0.0
  0
ARC
  5
5C29
  8
0
 10
331.1410067783691034
 20
10.9417709696051801
 30
0.0
 40
0.5905512966459631
 50
270.0000024852791967
 51
294.9999975148211888
  0
ARC
  5
5C2A
  8
0
 10
330.7260498114731035
 20
10.2496369239576595
 30
0.0
 40
0.314960633988072
 50
168.7086843126382973
 51
180.0000057539089084
  0
ARC
  5
5C2B
  8
0
 10
331.3244749069481827
 20
10.13015670365359
 30
0.0
 40
0.9251967505331661
 50
166.1762391514141086
 51
168.7088416873461085
  0
LINE
  5
5C2C
  8
0
 10
330.4110891774851098
 20
10.2496368923278496
 30
0.0
 11
330.4110891774851098
 21
10.2482669170565792
 31
0.0
  0
LINE
  5
5C2D
  8
0
 10
332.2344605294850908
 20
10.2496369241592191
 30
0.0
 11
332.2344605294850908
 21
10.24826691705921
 31
0.0
  0
LINE
  5
5C2E
  8
0
 10
332.2321511484094003
 20
10.2876369957868903
 30
0.0
 11
332.2355598198851112
 21
10.28763699585922
 31
0.0
  0
ARC
  5
5C2F
  8
0
 10
331.9203724841855205
 20
10.2496190388592403
 30
0.0
 40
0.314088045799609
 50
0.0032626306961107
 51
6.95226368750492
  0
ARC
  5
5C30
  8
0
 10
331.3310806072792047
 20
10.1344520067646204
 30
0.0
 40
0.9173594040978127
 50
9.6125494459032303
 51
38.969588222883381
  0
ARC
  5
5C31
  8
0
 10
332.277229175845207
 20
10.2167691202192596
 30
0.0
 40
0.0314977968876818
 50
0.0031539257281634
 51
89.9968460092412386
  0
ARC
  5
5C32
  8
0
 10
362.2813904735987194
 20
10.1950280525146706
 30
0.0
 40
31.9633711020395097
 50
179.1820162779769134
 51
179.7200183849780046
  0
ARC
  5
5C33
  8
0
 10
329.3787354321116254
 20
10.6503763137945509
 30
0.0
 40
0.9425417412434558
 50
0.0584542212522864
 51
4.2910196079014744
  0
ARC
  5
5C34
  8
0
 10
329.6870293153967282
 20
10.7377505724945692
 30
0.0
 40
0.6318305429862222
 50
358.4717335521025916
 51
23.4330268650010716
  0
ARC
  5
5C35
  8
0
 10
329.3343179195874768
 20
45.2807415129272783
 30
0.0
 40
33.8394612093699934
 50
268.3784943770294831
 51
269.0555402889070251
  0
ARC
  5
5C36
  8
0
 10
328.2979604333639827
 20
-24.2818661237411106
 30
0.0
 40
35.7309486619654777
 50
88.6136425363632725
 51
89.2325653154248641
  0
ARC
  5
5C37
  8
0
 10
328.9004138040912153
 20
1.069423188403555
 30
0.0
 40
10.3725102778529692
 50
86.8541690148794316
 51
88.5524626938925934
  0
ARC
  5
5C38
  8
0
 10
329.7729873081099754
 20
10.8587391977468393
 30
0.0
 40
0.5106227320403405
 50
14.7282048362660998
 51
47.129291693607243
  0
ARC
  5
5C39
  8
0
 10
329.385559775152899
 20
9.1892889706683984
 30
0.0
 40
2.2385933285513921
 50
80.6104302394451082
 51
87.8477159002121937
  0
ARC
  5
5C3A
  8
0
 10
329.6029465922138115
 20
10.5376668259160606
 30
0.0
 40
0.8728327203882821
 50
64.9697587288633258
 51
80.248817601210078
  0
ARC
  5
5C3B
  8
0
 10
329.7035688313055175
 20
10.7493696808065593
 30
0.0
 40
0.6384411094192851
 50
49.2416962914821497
 51
65.1134837061419489
  0
ARC
  5
5C3C
  8
0
 10
328.1415130543147143
 20
12.2353494485388605
 30
0.0
 40
0.7596564217384858
 50
248.5644899297477934
 51
259.7637680563001936
  0
ARC
  5
5C3D
  8
0
 10
328.3002701452562064
 20
13.0928753536568792
 30
0.0
 40
1.631750235875594
 50
259.6288704946886128
 51
265.0793484850094046
  0
ARC
  5
5C3E
  8
0
 10
328.4709347928691159
 20
15.0205434670310503
 30
0.0
 40
3.5669558383310052
 50
265.0040466827651926
 51
268.4872338668749876
  0
ARC
  5
5C3F
  8
0
 10
327.969151719000422
 20
11.8098937717210397
 30
0.0
 40
0.300680455092497
 50
220.291469222066894
 51
249.5086580637174904
  0
ARC
  5
5C40
  8
0
 10
327.9062962259255869
 20
11.7420661978101801
 30
0.0
 40
0.2091681938475239
 50
202.3501706310692896
 51
217.252434893437794
  0
ARC
  5
5C41
  8
0
 10
327.7310490396463933
 20
11.6700873061120802
 30
0.0
 40
0.0197150684749352
 50
90.0902033055244829
 51
202.5505457687951036
  0
ARC
  5
5C42
  8
0
 10
329.342170482303402
 20
46.9718648075572673
 30
0.0
 40
35.5186476832901974
 50
268.442466464637107
 51
269.4270163948706909
  0
ARC
  5
5C43
  8
0
 10
327.465920105872101
 20
10.5284088266124698
 30
0.0
 40
2.9018219930541811
 50
356.4992649333721033
 51
8.1979735466027215
  0
ARC
  5
5C44
  8
0
 10
328.5600698436231824
 20
-15.8407423907214895
 30
0.0
 40
27.2990737688162106
 50
88.2286135643730915
 51
89.1039696282264089
  0
ARC
  5
5C45
  8
0
 10
329.3057441074298026
 20
7.2976719933630392
 30
0.0
 40
4.148775724196538
 50
84.6679238552435294
 51
88.6439269800647622
  0
ARC
  5
5C46
  8
0
 10
329.5924879828987173
 20
10.1831453351350696
 30
0.0
 40
1.2492624270698021
 50
70.2860508188307449
 51
85.4642246852468048
  0
ARC
  5
5C47
  8
0
 10
329.829582341754417
 20
10.8813715884085198
 30
0.0
 40
0.5121310430212392
 50
6.8204030857742168
 51
68.9063708875335976
  0
ARC
  5
5C48
  8
0
 10
328.2447190328978195
 20
5.012399049880166
 30
0.0
 40
6.4552919265352076
 50
88.8281516732010061
 51
90.7492614360142937
  0
ARC
  5
5C49
  8
0
 10
332.2628233445723822
 20
11.6701172614569408
 30
0.0
 40
0.0196850887127087
 50
0.0001435001070398
 51
89.9977538826283308
  0
ARC
  5
5C4A
  8
0
 10
331.2911644021431243
 20
44.6969948797230074
 30
0.0
 40
33.0417524496288593
 50
269.925894353801425
 51
271.7192899836896913
  0
ARC
  5
5C4B
  8
0
 10
318.9757215137568096
 20
-6513.2426305312037584
 30
0.0
 40
6524.9094424805180097
 50
89.8922322613951366
 51
89.9174487727350709
  0
ARC
  5
5C4C
  8
0
 10
328.2364282753093789
 20
-17.4150317362795697
 30
0.0
 40
29.075357300521901
 50
89.7234879171626147
 51
90.6285297895398259
  0
ARC
  5
5C4D
  8
0
 10
327.7584000550496057
 20
11.8835670647900802
 30
0.0
 40
0.2256866803029158
 50
258.3538406269311167
 51
270.6429069122266924
  0
ARC
  5
5C4E
  8
0
 10
327.8269034099116084
 20
14.4842145660157104
 30
0.0
 40
2.827089805672113
 50
268.6628639260085833
 51
271.836012771347896
  0
ARC
  5
5C4F
  8
0
 10
329.0477757282623088
 20
7.8692009925802351
 30
0.0
 40
1.642172461332875
 50
70.0142258889664362
 51
89.0026573502768343
  0
ARC
  5
5C50
  8
0
 10
329.2953672777043721
 20
8.7186720089962755
 30
0.0
 40
0.7614212923570266
 50
26.7301540064276111
 51
65.6714665746647199
  0
ARC
  5
5C51
  8
0
 10
328.9206075345853719
 20
8.562643070894417
 30
0.0
 40
1.1666780454287009
 50
358.5027117279244067
 51
25.2955948857693116
  0
ARC
  5
5C52
  8
0
 10
318.3898950549781262
 20
8.1830288324500025
 30
0.0
 40
11.7022013877634592
 50
359.6695581768121883
 51
1.7096448119022889
  0
ARC
  5
5C53
  8
0
 10
326.6983789887709122
 20
-46.3572084917536316
 30
0.0
 40
55.9189184565608173
 50
87.5627328573892356
 51
90.4861792803439045
  0
ARC
  5
5C54
  8
0
 10
326.3340491170271207
 20
2.1732655640510812
 30
0.0
 40
7.3872526766841302
 50
90.8544398722633844
 51
93.5440672470689663
  0
ARC
  5
5C55
  8
0
 10
326.0311806071694036
 20
7.0412877188388414
 30
0.0
 40
2.5098185626705858
 50
93.5128688883814334
 51
97.9138916088074041
  0
ARC
  5
5C56
  8
0
 10
325.7219202312796824
 20
9.2664049058063043
 30
0.0
 40
0.263312730847665
 50
97.9246773480132191
 51
106.9766408062684064
  0
ARC
  5
5C57
  8
0
 10
324.5216699904993902
 20
13.1700745189889492
 30
0.0
 40
3.8207099997743641
 50
285.0392080816366729
 51
287.0988217813484198
  0
LINE
  5
5C58
  8
0
 10
324.5389515375911742
 20
9.7231043982405971
 30
0.0
 11
325.5130677343851175
 21
9.4802296149592067
 31
0.0
  0
ARC
  5
5C59
  8
0
 10
325.2226853602155074
 20
10.4703415475978403
 30
0.0
 40
1.0128451498526729
 50
194.9673429685651058
 51
227.5409927768513967
  0
ARC
  5
5C5A
  8
0
 10
324.2746333645467871
 20
10.2167928671237895
 30
0.0
 40
0.0314740521012821
 50
89.978744243641458
 51
194.7950200536654108
  0
LINE
  5
5C5B
  8
0
 10
324.6363635807015271
 20
9.6988165107249102
 30
0.0
 11
324.6277915450850742
 21
9.6644359534592184
 31
0.0
  0
LINE
  5
5C5C
  8
0
 10
324.6277915450850742
 20
9.6644359534592184
 30
0.0
 11
324.6561120095851152
 21
9.6370871987592182
 31
0.0
  0
LINE
  5
5C5D
  8
0
 10
324.6561120095851152
 20
9.6370871987592182
 30
0.0
 11
325.3692392268850995
 21
9.4592846138592162
 31
0.0
  0
LINE
  5
5C5E
  8
0
 10
325.3692392268850995
 20
9.4592846138592162
 30
0.0
 11
325.407084175585112
 21
9.4701364782592172
 31
0.0
  0
LINE
  5
5C5F
  8
0
 10
325.407084175585112
 20
9.4701364782592172
 30
0.0
 11
325.4156562192069941
 21
9.5045170672322037
 31
0.0
  0
LINE
  5
5C60
  8
0
 10
324.6277915450850742
 20
9.6644359534592184
 30
0.0
 11
325.4070841753915033
 21
9.4701364774828996
 31
0.0
  0
LINE
  5
5C61
  8
0
 10
324.7070706650840748
 20
9.6243817789533814
 30
0.0
 11
324.6913850473850971
 21
9.5253466864592191
 31
0.0
  0
LINE
  5
5C62
  8
0
 10
325.3182805714851042
 20
9.4719900336592175
 30
0.0
 11
325.285635990118692
 21
9.3771832856960255
 31
0.0
  0
LINE
  5
5C63
  8
0
 10
325.2388863653160911
 20
9.3518003104534593
 30
0.0
 11
324.7207459311197226
 21
9.4809872300525697
 31
0.0
  0
ARC
  5
5C64
  8
0
 10
324.7302704151888975
 20
9.5191878491600441
 30
0.0
 40
0.0393700787036336
 50
171.0000000020579023
 51
255.9999999491246001
  0
ARC
  5
5C65
  8
0
 10
325.2484108492308792
 20
9.3900009296897551
 30
0.0
 40
0.0393700788882948
 50
256.000000258636021
 51
340.9999998305333975
  0
ARC
  5
5C66
  8
0
 10
325.0955703782703949
 20
9.8806586290488152
 30
0.0
 40
0.5163490192109734
 50
235.9334347277211066
 51
276.0665652747637751
  0
ARC
  5
5C67
  8
0
 10
325.1603316051724732
 20
9.4961335914675331
 30
0.0
 40
0.1278074305099574
 50
266.1557959316320989
 51
269.7868453618572744
  0
ARC
  5
5C68
  8
0
 10
325.0958377942168909
 20
9.8785951524271418
 30
0.0
 40
0.5142683039750761
 50
277.1509764887990173
 51
278.0834418606954159
  0
LINE
  5
5C69
  8
0
 10
325.1501401105967943
 20
9.367201275506094
 30
0.0
 11
325.1504569600515993
 21
9.3684720892093907
 31
0.0
  0
LINE
  5
5C6A
  8
0
 10
325.1504569600515993
 20
9.3684720892093907
 30
0.0
 11
325.1517629232387208
 21
9.3686137225173098
 31
0.0
  0
LINE
  5
5C6B
  8
0
 10
325.0002271440603181
 20
9.4071479980913466
 30
0.0
 11
324.9969753030712241
 21
9.3941055759635468
 31
0.0
  0
LINE
  5
5C6C
  8
0
 10
324.9969753030712241
 20
9.3941055759635468
 30
0.0
 11
324.9873749082763084
 21
9.4025791406443702
 31
0.0
  0
LINE
  5
5C6D
  8
0
 10
324.9873749082763084
 20
9.4025791406443702
 30
0.0
 11
325.0002271441537118
 21
9.4071479981283446
 31
0.0
  0
LINE
  5
5C6E
  8
0
 10
325.0002271441537118
 20
9.4071479981283446
 30
0.0
 11
325.0226636251850891
 21
9.4031785192592174
 31
0.0
  0
LINE
  5
5C6F
  8
0
 10
325.0226636251850891
 20
9.4031785192592174
 30
0.0
 11
325.0322372910677018
 21
9.3945977511695489
 31
0.0
  0
LINE
  5
5C70
  8
0
 10
325.0322372910677018
 20
9.3945977511695489
 30
0.0
 11
325.0194014162020153
 21
9.3900945134272362
 31
0.0
  0
LINE
  5
5C71
  8
0
 10
325.0194014162020153
 20
9.3900945134272362
 30
0.0
 11
324.9969753030375728
 21
9.3941055758288385
 31
0.0
  0
LINE
  5
5C72
  8
0
 10
325.0226636249415151
 20
9.4031785193023154
 30
0.0
 11
325.0194014161804716
 21
9.3900945134305758
 31
0.0
  0
LINE
  5
5C73
  8
0
 10
324.9951996430850727
 20
9.3869837930592173
 30
0.0
 11
324.9830464791243116
 21
9.3852187590819014
 31
0.0
  0
LINE
  5
5C74
  8
0
 10
324.9830464791243116
 20
9.3852187590819014
 30
0.0
 11
324.9933175929382969
 21
9.3794353021037811
 31
0.0
  0
LINE
  5
5C75
  8
0
 10
324.9933175929382969
 20
9.3794353021037811
 30
0.0
 11
324.9951996431794896
 21
9.3869837930939966
 31
0.0
  0
LINE
  5
5C76
  8
0
 10
324.9951996431794896
 20
9.3869837930939966
 30
0.0
 11
325.0176203296563244
 21
9.3829509658198695
 31
0.0
  0
LINE
  5
5C77
  8
0
 10
325.0176203296563244
 20
9.3829509658198695
 30
0.0
 11
325.0157326987480815
 21
9.3753800914988723
 31
0.0
  0
LINE
  5
5C78
  8
0
 10
325.0157326987480815
 20
9.3753800914988723
 30
0.0
 11
325.0278822092524251
 21
9.377130472570526
 31
0.0
  0
LINE
  5
5C79
  8
0
 10
325.0278822092524251
 20
9.377130472570526
 30
0.0
 11
325.0176203296563244
 21
9.3829509658198713
 31
0.0
  0
LINE
  5
5C7A
  8
0
 10
324.993317592985079
 20
9.3794353020592176
 30
0.0
 11
325.0157326986663975
 21
9.3753800914947654
 31
0.0
  0
LINE
  5
5C7B
  8
0
 10
325.030463069162181
 20
9.3903292197672954
 30
0.0
 11
325.0177786052308875
 21
9.3864332582902428
 31
0.0
  0
LINE
  5
5C7C
  8
0
 10
325.0177786052308875
 20
9.3864332582902428
 30
0.0
 11
325.0279012787767101
 21
9.3800544398256385
 31
0.0
  0
LINE
  5
5C7D
  8
0
 10
325.0279012787767101
 20
9.3800544398256385
 30
0.0
 11
325.0304630691621242
 21
9.3903292197672883
 31
0.0
  0
LINE
  5
5C7E
  8
0
 10
325.0304630691621242
 20
9.3903292197672883
 30
0.0
 11
325.0532680626851061
 21
9.3878377636592152
 31
0.0
  0
LINE
  5
5C7F
  8
0
 10
325.0532680626851061
 20
9.3878377636592152
 30
0.0
 11
325.0506903607850973
 21
9.3774991660592182
 31
0.0
  0
LINE
  5
5C80
  8
0
 10
325.0506903607850973
 20
9.3774991660592182
 30
0.0
 11
325.0633724460990948
 21
9.381385587365294
 31
0.0
  0
LINE
  5
5C81
  8
0
 10
325.0633724460990948
 20
9.381385587365294
 30
0.0
 11
325.0532680620385122
 21
9.3878377637298627
 31
0.0
  0
LINE
  5
5C82
  8
0
 10
325.0506903608201128
 20
9.3774991659903062
 30
0.0
 11
325.0279012788327009
 21
9.3800544398760035
 31
0.0
  0
LINE
  5
5C83
  8
0
 10
325.06178320656511
 20
9.3959570873044882
 30
0.0
 11
325.0536665368728109
 21
9.3922834403265103
 31
0.0
  0
LINE
  5
5C84
  8
0
 10
325.0536665368728109
 20
9.3922834403265103
 30
0.0
 11
325.0636248286581917
 21
9.3852453226374948
 31
0.0
  0
LINE
  5
5C85
  8
0
 10
325.0636248286581917
 20
9.3852453226374948
 30
0.0
 11
325.0868137355637941
 21
9.3842936588738741
 31
0.0
  0
LINE
  5
5C86
  8
0
 10
325.0868137355637941
 20
9.3842936588738741
 30
0.0
 11
325.0945482998885723
 21
9.3877878320264312
 31
0.0
  0
LINE
  5
5C87
  8
0
 10
325.0868137310031898
 20
9.3842936590610382
 30
0.0
 11
325.0880866177050734
 21
9.3893989103395974
 31
0.0
  0
LINE
  5
5C88
  8
0
 10
325.0636248287086119
 20
9.3852453226342476
 30
0.0
 11
325.0660314799910111
 21
9.3948978737075066
 31
0.0
  0
LINE
  5
5C89
  8
0
 10
325.0618222130535173
 20
9.3780154261188784
 30
0.0
 11
325.0599124559672077
 21
9.3703558090084016
 31
0.0
  0
LINE
  5
5C8A
  8
0
 10
325.0599124559672077
 20
9.3703558090084016
 30
0.0
 11
325.0492859641987025
 21
9.3747139229698533
 31
0.0
  0
LINE
  5
5C8B
  8
0
 10
325.0492859641987025
 20
9.3747139229698533
 30
0.0
 11
325.0618222129850778
 21
9.3780154260592177
 31
0.0
  0
LINE
  5
5C8C
  8
0
 10
325.0618222129850778
 20
9.3780154260592177
 30
0.0
 11
325.0849939221851059
 21
9.3769947860592175
 31
0.0
  0
LINE
  5
5C8D
  8
0
 10
325.0849939221851059
 20
9.3769947860592175
 30
0.0
 11
325.0956115846391867
 21
9.3726012593289134
 31
0.0
  0
LINE
  5
5C8E
  8
0
 10
325.0956115846391867
 20
9.3726012593289134
 30
0.0
 11
325.0830665079824939
 21
9.3692643498496651
 31
0.0
  0
LINE
  5
5C8F
  8
0
 10
325.0830665079824939
 20
9.3692643498496651
 30
0.0
 11
325.0599124560129098
 21
9.3703558089978731
 31
0.0
  0
LINE
  5
5C90
  8
0
 10
325.0849939196792775
 20
9.3769947861695897
 30
0.0
 11
325.0830665077675121
 21
9.3692643498597974
 31
0.0
  0
LINE
  5
5C91
  8
0
 10
325.0265832679563118
 20
9.3747681871572688
 30
0.0
 11
325.0218187651573203
 21
9.3741736836226224
 31
0.0
  0
LINE
  5
5C92
  8
0
 10
325.0218187651573203
 20
9.3741736836226224
 30
0.0
 11
325.0535759810446166
 21
9.3705578832600676
 31
0.0
  0
LINE
  5
5C93
  8
0
 10
325.0535759810446166
 20
9.3705578832600676
 30
0.0
 11
325.0493644247218867
 21
9.3721811267649162
 31
0.0
  0
LINE
  5
5C94
  8
0
 10
325.0493644247218867
 20
9.3721811267649162
 30
0.0
 11
325.0265832679563118
 21
9.3747681871572688
 31
0.0
  0
LINE
  5
5C95
  8
0
 10
325.101475158469384
 20
9.3860607722111826
 30
0.0
 11
325.0982504868784986
 21
9.3860328025331192
 31
0.0
  0
LINE
  5
5C96
  8
0
 10
325.0982504868784986
 20
9.3860328025331192
 30
0.0
 11
325.0851472003417939
 21
9.3804570353028218
 31
0.0
  0
LINE
  5
5C97
  8
0
 10
325.0851472003417939
 20
9.3804570353028218
 30
0.0
 11
325.0956247548153897
 21
9.3755015660858607
 31
0.0
  0
LINE
  5
5C98
  8
0
 10
325.0956247548153897
 20
9.3755015660858607
 30
0.0
 11
325.1191886739850929
 21
9.3760539944592178
 31
0.0
  0
LINE
  5
5C99
  8
0
 10
325.1191886739850929
 20
9.3760539944592178
 30
0.0
 11
325.1275956383431094
 21
9.3795482051335561
 31
0.0
  0
LINE
  5
5C9A
  8
0
 10
325.1191886741067947
 20
9.3760539944620707
 30
0.0
 11
325.1205009178797241
 21
9.3813171175376073
 31
0.0
  0
LINE
  5
5C9B
  8
0
 10
325.0956247547379121
 20
9.3755015660858518
 30
0.0
 11
325.0982504869638774
 21
9.3860328025335811
 31
0.0
  0
LINE
  5
5C9C
  8
0
 10
325.0942749242580021
 20
9.3700876915114755
 30
0.0
 11
325.0893550268162926
 21
9.368869932730437
 31
0.0
  0
LINE
  5
5C9D
  8
0
 10
325.0893550268162926
 20
9.368869932730437
 30
0.0
 11
325.1221768923850846
 21
9.3695242106592183
 31
0.0
  0
LINE
  5
5C9E
  8
0
 10
325.1221768923850846
 20
9.3695242106592183
 30
0.0
 11
325.1178216460326098
 21
9.3705711448538551
 31
0.0
  0
LINE
  5
5C9F
  8
0
 10
325.1178216460326098
 20
9.3705711448538551
 30
0.0
 11
325.0942749242367995
 21
9.3700876914045281
 31
0.0
  0
LINE
  5
5CA0
  8
0
 10
325.1307045283389243
 20
9.3781104029247384
 30
0.0
 11
325.1177384928540732
 21
9.3730851198171852
 31
0.0
  0
LINE
  5
5CA1
  8
0
 10
325.1177384928540732
 20
9.3730851198171852
 30
0.0
 11
325.128729082157804
 21
9.3701873213497784
 31
0.0
  0
LINE
  5
5CA2
  8
0
 10
325.128729082157804
 20
9.3701873213497784
 30
0.0
 11
325.1307045282850936
 21
9.3781104028592175
 31
0.0
  0
LINE
  5
5CA3
  8
0
 10
325.1307045282850936
 20
9.3781104028592175
 30
0.0
 11
325.1327669974011769
 21
9.3782588405081331
 31
0.0
  0
LINE
  5
5CA4
  8
0
 10
325.128729082157804
 20
9.3701873213497784
 30
0.0
 11
325.1526844827944842
 21
9.3723098957971231
 31
0.0
  0
LINE
  5
5CA5
  8
0
 10
325.1526844827944842
 20
9.3723098957971231
 30
0.0
 11
325.1529152181655036
 21
9.3732353247807438
 31
0.0
  0
LINE
  5
5CA6
  8
0
 10
325.1573246713377898
 20
9.3721359247134792
 30
0.0
 11
325.1514454737065876
 21
9.3701879859665986
 31
0.0
  0
LINE
  5
5CA7
  8
0
 10
325.1632743805718064
 20
9.3706524955058867
 30
0.0
 11
325.1629575059030799
 21
9.3693815803746752
 31
0.0
  0
LINE
  5
5CA8
  8
0
 10
325.1629575059030799
 20
9.3693815803746752
 30
0.0
 11
325.1664672452942
 21
9.3698564250089955
 31
0.0
  0
ARC
  5
5CA9
  8
0
 10
325.1659336867346042
 20
9.4944433029346929
 30
0.0
 40
0.1250971307088444
 50
263.3493238155422205
 51
268.6367496691294718
  0
LINE
  5
5CAA
  8
0
 10
325.027377806552181
 20
9.4045353169733161
 30
0.0
 11
325.0327410747032104
 21
9.3994658012320293
 31
0.0
  0
LINE
  5
5CAB
  8
0
 10
325.0327410747032104
 20
9.3994658012320293
 30
0.0
 11
325.0336171797815723
 21
9.4029796664453045
 31
0.0
  0
LINE
  5
5CAC
  8
0
 10
325.0327410747694898
 20
9.3994658011812007
 30
0.0
 11
325.0555608100851259
 21
9.3970334710592187
 31
0.0
  0
LINE
  5
5CAD
  8
0
 10
325.0555608100851259
 20
9.3970334710592187
 30
0.0
 11
325.0556723174884723
 21
9.3974807030729508
 31
0.0
  0
LINE
  5
5CAE
  8
0
 10
325.0555608101254279
 20
9.3970334710784318
 30
0.0
 11
325.0562156754879197
 21
9.3973452287081791
 31
0.0
  0
ARC
  5
5CAF
  8
0
 10
324.8578660382672183
 20
9.5715467269437191
 30
0.0
 40
0.1278074305099574
 50
242.2131547270074066
 51
245.8442041572311894
  0
ARC
  5
5CB0
  8
0
 10
325.0943655196571171
 20
9.8789622317015464
 30
0.0
 40
0.5142683039750761
 50
233.9165582281684976
 51
234.84902360006501
  0
LINE
  5
5CB1
  8
0
 10
324.8063345381863769
 20
9.4529216319583451
 30
0.0
 11
324.8066513876162276
 21
9.4541924456678714
 31
0.0
  0
LINE
  5
5CB2
  8
0
 10
324.8066513876162276
 20
9.4541924456678714
 30
0.0
 11
324.8055647833730859
 21
9.4549306130328361
 31
0.0
  0
LINE
  5
5CB3
  8
0
 10
324.9574536814628232
 20
9.4178126200602357
 30
0.0
 11
324.9542018403578822
 21
9.4047701979613212
 31
0.0
  0
LINE
  5
5CB4
  8
0
 10
324.9542018403578822
 20
9.4047701979613212
 30
0.0
 11
324.966656583480983
 21
9.4077447991707785
 31
0.0
  0
LINE
  5
5CB5
  8
0
 10
324.966656583480983
 20
9.4077447991707785
 30
0.0
 11
324.9574536813976806
 21
9.4178126201367327
 31
0.0
  0
LINE
  5
5CB6
  8
0
 10
324.9574536813976806
 20
9.4178126201367327
 30
0.0
 11
324.9357798870198053
 21
9.4248410681039516
 31
0.0
  0
LINE
  5
5CB7
  8
0
 10
324.9357798870198053
 20
9.4248410681039516
 30
0.0
 11
324.9232984151738037
 21
9.4217592634384317
 31
0.0
  0
LINE
  5
5CB8
  8
0
 10
324.9232984151738037
 20
9.4217592634384317
 30
0.0
 11
324.9325176779436219
 21
9.4117570622951892
 31
0.0
  0
LINE
  5
5CB9
  8
0
 10
324.9325176779436219
 20
9.4117570622951892
 30
0.0
 11
324.9542018403242878
 21
9.4047701978266147
 31
0.0
  0
LINE
  5
5CBA
  8
0
 10
324.9357798872550802
 20
9.4248410680276464
 30
0.0
 11
324.9325176779641993
 21
9.4117570622880482
 31
0.0
  0
LINE
  5
5CBB
  8
0
 10
324.9524261805295282
 20
9.3976484150176596
 30
0.0
 11
324.96232815414578
 21
9.3903844176539657
 31
0.0
  0
LINE
  5
5CBC
  8
0
 10
324.96232815414578
 20
9.3903844176539657
 30
0.0
 11
324.9505441303422799
 21
9.3900999240722953
 31
0.0
  0
LINE
  5
5CBD
  8
0
 10
324.9505441303422799
 20
9.3900999240722953
 30
0.0
 11
324.9524261804625098
 21
9.3976484150926964
 31
0.0
  0
LINE
  5
5CBE
  8
0
 10
324.9524261804625098
 20
9.3976484150926964
 30
0.0
 11
324.9307365915739183
 21
9.4046135146439305
 31
0.0
  0
LINE
  5
5CBF
  8
0
 10
324.9307365915739183
 20
9.4046135146439305
 30
0.0
 11
324.9288489605530117
 21
9.3970426403510459
 31
0.0
  0
LINE
  5
5CC0
  8
0
 10
324.9288489605530117
 20
9.3970426403510459
 30
0.0
 11
324.9189433336247816
 21
9.4042919847730104
 31
0.0
  0
LINE
  5
5CC1
  8
0
 10
324.9189433336247816
 20
9.4042919847730104
 30
0.0
 11
324.9307365915739183
 21
9.4046135146439251
 31
0.0
  0
LINE
  5
5CC2
  8
0
 10
324.9505441302802069
 20
9.390099924054887
 30
0.0
 11
324.928848960623327
 21
9.3970426403090244
 31
0.0
  0
LINE
  5
5CC3
  8
0
 10
324.9228610060333153
 20
9.4171574271803813
 30
0.0
 11
324.9322316798194947
 21
9.4077625022819689
 31
0.0
  0
LINE
  5
5CC4
  8
0
 10
324.9322316798194947
 20
9.4077625022819689
 30
0.0
 11
324.9202992157070184
 21
9.4068826472239806
 31
0.0
  0
LINE
  5
5CC5
  8
0
 10
324.9202992157070184
 20
9.4068826472239806
 30
0.0
 11
324.9228610060333722
 21
9.4171574271803671
 31
0.0
  0
LINE
  5
5CC6
  8
0
 10
324.9228610060333722
 20
9.4171574271803671
 30
0.0
 11
324.9015557240912244
 21
9.4256638979225258
 31
0.0
  0
LINE
  5
5CC7
  8
0
 10
324.9015557240912244
 20
9.4256638979225258
 30
0.0
 11
324.8989780222227068
 21
9.4153253003146808
 31
0.0
  0
LINE
  5
5CC8
  8
0
 10
324.8989780222227068
 20
9.4153253003146808
 30
0.0
 11
324.8896049697918897
 21
9.4247106850489288
 31
0.0
  0
LINE
  5
5CC9
  8
0
 10
324.8896049697918897
 20
9.4247106850489288
 30
0.0
 11
324.9015557246952994
 21
9.4256638976813232
 31
0.0
  0
LINE
  5
5CCA
  8
0
 10
324.8989780221593833
 20
9.4153253002702684
 30
0.0
 11
324.9202992156812115
 21
9.4068826472947311
 31
0.0
  0
LINE
  5
5CCB
  8
0
 10
324.8978490898426799
 20
9.4368304530897191
 30
0.0
 11
324.9032910110325929
 21
9.4297762697368697
 31
0.0
  0
LINE
  5
5CCC
  8
0
 10
324.9032910110325929
 20
9.4297762697368697
 30
0.0
 11
324.8911941651634834
 21
9.4282371154535376
 31
0.0
  0
LINE
  5
5CCD
  8
0
 10
324.8911941651634834
 20
9.4282371154535376
 30
0.0
 11
324.8702727965402914
 21
9.4382833785560258
 31
0.0
  0
LINE
  5
5CCE
  8
0
 10
324.8702727965402914
 20
9.4382833785560258
 30
0.0
 11
324.8650839965080763
 21
9.4449997083230741
 31
0.0
  0
LINE
  5
5CCF
  8
0
 10
324.870272800655016
 20
9.4382833765801912
 30
0.0
 11
324.8715456786936784
 21
9.4433886300187222
 31
0.0
  0
LINE
  5
5CD0
  8
0
 10
324.8911941651176107
 20
9.4282371154743068
 30
0.0
 11
324.8936008163831843
 21
9.4378896665517225
 31
0.0
  0
LINE
  5
5CD1
  8
0
 10
324.8893915494664952
 20
9.4210072189579144
 30
0.0
 11
324.8874817924854028
 21
9.4133476018212114
 31
0.0
  0
LINE
  5
5CD2
  8
0
 10
324.8874817924854028
 20
9.4133476018212114
 30
0.0
 11
324.8989104383870199
 21
9.4122067523731197
 31
0.0
  0
LINE
  5
5CD3
  8
0
 10
324.8989104383870199
 20
9.4122067523731197
 30
0.0
 11
324.8893915494987823
 21
9.4210072188731395
 31
0.0
  0
LINE
  5
5CD4
  8
0
 10
324.8893915494987823
 20
9.4210072188731395
 30
0.0
 11
324.8684529831668897
 21
9.4309845057400317
 31
0.0
  0
LINE
  5
5CD5
  8
0
 10
324.8684529831668897
 20
9.4309845057400317
 30
0.0
 11
324.8570155077994173
 21
9.4320899424570577
 31
0.0
  0
LINE
  5
5CD6
  8
0
 10
324.8570155077994173
 20
9.4320899424570577
 30
0.0
 11
324.8665255689413129
 21
9.4232540695362452
 31
0.0
  0
LINE
  5
5CD7
  8
0
 10
324.8665255689413129
 20
9.4232540695362452
 30
0.0
 11
324.8874817924400986
 21
9.4133476018333742
 31
0.0
  0
LINE
  5
5CD8
  8
0
 10
324.8684529854311904
 20
9.4309845046611045
 30
0.0
 11
324.8665255691357743
 21
9.4232540694442655
 31
0.0
  0
LINE
  5
5CD9
  8
0
 10
324.9189812048949761
 20
9.4015963945535255
 30
0.0
 11
324.9229089086733211
 21
9.3988346805198297
 31
0.0
  0
LINE
  5
5CDA
  8
0
 10
324.9229089086733211
 20
9.3988346805198297
 30
0.0
 11
324.8931714358845966
 21
9.4105512280196209
 31
0.0
  0
LINE
  5
5CDB
  8
0
 10
324.8931714358845966
 20
9.4105512280196209
 30
0.0
 11
324.8976520860678079
 21
9.4100072610432548
 31
0.0
  0
LINE
  5
5CDC
  8
0
 10
324.8976520860678079
 20
9.4100072610432548
 30
0.0
 11
324.9189812048949761
 21
9.4015963945535201
 31
0.0
  0
LINE
  5
5CDD
  8
0
 10
324.8581571379248771
 20
9.4467267681288725
 30
0.0
 11
324.8609912229777024
 21
9.4451881807621341
 31
0.0
  0
LINE
  5
5CDE
  8
0
 10
324.8609912229777024
 20
9.4451881807621341
 30
0.0
 11
324.8699430741456808
 21
9.4341134501136281
 31
0.0
  0
LINE
  5
5CDF
  8
0
 10
324.8699430741456808
 20
9.4341134501136281
 30
0.0
 11
324.8583654907657206
 21
9.4346569443519854
 31
0.0
  0
LINE
  5
5CE0
  8
0
 10
324.8583654907657206
 20
9.4346569443519854
 30
0.0
 11
324.8378191344503989
 21
9.4462072995805393
 31
0.0
  0
LINE
  5
5CE1
  8
0
 10
324.8378191344503989
 20
9.4462072995805393
 30
0.0
 11
324.8320366580422842
 21
9.4532393351708635
 31
0.0
  0
LINE
  5
5CE2
  8
0
 10
324.8378191343442722
 20
9.4462072996401893
 30
0.0
 11
324.8391313784709951
 21
9.4514704226275192
 31
0.0
  0
LINE
  5
5CE3
  8
0
 10
324.8583654908342169
 20
9.4346569443155737
 30
0.0
 11
324.8609912229026122
 21
9.4451881808025817
 31
0.0
  0
LINE
  5
5CE4
  8
0
 10
324.8570156602585257
 20
9.4292430697650929
 30
0.0
 11
324.860787968748923
 21
9.4258581006458861
 31
0.0
  0
LINE
  5
5CE5
  8
0
 10
324.860787968748923
 20
9.4258581006458861
 30
0.0
 11
324.8321151464086824
 21
9.4418447262457867
 31
0.0
  0
LINE
  5
5CE6
  8
0
 10
324.8321151464086824
 20
9.4418447262457867
 30
0.0
 11
324.8364521065262238
 21
9.4407244499681031
 31
0.0
  0
LINE
  5
5CE7
  8
0
 10
324.8364521065262238
 20
9.4407244499681031
 30
0.0
 11
324.8570156602269208
 21
9.4292430696607248
 31
0.0
  0
LINE
  5
5CE8
  8
0
 10
324.8286166638537793
 20
9.4534293666111502
 30
0.0
 11
324.8377057661763843
 21
9.4429051200597822
 31
0.0
  0
LINE
  5
5CE9
  8
0
 10
324.8377057661763843
 20
9.4429051200597822
 30
0.0
 11
324.8266412178275004
 21
9.4455062849975917
 31
0.0
  0
LINE
  5
5CEA
  8
0
 10
324.8266412178275004
 20
9.4455062849975917
 30
0.0
 11
324.828616663870605
 21
9.4534293665280167
 31
0.0
  0
LINE
  5
5CEB
  8
0
 10
324.828616663870605
 20
9.4534293665280167
 30
0.0
 11
324.8268652989825114
 21
9.4545286997892362
 31
0.0
  0
LINE
  5
5CEC
  8
0
 10
324.8266412178275004
 20
9.4455062849975917
 30
0.0
 11
324.8064863428219269
 21
9.4586267863393694
 31
0.0
  0
LINE
  5
5CED
  8
0
 10
324.8064863428219269
 20
9.4586267863393694
 30
0.0
 11
324.8067170781712889
 21
9.4595522153283831
 31
0.0
  0
LINE
  5
5CEE
  8
0
 10
324.8023076250375993
 20
9.4606516155503861
 30
0.0
 11
324.8065841465931953
 21
9.4561715716295929
 31
0.0
  0
LINE
  5
5CEF
  8
0
 10
324.7963579157604954
 20
9.4621350445853416
 30
0.0
 11
324.7960410409755809
 21
9.4608641294831237
 31
0.0
  0
LINE
  5
5CF0
  8
0
 10
324.7960410409755809
 20
9.4608641294831237
 30
0.0
 11
324.7931650510781196
 21
9.4629311152423981
 31
0.0
  0
ARC
  5
5CF1
  8
0
 10
324.8521261514360958
 20
9.5726843087293467
 30
0.0
 40
0.1250971307088444
 50
243.3632504197360049
 51
248.6506762733212952
  0
LINE
  5
5CF2
  8
0
 10
324.9322544898673186
 20
9.4282522234678225
 30
0.0
 11
324.9251390116889979
 21
9.4262940086165656
 31
0.0
  0
LINE
  5
5CF3
  8
0
 10
324.9251390116889979
 20
9.4262940086165656
 30
0.0
 11
324.9260151166064929
 21
9.429807873869926
 31
0.0
  0
LINE
  5
5CF4
  8
0
 10
324.925139011606575
 20
9.4262940086027918
 30
0.0
 11
324.9038484714030801
 21
9.4348596053444993
 31
0.0
  0
LINE
  5
5CF5
  8
0
 10
324.9038484714030801
 20
9.4348596053444993
 30
0.0
 11
324.9039599789214208
 21
9.4353068373295912
 31
0.0
  0
LINE
  5
5CF6
  8
0
 10
324.9038484713764774
 20
9.4348596053804101
 30
0.0
 11
324.9034166209218029
 21
9.4354423116936204
 31
0.0
  0
LINE
  5
5CF7
  8
0
 10
324.959708446433126
 20
9.4214053542343414
 30
0.0
 11
324.9671758056136923
 21
9.4126747695667952
 31
0.0
  0
LINE
  5
5CF8
  8
0
 10
324.9671758056136923
 20
9.4126747695667952
 30
0.0
 11
324.9687885792807265
 21
9.4191432519414118
 31
0.0
  0
LINE
  5
5CF9
  8
0
 10
324.9671758055487771
 20
9.4126747696383362
 30
0.0
 11
324.9892309432656248
 21
9.4071758061580866
 31
0.0
  0
LINE
  5
5CFA
  8
0
 10
324.9892309432656248
 20
9.4071758061580866
 30
0.0
 11
324.9908437171022229
 21
9.4136442885279514
 31
0.0
  0
LINE
  5
5CFB
  8
0
 10
324.9892309433352011
 20
9.4071758061805966
 30
0.0
 11
324.9999232843439927
 21
9.4113788679188257
 31
0.0
  0
LINE
  5
5CFC
  8
0
 10
324.9649118267849985
 20
9.4035944465592181
 30
0.0
 11
324.9623651877291763
 21
9.3933804349417862
 31
0.0
  0
LINE
  5
5CFD
  8
0
 10
324.9623651877291763
 20
9.3933804349417862
 30
0.0
 11
324.9526042334474027
 21
9.4012100306949691
 31
0.0
  0
LINE
  5
5CFE
  8
0
 10
324.9526042334474027
 20
9.4012100306949691
 30
0.0
 11
324.9649118267818722
 21
9.4035944465920949
 31
0.0
  0
LINE
  5
5CFF
  8
0
 10
324.9649118267818722
 20
9.4035944465920949
 30
0.0
 11
324.986966964484111
 21
9.3980954831552985
 31
0.0
  0
LINE
  5
5D00
  8
0
 10
324.986966964484111
 20
9.3980954831552985
 30
0.0
 11
324.9967145089274823
 21
9.3902121038126971
 31
0.0
  0
LINE
  5
5D01
  8
0
 10
324.9967145089274823
 20
9.3902121038126971
 30
0.0
 11
324.9844203253850878
 21
9.3878814715592185
 31
0.0
  0
LINE
  5
5D02
  8
0
 10
324.9844203253850878
 20
9.3878814715592185
 30
0.0
 11
324.9623651876431722
 21
9.3933804351921708
 31
0.0
  0
LINE
  5
5D03
  8
0
 10
324.9844203253721275
 20
9.3878814715216752
 30
0.0
 11
324.9869669645482873
 21
9.3980954831034076
 31
0.0
  0
LINE
  5
5D04
  8
0
 10
324.9610547277849832
 20
9.388124467476743
 30
0.0
 11
324.9564340282744865
 21
9.3881067268073757
 31
0.0
  0
LINE
  5
5D05
  8
0
 10
324.9564340282744865
 20
9.3881067268073757
 30
0.0
 11
324.9871813724366234
 21
9.3804405528399215
 31
0.0
  0
LINE
  5
5D06
  8
0
 10
324.9871813724366234
 20
9.3804405528399215
 30
0.0
 11
324.98310986553048
 21
9.3826255040115782
 31
0.0
  0
LINE
  5
5D07
  8
0
 10
324.98310986553048
 20
9.3826255040115782
 30
0.0
 11
324.9610547280095716
 21
9.3881244674776045
 31
0.0
  0
ENDSEC
  0
EOF
