  0
SECTION
  2
HEADER
  9
$ACADVER
  1
AC1009
  9
$INSBASE
 10
316.390244379848923
 20
10.3441407476346896
 30
0.0
  9
$EXTMIN
 10
315.3972462281478784
 20
0.8805106416486356
 30
0.0
  9
$EXTMAX
 10
322.5683974773613159
 20
14.8015477374429096
 30
0.0
  9
$LIMMIN
 10
0.0
 20
0.0
  9
$LIMMAX
 10
22.0
 20
17.0
  9
$ORTHOMODE
 70
     0
  9
$REGENMODE
 70
     1
  9
$FILLMODE
 70
     1
  9
$QTEXTMODE
 70
     0
  9
$MIRRTEXT
 70
     0
  9
$DRAGMODE
 70
     2
  9
$LTSCALE
 40
1.2099999999999991
  9
$OSMODE
 70
  4095
  9
$ATTMODE
 70
     1
  9
$TEXTSIZE
 40
0.2
  9
$TRACEWID
 40
0.05
  9
$TEXTSTYLE
  7
STANDARD
  9
$CLAYER
  8
0
  9
$CELTYPE
  6
BYLAYER
  9
$CECOLOR
 62
   256
  9
$DIMSCALE
 40
1.0
  9
$DIMASZ
 40
0.1875
  9
$DIMEXO
 40
0.0625
  9
$DIMDLI
 40
0.38
  9
$DIMRND
 40
0.0
  9
$DIMDLE
 40
0.0
  9
$DIMEXE
 40
0.125
  9
$DIMTP
 40
1.5
  9
$DIMTM
 40
1.5
  9
$DIMTXT
 40
1.5
  9
$DIMCEN
 40
0.09
  9
$DIMTSZ
 40
0.0
  9
$DIMTOL
 70
     0
  9
$DIMLIM
 70
     0
  9
$DIMTIH
 70
     1
  9
$DIMTOH
 70
     1
  9
$DIMSE1
 70
     0
  9
$DIMSE2
 70
     0
  9
$DIMTAD
 70
     0
  9
$DIMZIN
 70
     4
  9
$DIMBLK
  1

  9
$DIMASO
 70
     1
  9
$DIMSHO
 70
     1
  9
$DIMPOST
  1

  9
$DIMAPOST
  1

  9
$DIMALT
 70
     0
  9
$DIMALTD
 70
     2
  9
$DIMALTF
 40
25.3999999999999986
  9
$DIMLFAC
 40
1.0
  9
$DIMTOFL
 70
     0
  9
$DIMTVP
 40
0.0
  9
$DIMTIX
 70
     0
  9
$DIMSOXD
 70
     0
  9
$DIMSAH
 70
     0
  9
$DIMBLK1
  1

  9
$DIMBLK2
  1

  9
$DIMSTYLE
  2
STANDARD
  9
$DIMCLRD
 70
     0
  9
$DIMCLRE
 70
     0
  9
$DIMCLRT
 70
     0
  9
$DIMTFAC
 40
1.0
  9
$DIMGAP
 40
0.09
  9
$LUNITS
 70
     2
  9
$LUPREC
 70
     4
  9
$SKETCHINC
 40
0.1
  9
$FILLETRAD
 40
0.0
  9
$AUNITS
 70
     0
  9
$AUPREC
 70
     0
  9
$MENU
  1
.
  9
$ELEVATION
 40
0.0
  9
$PELEVATION
 40
0.0
  9
$THICKNESS
 40
0.0
  9
$LIMCHECK
 70
     0
  9
$BLIPMODE
 70
     0
  9
$CHAMFERA
 40
0.0
  9
$CHAMFERB
 40
0.0
  9
$SKPOLY
 70
     0
  9
$TDCREATE
 40
2457827.4934837957844138
  9
$TDUPDATE
 40
2459398.8922106479294598
  9
$TDINDWG
 40
0.3584626157
  9
$TDUSRTIMER
 40
0.3584626157
  9
$USRTIMER
 70
     1
  9
$ANGBASE
 50
0.0
  9
$ANGDIR
 70
     0
  9
$PDMODE
 70
     0
  9
$PDSIZE
 40
0.3125
  9
$PLINEWID
 40
0.0
  9
$COORDS
 70
     1
  9
$SPLFRAME
 70
     0
  9
$SPLINETYPE
 70
     6
  9
$SPLINESEGS
 70
     8
  9
$ATTDIA
 70
     1
  9
$ATTREQ
 70
     1
  9
$HANDLING
 70
     1
  9
$HANDSEED
  5
5C1A
  9
$SURFTAB1
 70
     6
  9
$SURFTAB2
 70
     6
  9
$SURFTYPE
 70
     6
  9
$SURFU
 70
     6
  9
$SURFV
 70
     6
  9
$UCSNAME
  2

  9
$UCSORG
 10
0.0
 20
0.0
 30
0.0
  9
$UCSXDIR
 10
1.0
 20
0.0
 30
0.0
  9
$UCSYDIR
 10
0.0
 20
1.0
 30
0.0
  9
$PUCSNAME
  2

  9
$PUCSORG
 10
0.0
 20
0.0
 30
0.0
  9
$PUCSXDIR
 10
1.0
 20
0.0
 30
0.0
  9
$PUCSYDIR
 10
0.0
 20
1.0
 30
0.0
  9
$USERI1
 70
     0
  9
$USERI2
 70
     0
  9
$USERI3
 70
     0
  9
$USERI4
 70
     0
  9
$USERI5
 70
     0
  9
$USERR1
 40
0.0
  9
$USERR2
 40
0.0
  9
$USERR3
 40
0.0
  9
$USERR4
 40
0.0
  9
$USERR5
 40
0.0
  9
$WORLDVIEW
 70
     1
  9
$SHADEDGE
 70
     3
  9
$SHADEDIF
 70
    70
  9
$TILEMODE
 70
     1
  9
$MAXACTVP
 70
    48
  9
$PLIMCHECK
 70
     0
  9
$PEXTMIN
 10
1.0000000000000000E+20
 20
1.0000000000000000E+20
 30
1.0000000000000000E+20
  9
$PEXTMAX
 10
-1.0000000000000000E+20
 20
-1.0000000000000000E+20
 30
-1.0000000000000000E+20
  9
$PLIMMIN
 10
0.0
 20
0.0
  9
$PLIMMAX
 10
12.0
 20
9.0
  9
$UNITMODE
 70
     0
  9
$VISRETAIN
 70
     1
  9
$PLINEGEN
 70
     0
  9
$PSLTSCALE
 70
     1
  0
ENDSEC
  0
SECTION
  2
TABLES
  0
TABLE
  2
VPORT
 70
     1
  0
VPORT
  2
*ACTIVE
 70
     0
 10
0.0
 20
0.0
 11
1.0
 21
1.0
 12
34.9573334558595974
 22
-17.3850780389363706
 13
0.0
 23
0.0
 14
1.0
 24
1.0
 15
0.0
 25
0.0
 16
-0.0000000000000568
 26
0.0
 36
161.3760680385011881
 17
299.3826613025150891
 27
23.0899863857244405
 37
0.0
 40
47.3311957993178183
 41
2.0416666666666661
 42
50.0
 43
0.0
 44
0.0
 50
0.0
 51
0.0
 71
     0
 72
   100
 73
     1
 74
     1
 75
     0
 76
     0
 77
     0
 78
     0
  0
ENDTAB
  0
TABLE
  2
LTYPE
 70
     2
  0
LTYPE
  2
CONTINUOUS
 70
     0
  3
Solid line
 72
    65
 73
     0
 40
0.0
  0
LTYPE
  2
PHANTOM2
 70
     0
  3
___ _ _ ___ _ _ ___ _ _ ___ _ _
 72
    65
 73
     6
 40
1.25
 49
0.625
 49
-0.125
 49
0.125
 49
-0.125
 49
0.125
 49
-0.125
  0
ENDTAB
  0
TABLE
  2
LAYER
 70
     2
  0
LAYER
  2
0
 70
     0
 62
     7
  6
CONTINUOUS
  0
LAYER
  2
DEFPOINTS
 70
     0
 62
     7
  6
CONTINUOUS
  0
ENDTAB
  0
TABLE
  2
STYLE
 70
     1
  0
STYLE
  2
STANDARD
 70
     0
 40
0.0
 41
0.8
 50
0.0
 71
     0
 42
0.2
  3
txt
  4

  0
ENDTAB
  0
TABLE
  2
VIEW
 70
     0
  0
ENDTAB
  0
TABLE
  2
UCS
 70
     0
  0
ENDTAB
  0
TABLE
  2
APPID
 70
     8
  0
APPID
  2
ACAD
 70
     0
  0
APPID
  2
ACAD_MLEADERVER
 70
     0
  0
APPID
  2
ACAD_EXEMPT_FROM_CAD_STANDARDS
 70
     0
  0
APPID
  2
ACAD_NAV_VCDISPLAY
 70
     0
  0
APPID
  2
ACADANNOMONITORALERTICONDI
 70
     0
  0
APPID
  2
ACAD_DSTYLE_DIMJAG
 70
     0
  0
APPID
  2
ACAD_DSTYLE_DIMTALN
 70
     0
  0
APPID
  2
ACDBATTR
 70
     0
  0
ENDTAB
  0
TABLE
  2
DIMSTYLE
 70
     1
  0
DIMSTYLE
  2
STANDARD
 70
     0
  3

  4

  5

  6

  7

 40
1.0
 41
0.1875
 42
0.0625
 43
0.38
 44
0.125
 45
0.0
 46
0.0
 47
1.5
 48
1.5
140
1.5
141
0.09
142
0.0
143
25.3999999999999986
144
1.0
145
0.0
146
1.0
147
0.09
 71
     0
 72
     0
 73
     1
 74
     1
 75
     0
 76
     0
 77
     0
 78
     4
170
     0
171
     2
172
     0
173
     0
174
     0
175
     0
176
     0
177
     0
178
     0
  0
ENDTAB
  0
ENDSEC
  0
SECTION
  2
BLOCKS
  0
BLOCK
  8
0
  2
$MODEL_SPACE
 70
     0
 10
0.0
 20
0.0
 30
0.0
  3
$MODEL_SPACE
  1

  0
ENDBLK
  5
21
  8
0
  0
BLOCK
 67
     1
  8
0
  2
$PAPER_SPACE
 70
     0
 10
0.0
 20
0.0
 30
0.0
  3
$PAPER_SPACE
  1

  0
ENDBLK
  5
1D
 67
     1
  8
0
  0
BLOCK
  8
0
  2
_FILLED
 70
     0
 10
0.0
 20
0.0
 30
0.0
  3
_FILLED
  1

  0
SOLID
  5
4F44
  8
0
  6
BYBLOCK
 62
     0
 10
0.0
 20
0.0
 30
0.0
 11
-1.0
 21
0.1666666667
 31
0.0
 12
-1.0
 22
-0.1666666667
 32
0.0
 13
-1.0
 23
-0.1666666667
 33
0.0
  0
ENDBLK
  5
4F45
  8
0
  6
BYBLOCK
 62
     0
  0
ENDSEC
  0
SECTION
  2
ENTITIES
  0
ATTDEF
  5
4EF9
  8
DEFPOINTS
 10
316.3910401978034201
 20
10.3482309773482992
 30
0.0
 40
0.001
  1
K-72298BR-4ND
  3

  2
MODELNUMBER
 70
     0
1001
ACDBATTR
1070
     0
1070
     1
  0
ATTDEF
  5
4EFA
  8
DEFPOINTS
 10
316.3910401978034201
 20
10.3465643106816199
 30
0.0
 40
0.001
  1
ALEO
  3

  2
TRADENAME
 70
     0
1001
ACDBATTR
1070
     0
1070
     1
  0
ATTDEF
  5
4EFB
  8
DEFPOINTS
 10
316.3910401978034201
 20
10.3448976440149405
 30
0.0
 40
0.001
  1
BATHROOM SINK FAUCET
  3

  2
PRODUCT
 70
     0
1001
ACDBATTR
1070
     0
1070
     1
  0
ARC
  5
5B68
  8
0
 10
629.6242647604259446
 20
18.0936451915905394
 30
0.0
 40
314.3219972198713208
 50
181.4085596910074116
 51
182.5117871295763052
  0
ARC
  5
5B69
  8
0
 10
316.395749804768684
 20
10.4537595530750007
 30
0.0
 40
0.9987964707077246
 50
90.3168885982483545
 51
126.2690204840647965
  0
ARC
  5
5B6A
  8
0
 10
316.3846103805176995
 20
10.4747976783689403
 30
0.0
 40
0.9752508416962296
 50
126.4725616985120951
 51
171.2733910034457949
  0
ARC
  5
5B6B
  8
0
 10
316.7930641192774033
 20
10.3682322742026205
 30
0.0
 40
1.395817891129441
 50
169.4932062722330102
 51
180.0452384507636054
  0
ARC
  5
5B6C
  8
0
 10
316.3410424802469265
 20
10.44333355101009
 30
0.0
 40
0.9367773776995901
 50
174.0952444330638968
 51
183.1273579165346064
  0
ARC
  5
5B6D
  8
0
 10
316.3906780515171135
 20
10.4383733223012491
 30
0.0
 40
0.9866598956833765
 50
158.1711515129516101
 51
174.1052530515663932
  0
ARC
  5
5B6E
  8
0
 10
316.3937045930254044
 20
10.4342529001412494
 30
0.0
 40
0.9920754076669863
 50
90.2009161861916056
 51
114.4307260952353005
  0
ARC
  5
5B6F
  8
0
 10
316.3883810323334842
 20
10.4355234265622592
 30
0.0
 40
0.9887262994170956
 50
114.1803030322039945
 51
133.9391534795007885
  0
ARC
  5
5B70
  8
0
 10
316.3720279940254727
 20
10.4583433816296107
 30
0.0
 40
0.9609554694075512
 50
134.1811779473887043
 51
147.8850194409500887
  0
ARC
  5
5B71
  8
0
 10
316.4100958617883066
 20
10.4329153511108306
 30
0.0
 40
1.006717193983661
 50
147.8110622523815891
 51
158.2937204362987131
  0
ARC
  5
5B72
  8
0
 10
-63.1389619181730311
 20
-13.2754259450388492
 30
0.0
 40
379.2816113553832906
 50
3.1431002101755259
 51
3.4746826432083782
  0
LINE
  5
5B73
  8
0
 10
315.445407165049005
 20
9.7118792079085967
 30
0.0
 11
315.4056602126490247
 21
10.3922271049085992
 31
0.0
  0
ARC
  5
5B74
  8
0
 10
316.3475429635811906
 20
9.0194507328592355
 30
0.0
 40
2.1647094401205238
 50
261.9426376917863877
 51
271.1298058714045283
  0
ARC
  5
5B75
  8
0
 10
317.006526947486293
 20
7.6050334951417202
 30
0.0
 40
1.436913088265624
 50
183.3702147542472005
 51
196.5959429566487984
  0
ARC
  5
5B76
  8
0
 10
316.0541806290229943
 20
7.3328930311906344
 30
0.0
 40
0.4466505419949871
 50
198.0335581377347864
 51
225.0686399359059067
  0
ARC
  5
5B77
  8
0
 10
316.0492412172172862
 20
7.3327501284603063
 30
0.0
 40
0.4430738830019624
 50
225.5077886630425894
 51
247.174019343786
  0
ARC
  5
5B78
  8
0
 10
316.1560621045271091
 20
7.5751452964389339
 30
0.0
 40
0.7079396599393706
 50
246.8161114075130058
 51
260.9026164344427912
  0
ARC
  5
5B79
  8
0
 10
316.1247955277719939
 20
3.904555544305933
 30
0.0
 40
0.4896883531751638
 50
223.5774899561471045
 51
242.7003277464532118
  0
ARC
  5
5B7A
  8
0
 10
316.3477450687680061
 20
4.9213328437273614
 30
0.0
 40
1.534958868150623
 50
259.5705480403946126
 51
271.5858887393637247
  0
ARC
  5
5B7B
  8
0
 10
316.2011700411356969
 20
4.076411211840103
 30
0.0
 40
0.6775199964950067
 50
243.6266078132912014
 51
258.8264821412939227
  0
ARC
  5
5B7C
  8
0
 10
324.0975690458311078
 20
4.7877701130574808
 30
0.0
 40
8.5062629190369421
 50
183.162405866566786
 51
185.318413933857812
  0
ARC
  5
5B7D
  8
0
 10
316.9718249701903119
 20
4.0988966751364124
 30
0.0
 40
1.3475831114878909
 50
184.2376258805807083
 51
196.4768114652401891
  0
ARC
  5
5B7E
  8
0
 10
316.0847134758463994
 20
3.8593440814705859
 30
0.0
 40
0.4295159136877482
 50
199.3986190250778918
 51
222.8940644152204129
  0
ARC
  5
5B7F
  8
0
 10
3.1562239992718442
 20
18.0936451915905394
 30
0.0
 40
314.3219972198713208
 50
357.4882128704235811
 51
358.5914403089926168
  0
ARC
  5
5B80
  8
0
 10
316.3958783791802034
 20
10.4747976783689403
 30
0.0
 40
0.9752508416962296
 50
8.7266089965541696
 51
53.527438301487841
  0
ARC
  5
5B81
  8
0
 10
315.9874246404206133
 20
10.3682322742026205
 30
0.0
 40
1.395817891129441
 50
359.9547615492361956
 51
10.5067937277669792
  0
ARC
  5
5B82
  8
0
 10
316.4394462794509764
 20
10.44333355101009
 30
0.0
 40
0.9367773776995901
 50
356.8726420834653936
 51
5.9047555669360552
  0
ARC
  5
5B83
  8
0
 10
316.3898107081807893
 20
10.4383733223012491
 30
0.0
 40
0.9866598956833765
 50
5.8947469484336841
 51
21.8288484870484183
  0
ARC
  5
5B84
  8
0
 10
316.3921077273644187
 20
10.4355234265622592
 30
0.0
 40
0.9887262994170956
 50
46.0608465204992115
 51
65.8196969677959345
  0
ARC
  5
5B85
  8
0
 10
316.4084607656723733
 20
10.4583433816296107
 30
0.0
 40
0.9609554694075512
 50
32.1149805590499327
 51
45.8188220526112673
  0
ARC
  5
5B86
  8
0
 10
316.37039289790971
 20
10.4329153511108306
 30
0.0
 40
1.006717193983661
 50
21.7062795637012407
 51
32.1889377476183327
  0
ARC
  5
5B87
  8
0
 10
695.919450677870941
 20
-13.2754259450388492
 30
0.0
 40
379.2816113553832906
 50
176.5253173567915894
 51
176.8568997898244959
  0
LINE
  5
5B88
  8
0
 10
317.3350815946488979
 20
9.7118792079085967
 30
0.0
 11
317.3748285470488781
 21
10.3922271049085992
 31
0.0
  0
ARC
  5
5B89
  8
0
 10
315.7739618122116099
 20
7.6050334951417202
 30
0.0
 40
1.436913088265624
 50
343.4040570433510879
 51
356.6297852457527142
  0
ARC
  5
5B8A
  8
0
 10
316.7263081306749086
 20
7.3328930311906344
 30
0.0
 40
0.4466505419949871
 50
314.9313600640941218
 51
341.9664418622651283
  0
ARC
  5
5B8B
  8
0
 10
316.7312475424806166
 20
7.3327501284603063
 30
0.0
 40
0.4430738830019624
 50
292.8259806562140284
 51
314.4922113369573822
  0
ARC
  5
5B8C
  8
0
 10
316.655693231925909
 20
3.904555544305933
 30
0.0
 40
0.4896883531751638
 50
297.2996722535467029
 51
316.4225100438529239
  0
ARC
  5
5B8D
  8
0
 10
308.6829197138667951
 20
4.7877701130574808
 30
0.0
 40
8.5062629190369421
 50
354.681586066142188
 51
356.8375941334330719
  0
ARC
  5
5B8E
  8
0
 10
315.8086637895077047
 20
4.0988966751364124
 30
0.0
 40
1.3475831114878909
 50
343.5231885347598109
 51
355.762374119419178
  0
ARC
  5
5B8F
  8
0
 10
316.6957752838515034
 20
3.8593440814705859
 30
0.0
 40
0.4295159136877482
 50
317.1059355847796155
 51
340.6013809749221082
  0
ARC
  5
5B90
  8
0
 10
316.4327064111299137
 20
4.9213328437273614
 30
0.0
 40
1.534958868150623
 50
268.4141112606362753
 51
280.4294519596053874
  0
ARC
  5
5B91
  8
0
 10
316.5792814387622229
 20
4.076411211840103
 30
0.0
 40
0.6775199964950067
 50
281.1735178587060773
 51
296.373392186708827
  0
ARC
  5
5B92
  8
0
 10
316.4329085163167861
 20
9.0194507328592355
 30
0.0
 40
2.1647094401205238
 50
268.8701941285954717
 51
278.057362308213726
  0
ARC
  5
5B93
  8
0
 10
316.6243893753708107
 20
7.5751452964389339
 30
0.0
 40
0.7079396599393706
 50
279.0973835655570952
 51
293.1838885924871079
  0
ARC
  5
5B94
  8
0
 10
316.3847016751292927
 20
10.4537595530750007
 30
0.0
 40
0.9987964707077246
 50
53.7309795159351893
 51
89.6831114017516455
  0
ARC
  5
5B95
  8
0
 10
316.3867468868725723
 20
10.4342529001412494
 30
0.0
 40
0.9920754076669863
 50
65.5692739047676696
 51
89.799083813808366
  0
ENDSEC
  0
EOF
