  0
SECTION
  2
HEADER
  9
$ACADVER
  1
AC1009
  9
$INSBASE
 10
4796.5639676382415928
 20
541.8733771270442503
 30
0.0
  9
$EXTMIN
 10
4792.5251885110419607
 20
541.8733771270442503
 30
0.0
  9
$EXTMAX
 10
4798.1904278504252943
 20
547.3851882110127463
 30
0.0
  9
$LIMMIN
 10
0.0
 20
0.0
  9
$LIMMAX
 10
11.6929133858000007
 20
8.2677165353999982
  9
$ORTHOMODE
 70
     0
  9
$REGENMODE
 70
     1
  9
$FILLMODE
 70
     1
  9
$QTEXTMODE
 70
     0
  9
$MIRRTEXT
 70
     0
  9
$DRAGMODE
 70
     2
  9
$LTSCALE
 40
0.6431102362
  9
$OSMODE
 70
     7
  9
$ATTMODE
 70
     1
  9
$TEXTSIZE
 40
0.2
  9
$TRACEWID
 40
0.05
  9
$TEXTSTYLE
  7
STANDARD
  9
$CLAYER
  8
0
  9
$CELTYPE
  6
BYLAYER
  9
$CECOLOR
 62
   256
  9
$DIMSCALE
 40
1.0
  9
$DIMASZ
 40
0.1875
  9
$DIMEXO
 40
0.0625
  9
$DIMDLI
 40
0.4443307087
  9
$DIMRND
 40
0.0
  9
$DIMDLE
 40
0.0
  9
$DIMEXE
 40
0.125
  9
$DIMTP
 40
0.01
  9
$DIMTM
 40
0.01
  9
$DIMTXT
 40
2.0
  9
$DIMCEN
 40
0.1052362205
  9
$DIMTSZ
 40
0.0
  9
$DIMTOL
 70
     1
  9
$DIMLIM
 70
     0
  9
$DIMTIH
 70
     1
  9
$DIMTOH
 70
     1
  9
$DIMSE1
 70
     0
  9
$DIMSE2
 70
     0
  9
$DIMTAD
 70
     0
  9
$DIMZIN
 70
     0
  9
$DIMBLK
  1

  9
$DIMASO
 70
     1
  9
$DIMSHO
 70
     1
  9
$DIMPOST
  1
\X
  9
$DIMAPOST
  1

  9
$DIMALT
 70
     1
  9
$DIMALTD
 70
     2
  9
$DIMALTF
 40
25.3999999999999986
  9
$DIMLFAC
 40
1.0
  9
$DIMTOFL
 70
     0
  9
$DIMTVP
 40
0.0
  9
$DIMTIX
 70
     0
  9
$DIMSOXD
 70
     0
  9
$DIMSAH
 70
     0
  9
$DIMBLK1
  1

  9
$DIMBLK2
  1

  9
$DIMSTYLE
  2
STANDARD
  9
$DIMCLRD
 70
     0
  9
$DIMCLRE
 70
     0
  9
$DIMCLRT
 70
     0
  9
$DIMTFAC
 40
1.0
  9
$DIMGAP
 40
0.09
  9
$LUNITS
 70
     2
  9
$LUPREC
 70
     4
  9
$SKETCHINC
 40
0.1
  9
$FILLETRAD
 40
0.0
  9
$AUNITS
 70
     0
  9
$AUPREC
 70
     0
  9
$MENU
  1
.
  9
$ELEVATION
 40
0.0
  9
$PELEVATION
 40
0.0
  9
$THICKNESS
 40
0.0
  9
$LIMCHECK
 70
     0
  9
$BLIPMODE
 70
     0
  9
$CHAMFERA
 40
0.0
  9
$CHAMFERB
 40
0.0
  9
$SKPOLY
 70
     0
  9
$TDCREATE
 40
2458060.468368056230247
  9
$TDUPDATE
 40
2459502.788923610933125
  9
$TDINDWG
 40
1.6837237731000001
  9
$TDUSRTIMER
 40
1.6837237731000001
  9
$USRTIMER
 70
     1
  9
$ANGBASE
 50
0.0
  9
$ANGDIR
 70
     0
  9
$PDMODE
 70
     0
  9
$PDSIZE
 40
0.3125
  9
$PLINEWID
 40
0.0
  9
$COORDS
 70
     1
  9
$SPLFRAME
 70
     0
  9
$SPLINETYPE
 70
     6
  9
$SPLINESEGS
 70
     8
  9
$ATTDIA
 70
     1
  9
$ATTREQ
 70
     1
  9
$HANDLING
 70
     1
  9
$HANDSEED
  5
2002F
  9
$SURFTAB1
 70
     6
  9
$SURFTAB2
 70
     6
  9
$SURFTYPE
 70
     6
  9
$SURFU
 70
     6
  9
$SURFV
 70
     6
  9
$UCSNAME
  2

  9
$UCSORG
 10
0.0
 20
0.0
 30
0.0
  9
$UCSXDIR
 10
1.0
 20
0.0
 30
0.0
  9
$UCSYDIR
 10
0.0
 20
1.0
 30
0.0
  9
$PUCSNAME
  2

  9
$PUCSORG
 10
0.0
 20
0.0
 30
0.0
  9
$PUCSXDIR
 10
1.0
 20
0.0
 30
0.0
  9
$PUCSYDIR
 10
0.0
 20
1.0
 30
0.0
  9
$USERI1
 70
     0
  9
$USERI2
 70
     0
  9
$USERI3
 70
     0
  9
$USERI4
 70
     0
  9
$USERI5
 70
     0
  9
$USERR1
 40
0.0
  9
$USERR2
 40
0.0
  9
$USERR3
 40
0.0
  9
$USERR4
 40
0.0
  9
$USERR5
 40
0.0
  9
$WORLDVIEW
 70
     1
  9
$SHADEDGE
 70
     3
  9
$SHADEDIF
 70
    70
  9
$TILEMODE
 70
     1
  9
$MAXACTVP
 70
    64
  9
$PLIMCHECK
 70
     0
  9
$PEXTMIN
 10
1.0000000000000000E+20
 20
1.0000000000000000E+20
 30
1.0000000000000000E+20
  9
$PEXTMAX
 10
-1.0000000000000000E+20
 20
-1.0000000000000000E+20
 30
-1.0000000000000000E+20
  9
$PLIMMIN
 10
0.0
 20
0.0
  9
$PLIMMAX
 10
12.0
 20
9.0
  9
$UNITMODE
 70
     0
  9
$VISRETAIN
 70
     1
  9
$PLINEGEN
 70
     0
  9
$PSLTSCALE
 70
     1
  0
ENDSEC
  0
SECTION
  2
TABLES
  0
TABLE
  2
VPORT
 70
     1
  0
VPORT
  2
*ACTIVE
 70
     0
 10
0.0
 20
0.0
 11
1.0
 21
1.0
 12
883.9924517354215823
 22
412.0496775664894926
 13
0.0
 23
0.0
 14
1.0
 24
1.0
 15
0.0
 25
0.0
 16
0.0
 26
0.0
 36
60.4960186965801583
 17
3911.3653564453120453
 27
132.5796051025390057
 37
0.0
 40
5.550719896753991
 41
2.2118055555555549
 42
50.0
 43
0.0
 44
0.0
 50
0.0
 51
0.0
 71
     0
 72
   100
 73
     1
 74
     1
 75
     0
 76
     0
 77
     0
 78
     0
  0
ENDTAB
  0
TABLE
  2
LTYPE
 70
     2
  0
LTYPE
  2
CONTINUOUS
 70
     0
  3
Solid line
 72
    65
 73
     0
 40
0.0
  0
LTYPE
  2
PHANTOM2
 70
     0
  3
___ _ _ ___ _ _ ___ _ _ ___ _ _
 72
    65
 73
     6
 40
1.25
 49
0.625
 49
-0.125
 49
0.125
 49
-0.125
 49
0.125
 49
-0.125
  0
ENDTAB
  0
TABLE
  2
LAYER
 70
     2
  0
LAYER
  2
0
 70
     0
 62
   255
  6
CONTINUOUS
  0
LAYER
  2
DEFPOINTS
 70
     0
 62
     7
  6
CONTINUOUS
  0
ENDTAB
  0
TABLE
  2
STYLE
 70
     1
  0
STYLE
  2
STANDARD
 70
     0
 40
0.0
 41
0.8
 50
0.0
 71
     0
 42
0.2
  3
txt
  4

  0
ENDTAB
  0
TABLE
  2
VIEW
 70
     0
  0
ENDTAB
  0
TABLE
  2
UCS
 70
     0
  0
ENDTAB
  0
TABLE
  2
APPID
 70
    11
  0
APPID
  2
ACAD
 70
     0
  0
APPID
  2
ACAD_MLEADERVER
 70
     0
  0
APPID
  2
ACAD_EXEMPT_FROM_CAD_STANDARDS
 70
     0
  0
APPID
  2
ACAD_NAV_VCDISPLAY
 70
     0
  0
APPID
  2
ACAECLAYERSTANDARD
 70
     0
  0
APPID
  2
ACCMTRANSPARENCY
 70
     0
  0
APPID
  2
ACAD_DSTYLE_DIMJAG
 70
     0
  0
APPID
  2
ACAD_DSTYLE_DIMTALN
 70
     0
  0
APPID
  2
ACDBATTR
 70
     0
  0
APPID
  2
ACADANNOTATIVE
 70
     0
  0
APPID
  2
DCO15
 70
     0
  0
ENDTAB
  0
TABLE
  2
DIMSTYLE
 70
     1
  0
DIMSTYLE
  2
STANDARD
 70
     0
  3

  4

  5

  6

  7

 40
1.0
 41
0.1875
 42
0.0625
 43
0.38
 44
0.125
 45
0.0
 46
0.0
 47
0.01
 48
0.01
140
0.15625
141
0.09
142
0.0
143
25.3999999999999986
144
1.0
145
0.0
146
1.0
147
0.09
 71
     1
 72
     0
 73
     1
 74
     1
 75
     0
 76
     0
 77
     0
 78
     4
170
     0
171
     2
172
     0
173
     0
174
     0
175
     0
176
     0
177
     0
178
     0
  0
ENDTAB
  0
ENDSEC
  0
SECTION
  2
BLOCKS
  0
BLOCK
  8
0
  2
$MODEL_SPACE
 70
     0
 10
0.0
 20
0.0
 30
0.0
  3
$MODEL_SPACE
  1

  0
ENDBLK
  5
21
  8
0
  0
BLOCK
 67
     1
  8
0
  2
$PAPER_SPACE
 70
     0
 10
0.0
 20
0.0
 30
0.0
  3
$PAPER_SPACE
  1

  0
ENDBLK
  5
1D
 67
     1
  8
0
  0
ENDSEC
  0
SECTION
  2
ENTITIES
  0
ATTDEF
  5
159BF
  8
DEFPOINTS
 10
4796.5639707658328916
 20
541.8767209294721852
 30
0.0
 40
0.001
  1
K-72279BR-4
  3

  2
MODELNUMBER
 70
     0
1001
ACDBATTR
1070
     0
1070
     1
  0
ATTDEF
  5
159C0
  8
DEFPOINTS
 10
4796.5639707658328916
 20
541.8750540890931688
 30
0.0
 40
0.001
  1
ALEO
  3

  2
TRADENAME
 70
     0
1001
ACDBATTR
1070
     0
1070
     1
  0
ATTDEF
  5
159C1
  8
DEFPOINTS
 10
4796.5639707658328916
 20
541.8733875961389685
 30
0.0
 40
0.001
  1
BIDET FAUCET
  3

  2
PRODUCT
 70
     0
1001
ACDBATTR
1070
     0
1070
     1
  0
LINE
  5
1FF20
  8
0
 10
4795.4555971596428208
 20
541.8733771270442503
 30
0.0
 11
4797.6723381168430933
 21
541.8733771270442503
 31
0.0
  0
LINE
  5
1FF21
  8
0
 10
4797.6524215253393777
 20
547.385188210994329
 30
0.0
 11
4793.1206170062432648
 21
547.385188210994329
 31
0.0
  0
LINE
  5
1FF22
  8
0
 10
4795.4555971596428208
 20
543.2182710931391512
 30
0.0
 11
4795.4555971596428208
 21
541.8733771270442503
 31
0.0
  0
LINE
  5
1FF23
  8
0
 10
4797.6723381168430933
 20
541.8733771270442503
 30
0.0
 11
4797.6723381168430933
 21
543.7833430678373361
 31
0.0
  0
LINE
  5
1FF24
  8
0
 10
4797.6723381168430933
 20
543.9417699657036565
 30
0.0
 11
4797.6723381168430933
 21
546.0151094708943447
 31
0.0
  0
LINE
  5
1FF25
  8
0
 10
4792.5251885110419607
 20
545.8694401732943788
 30
0.0
 11
4792.5251885110419607
 21
545.0820385984942504
 31
0.0
  0
LINE
  5
1FF26
  8
0
 10
4793.3913302426126393
 20
545.8694401732943788
 30
0.0
 11
4792.5251885110419607
 21
545.8694401732943788
 31
0.0
  0
LINE
  5
1FF27
  8
0
 10
4793.3913302426126393
 20
545.0820385984942504
 30
0.0
 11
4792.5251885110419607
 21
545.0820385984942504
 31
0.0
  0
LINE
  5
1FF28
  8
0
 10
4793.4700704007427703
 20
545.7907118491718848
 30
0.0
 11
4793.4700704007427703
 21
545.1607669226167445
 31
0.0
  0
LINE
  5
1FF29
  8
0
 10
4793.6483027245431003
 20
546.0151094708943447
 30
0.0
 11
4793.6488555245432508
 21
544.9926036381943959
 31
0.0
  0
ARC
  5
1FF2A
  8
0
 10
4793.7293873873886696
 20
545.0011848041976918
 30
0.0
 40
0.0809877604540448
 50
186.0822677027580028
 51
249.0169153255544074
  0
ARC
  5
1FF2B
  8
0
 10
4793.7876935905078426
 20
545.1601685845353131
 30
0.0
 40
0.2503201195338769
 50
249.5871295113055908
 51
269.9089032027728194
  0
ARC
  5
1FF2C
  8
0
 10
4795.952843517182373
 20
1098.3813092324398895
 30
0.0
 40
553.4756969656468755
 50
269.7758220037233059
 51
269.8406980024445829
  0
ARC
  5
1FF2D
  8
0
 10
4794.4034081003310348
 20
542.833643942051026
 30
0.0
 40
2.0741346003722869
 50
83.4117405398275622
 51
89.707616803359798
  0
ARC
  5
1FF2E
  8
0
 10
4794.5911205194188369
 20
544.0537013176449364
 30
0.0
 40
0.841881874800476
 50
17.3790873381462987
 51
86.5773964580261861
  0
ARC
  5
1FF2F
  8
0
 10
4793.7837768031586165
 20
543.8829247769932635
 30
0.0
 40
1.665215178828811
 50
2.927185116087061
 51
14.6885726620261003
  0
ARC
  5
1FF30
  8
0
 10
4734.6636116824347482
 20
542.8813745740393415
 30
0.0
 40
60.7929189752028094
 50
0.3175180235351646
 51
1.0241355222365811
  0
LINE
  5
1FF32
  8
0
 10
4797.6408418844566768
 20
546.0466055338944216
 30
0.0
 11
4793.6797985764433179
 21
546.0466055338943079
 31
0.0
  0
ARC
  5
1FF33
  8
0
 10
4797.6408283660639427
 20
546.0150957830428524
 30
0.0
 40
0.031509753751331
 50
0.0248893136840925
 51
89.9754188479504933
  0
LINE
  5
1FF34
  8
0
 10
4793.64840566089606
 20
545.8247096489443493
 30
0.0
 11
4794.997615316550764
 21
545.8247096489443493
 31
0.0
  0
ARC
  5
1FF35
  8
0
 10
4793.3913302426126393
 20
545.7907000142760126
 30
0.0
 40
0.0787401590183201
 50
0.0086117375758619
 51
89.9999995423681582
  0
LINE
  5
1FF36
  8
0
 10
4793.5684955976430501
 20
545.6627472598943314
 30
0.0
 11
4793.4700704007427703
 21
545.6627472598943314
 31
0.0
  0
ARC
  5
1FF37
  8
0
 10
4793.5684955976430501
 20
545.7414874173942962
 30
0.0
 40
0.0787401574999969
 50
270.0
 51
0.0000000000032569
  0
LINE
  5
1FF38
  8
0
 10
4793.6487912095253705
 20
545.1115661574942806
 30
0.0
 11
4793.6472357551429013
 21
545.1115661574942806
 31
0.0
  0
LINE
  5
1FF39
  8
0
 10
4793.6472357551429013
 20
545.1115661574942806
 30
0.0
 11
4793.6472357551429013
 21
545.8399119266942989
 31
0.0
  0
LINE
  5
1FF3A
  8
0
 10
4793.6472357551429013
 20
545.8399119266942989
 30
0.0
 11
4793.6483974420489176
 21
545.8399119266942989
 31
0.0
  0
ARC
  5
1FF3B
  8
0
 10
4793.3913302426126393
 20
545.1607787575126167
 30
0.0
 40
0.0787401590183201
 50
270.000000457631927
 51
359.9913882624242092
  0
LINE
  5
1FF3C
  8
0
 10
4793.5684955976430501
 20
545.2887315118942979
 30
0.0
 11
4793.4700704007427703
 21
545.2887315118942979
 31
0.0
  0
ARC
  5
1FF3D
  8
0
 10
4793.5684955976430501
 20
545.209991354394333
 30
0.0
 40
0.0787401574999969
 50
359.9999999999968168
 51
90.0
  0
ARC
  5
1FF3E
  8
0
 10
4793.6798633580820024
 20
546.0150449007877569
 30
0.0
 40
0.0315606995920794
 50
90.1176056682301834
 51
179.8827783537246034
  0
ARC
  5
1FF3F
  8
0
 10
4795.6735002284558504
 20
544.9346438042546197
 30
0.0
 40
0.8327148045489959
 50
23.9962558261135293
 51
79.6389593988643441
  0
ARC
  5
1FF40
  8
0
 10
4795.3526627294868376
 20
543.7942809078116397
 30
0.0
 40
2.0152180675800819
 50
76.4953744144275021
 51
84.4849675959299589
  0
ARC
  5
1FF41
  8
0
 10
4795.1070368441987739
 20
541.3388387718882768
 30
0.0
 40
4.4829084147347391
 50
84.3762791897683826
 51
88.6453435084942072
  0
ARC
  5
1FF42
  8
0
 10
4794.7524424038829238
 20
527.7910727561894646
 30
0.0
 40
18.03530341682211
 50
88.5366551023575141
 51
89.2210940113597388
  0
ARC
  5
1FF43
  8
0
 10
4794.8648919110610223
 20
544.6359725836724692
 30
0.0
 40
1.6938249119460871
 50
4.4232126118783484
 51
22.1021577803081115
  0
ARC
  5
1FF44
  8
0
 10
4780.2211759130595965
 20
543.8927456465156638
 30
0.0
 40
16.3558569483895084
 50
0.0438973381199696
 51
3.0626537013956008
  0
LINE
  5
1FF45
  8
0
 10
4796.5770280610831833
 20
543.9052767355170772
 30
0.0
 11
4796.5770280610831833
 21
541.8733771270442503
 31
0.0
  0
LINE
  5
1FF46
  8
0
 10
4797.6720986337431896
 20
546.5178424160112627
 30
0.0
 11
4797.6720986337431896
 21
547.3655190303287554
 31
0.0
  0
LINE
  5
1FF47
  8
0
 10
4797.6720986337431896
 20
546.5178424160112627
 30
0.0
 11
4796.7801835474429026
 21
546.1019355808944056
 31
0.0
  0
ARC
  5
1FF48
  8
0
 10
4796.5306058331952954
 20
546.6371567170778007
 30
0.0
 40
0.5905511832742693
 50
270.0010048011184267
 51
294.9999999682423777
  0
ARC
  5
1FF49
  8
0
 10
4796.6880373422418415
 20
545.9127267729943469
 30
0.0
 40
0.925248973799905
 50
11.2917300635023192
 51
33.2357554100213619
  0
ARC
  5
1FF4A
  8
0
 10
4797.2866886824140238
 20
546.0322592593804529
 30
0.0
 40
0.3147807580909203
 50
6.9277880921344037
 51
11.2917300635023192
  0
LINE
  5
1FF4B
  8
0
 10
4797.5991712134618865
 20
546.0702275811020172
 30
0.0
 11
4797.595762293003645
 21
546.0702275811020172
 31
0.0
  0
ARC
  5
1FF4C
  8
0
 10
4797.2841570425407554
 20
546.0322174277940803
 30
0.0
 40
0.31391496280166
 50
2.6270384237993269
 51
6.9546810091950331
  0
ARC
  5
1FF4D
  8
0
 10
4797.6524215253393777
 20
547.3655111010115206
 30
0.0
 40
0.0196771100011833
 50
0.0230885745623319
 51
90.0
  0
ARC
  5
1FF4E
  8
0
 10
4793.1206655778678396
 20
547.3654614992856295
 30
0.0
 40
0.0197267715057937
 50
90.141074879959973
 51
202.4997405193236091
  0
ARC
  5
1FF4F
  8
0
 10
4793.291728472718205
 20
547.4352200083427533
 30
0.0
 40
0.2044662216800142
 50
202.2156957849429091
 51
222.0283888346488936
  0
ARC
  5
1FF50
  8
0
 10
4793.3637011401733616
 20
547.5150702675039156
 30
0.0
 40
0.3115868998881258
 50
224.0751226470611073
 51
249.2861948250867101
  0
ARC
  5
1FF51
  8
0
 10
4793.5817550575848145
 20
548.102098231494665
 30
0.0
 40
0.9378016061578357
 50
249.510616593770294
 51
264.6198715462455198
  0
ARC
  5
1FF52
  8
0
 10
4793.8546453697099423
 20
550.5196585835002452
 30
0.0
 40
3.3705990655320228
 50
263.854731860379502
 51
268.4988602519712799
  0
ARC
  5
1FF53
  8
0
 10
4804.1777481535391416
 20
1014.6485909682089641
 30
0.0
 40
467.6142936338915774
 50
268.7242077765795898
 51
268.829406714268373
  0
ARC
  5
1FF54
  8
0
 10
4794.4305167092061311
 20
540.0332235407017833
 30
0.0
 40
7.1013207675949754
 50
85.5065639658336067
 51
88.4328916574549879
  0
ARC
  5
1FF55
  8
0
 10
4794.9127751292890025
 20
545.9230882322584648
 30
0.0
 40
1.1919340174656841
 50
71.4965002029700543
 51
86.4360463471702047
  0
ARC
  5
1FF56
  8
0
 10
4795.1316027977909471
 20
546.530312897204567
 30
0.0
 40
0.546853000520851
 50
16.3161969357118686
 51
73.0478451657174475
  0
ARC
  5
1FF57
  8
0
 10
4795.1181669772604437
 20
546.4453446988648011
 30
0.0
 40
0.5887775228158376
 50
358.7535020989192276
 51
23.9065718080103515
  0
ARC
  5
1FF58
  8
0
 10
4793.5188189922628226
 20
546.2974186309850211
 30
0.0
 40
2.1921542838191428
 50
357.6804432267913967
 51
3.533782955377192
  0
ARC
  5
1FF59
  8
0
 10
4813.2596405634858456
 20
546.0006364640303218
 30
0.0
 40
17.5516966750837398
 50
179.3207945900826132
 51
179.8499383420723063
  0
ARC
  5
1FF5A
  8
0
 10
4797.3837633433113297
 20
543.1488609380027128
 30
0.0
 40
0.0251085199196132
 50
218.6392087464855933
 51
321.3607912535219953
  0
ARC
  5
1FF5B
  8
0
 10
4798.3049117620148536
 20
543.4319285117635445
 30
0.0
 40
1.0023992720087751
 50
166.874632250803387
 51
193.125367749196613
  0
ARC
  5
1FF5C
  8
0
 10
4797.6008635560920084
 20
543.282178114072849
 30
0.0
 40
0.2830865804867184
 50
195.967937920216599
 51
204.7098199885616054
  0
ARC
  5
1FF5D
  8
0
 10
4797.3840065884733121
 20
543.7396069282048074
 30
0.0
 40
0.017254544224874
 50
73.5138731732084523
 51
112.8733581844451948
  0
ARC
  5
1FF5E
  8
0
 10
4797.4316542626802402
 20
543.682807240167449
 30
0.0
 40
0.0907707178218348
 50
126.784737762454597
 51
158.0341895503092076
  0
ARC
  5
1FF5F
  8
0
 10
4797.6825130747283765
 20
543.5751250930303513
 30
0.0
 40
0.3637478454739283
 50
157.0842282866267965
 51
166.5784689563105871
  0
ARC
  5
1FF60
  8
0
 10
4797.4391994174529827
 20
543.2054033361172287
 30
0.0
 40
0.1041538817825136
 50
203.5183554266307908
 51
223.9000183233316079
  0
ARC
  5
1FF61
  8
0
 10
4797.3137364057620289
 20
543.2092443825092687
 30
0.0
 40
0.1175606991602735
 50
319.6843394243593934
 51
340.6097127271661975
  0
ARC
  5
1FF62
  8
0
 10
4796.8962018948495825
 20
543.3430011459049638
 30
0.0
 40
0.5559590894208949
 50
341.8930959864342753
 51
355.0415742021135088
  0
ARC
  5
1FF63
  8
0
 10
4796.2500805689342087
 20
543.4152168213826144
 30
0.0
 40
1.206011690002827
 50
354.2766983570214165
 51
358.77952903016768
  0
LINE
  5
1FF64
  8
0
 10
4797.3874883017278989
 20
543.1240302622697982
 30
0.0
 11
4797.5340528401429765
 21
543.693509682494323
 31
0.0
  0
LINE
  5
1FF65
  8
0
 10
4797.3025314589867776
 20
543.4257617764060342
 30
0.0
 11
4797.3815424730428276
 21
543.7327606382942804
 31
0.0
  0
LINE
  5
1FF66
  8
0
 10
4797.6195495128431503
 20
543.9359733699942581
 30
0.0
 11
4798.1380822679429912
 21
543.9929122642943184
 31
0.0
  0
LINE
  5
1FF67
  8
0
 10
4798.181633546942976
 20
543.9573165796944068
 30
0.0
 11
4798.1901886239829764
 21
543.8800007534441647
 31
0.0
  0
LINE
  5
1FF68
  8
0
 10
4798.1552714996432769
 20
543.8363728765943961
 30
0.0
 11
4797.6367387445416171
 21
543.7794339822943357
 31
0.0
  0
ARC
  5
1FF69
  8
0
 10
4797.6479629374807701
 20
543.6616994583496307
 30
0.0
 40
0.1182683416456371
 50
95.4458208502405654
 51
164.3972220359914047
  0
ARC
  5
1FF6A
  8
0
 10
4797.6478812304703752
 20
543.6618048647127353
 30
0.0
 40
0.2756284736960727
 50
95.8998260458239855
 51
165.0822198427356966
  0
ARC
  5
1FF6B
  8
0
 10
4798.1423575291719317
 20
543.9537027293915799
 30
0.0
 40
0.0394419254839077
 50
5.2570755358018557
 51
96.2227349804344811
  0
ARC
  5
1FF6C
  8
0
 10
4798.1508997201663078
 20
543.8756585053399704
 30
0.0
 40
0.0395281302585899
 50
276.3498578088090198
 51
6.3067898355776952
  0
ENDSEC
  0
EOF
