  0
SECTION
  2
HEADER
  9
$ACADVER
  1
AC1009
  9
$INSBASE
 10
98.1373391797809376
 20
-7.1513822226791008
 30
0.0
  9
$EXTMIN
 10
97.1428851899408983
 20
-7.1520040533712637
 30
-0.0000000349181948
  9
$EXTMAX
 10
99.1320920526558638
 20
-1.544127091296239
 30
0.0000000814935746
  9
$LIMMIN
 10
0.0
 20
0.0
  9
$LIMMAX
 10
11.6929133858000007
 20
8.2677165353999982
  9
$ORTHOMODE
 70
     0
  9
$REGENMODE
 70
     1
  9
$FILLMODE
 70
     1
  9
$QTEXTMODE
 70
     0
  9
$MIRRTEXT
 70
     0
  9
$DRAGMODE
 70
     2
  9
$LTSCALE
 40
0.6431102362
  9
$OSMODE
 70
   575
  9
$ATTMODE
 70
     1
  9
$TEXTSIZE
 40
0.2
  9
$TRACEWID
 40
0.05
  9
$TEXTSTYLE
  7
STANDARD
  9
$CLAYER
  8
0
  9
$CELTYPE
  6
BYLAYER
  9
$CECOLOR
 62
   256
  9
$DIMSCALE
 40
1.0
  9
$DIMASZ
 40
0.1875
  9
$DIMEXO
 40
0.0625
  9
$DIMDLI
 40
0.4443307087
  9
$DIMRND
 40
0.0
  9
$DIMDLE
 40
0.0
  9
$DIMEXE
 40
0.125
  9
$DIMTP
 40
0.01
  9
$DIMTM
 40
0.01
  9
$DIMTXT
 40
1.0
  9
$DIMCEN
 40
0.1052362205
  9
$DIMTSZ
 40
0.0
  9
$DIMTOL
 70
     1
  9
$DIMLIM
 70
     0
  9
$DIMTIH
 70
     1
  9
$DIMTOH
 70
     1
  9
$DIMSE1
 70
     0
  9
$DIMSE2
 70
     0
  9
$DIMTAD
 70
     0
  9
$DIMZIN
 70
     0
  9
$DIMBLK
  1

  9
$DIMASO
 70
     1
  9
$DIMSHO
 70
     1
  9
$DIMPOST
  1
\X
  9
$DIMAPOST
  1

  9
$DIMALT
 70
     1
  9
$DIMALTD
 70
     2
  9
$DIMALTF
 40
25.3999999999999986
  9
$DIMLFAC
 40
1.0
  9
$DIMTOFL
 70
     0
  9
$DIMTVP
 40
0.0
  9
$DIMTIX
 70
     0
  9
$DIMSOXD
 70
     0
  9
$DIMSAH
 70
     0
  9
$DIMBLK1
  1

  9
$DIMBLK2
  1

  9
$DIMSTYLE
  2
STANDARD
  9
$DIMCLRD
 70
     0
  9
$DIMCLRE
 70
     0
  9
$DIMCLRT
 70
     0
  9
$DIMTFAC
 40
1.0
  9
$DIMGAP
 40
0.09
  9
$LUNITS
 70
     2
  9
$LUPREC
 70
     4
  9
$SKETCHINC
 40
0.1
  9
$FILLETRAD
 40
0.0
  9
$AUNITS
 70
     0
  9
$AUPREC
 70
     0
  9
$MENU
  1
.
  9
$ELEVATION
 40
0.0
  9
$PELEVATION
 40
0.0
  9
$THICKNESS
 40
0.0
  9
$LIMCHECK
 70
     0
  9
$BLIPMODE
 70
     0
  9
$CHAMFERA
 40
0.0
  9
$CHAMFERB
 40
0.0
  9
$SKPOLY
 70
     0
  9
$TDCREATE
 40
2458172.4620254631154239
  9
$TDUPDATE
 40
2459506.4237847221083939
  9
$TDINDWG
 40
0.0951216782
  9
$TDUSRTIMER
 40
0.0951216782
  9
$USRTIMER
 70
     1
  9
$ANGBASE
 50
0.0
  9
$ANGDIR
 70
     0
  9
$PDMODE
 70
     0
  9
$PDSIZE
 40
0.3125
  9
$PLINEWID
 40
0.0
  9
$COORDS
 70
     1
  9
$SPLFRAME
 70
     0
  9
$SPLINETYPE
 70
     6
  9
$SPLINESEGS
 70
     8
  9
$ATTDIA
 70
     1
  9
$ATTREQ
 70
     1
  9
$HANDLING
 70
     1
  9
$HANDSEED
  5
8010
  9
$SURFTAB1
 70
     6
  9
$SURFTAB2
 70
     6
  9
$SURFTYPE
 70
     6
  9
$SURFU
 70
     6
  9
$SURFV
 70
     6
  9
$UCSNAME
  2

  9
$UCSORG
 10
0.0
 20
0.0
 30
0.0
  9
$UCSXDIR
 10
1.0
 20
0.0
 30
0.0
  9
$UCSYDIR
 10
0.0
 20
1.0
 30
0.0
  9
$PUCSNAME
  2

  9
$PUCSORG
 10
0.0
 20
0.0
 30
0.0
  9
$PUCSXDIR
 10
1.0
 20
0.0
 30
0.0
  9
$PUCSYDIR
 10
0.0
 20
1.0
 30
0.0
  9
$USERI1
 70
     0
  9
$USERI2
 70
     0
  9
$USERI3
 70
     0
  9
$USERI4
 70
     0
  9
$USERI5
 70
     0
  9
$USERR1
 40
0.0
  9
$USERR2
 40
0.0
  9
$USERR3
 40
0.0
  9
$USERR4
 40
0.0
  9
$USERR5
 40
0.0
  9
$WORLDVIEW
 70
     1
  9
$SHADEDGE
 70
     3
  9
$SHADEDIF
 70
    70
  9
$TILEMODE
 70
     1
  9
$MAXACTVP
 70
    64
  9
$PLIMCHECK
 70
     0
  9
$PEXTMIN
 10
1.0000000000000000E+20
 20
1.0000000000000000E+20
 30
1.0000000000000000E+20
  9
$PEXTMAX
 10
-1.0000000000000000E+20
 20
-1.0000000000000000E+20
 30
-1.0000000000000000E+20
  9
$PLIMMIN
 10
0.0
 20
0.0
  9
$PLIMMAX
 10
12.0
 20
9.0
  9
$UNITMODE
 70
     0
  9
$VISRETAIN
 70
     1
  9
$PLINEGEN
 70
     0
  9
$PSLTSCALE
 70
     1
  0
ENDSEC
  0
SECTION
  2
TABLES
  0
TABLE
  2
VPORT
 70
     1
  0
VPORT
  2
*ACTIVE
 70
     0
 10
0.0
 20
0.0
 11
1.0
 21
1.0
 12
-4.9583671162747889
 22
0.211688007078827
 13
0.0
 23
0.0
 14
1.0
 24
1.0
 15
0.0
 25
0.0
 16
0.0
 26
0.0
 36
24.7332413121020203
 17
103.0958557128905966
 27
-4.5597535845750086
 37
0.0
 40
8.0385466765908831
 41
2.4470774091627172
 42
50.0
 43
0.0
 44
0.0
 50
0.0
 51
0.0
 71
     0
 72
   100
 73
     1
 74
     1
 75
     0
 76
     0
 77
     0
 78
     0
  0
ENDTAB
  0
TABLE
  2
LTYPE
 70
     2
  0
LTYPE
  2
CONTINUOUS
 70
     0
  3
Solid line
 72
    65
 73
     0
 40
0.0
  0
LTYPE
  2
PHANTOM2
 70
     0
  3
___ _ _ ___ _ _ ___ _ _ ___ _ _
 72
    65
 73
     6
 40
1.25
 49
0.625
 49
-0.125
 49
0.125
 49
-0.125
 49
0.125
 49
-0.125
  0
ENDTAB
  0
TABLE
  2
LAYER
 70
     2
  0
LAYER
  2
0
 70
     0
 62
   255
  6
CONTINUOUS
  0
LAYER
  2
DEFPOINTS
 70
     0
 62
     7
  6
CONTINUOUS
  0
ENDTAB
  0
TABLE
  2
STYLE
 70
     1
  0
STYLE
  2
STANDARD
 70
     0
 40
0.0
 41
0.8
 50
0.0
 71
     0
 42
0.2
  3
txt
  4

  0
ENDTAB
  0
TABLE
  2
VIEW
 70
     0
  0
ENDTAB
  0
TABLE
  2
UCS
 70
     0
  0
ENDTAB
  0
TABLE
  2
APPID
 70
     9
  0
APPID
  2
ACAD
 70
     0
  0
APPID
  2
ACAD_MLEADERVER
 70
     0
  0
APPID
  2
ACAD_EXEMPT_FROM_CAD_STANDARDS
 70
     0
  0
APPID
  2
ACAD_DSTYLE_DIMJAG
 70
     0
  0
APPID
  2
ACAD_DSTYLE_DIMTALN
 70
     0
  0
APPID
  2
ACAD_NAV_VCDISPLAY
 70
     0
  0
APPID
  2
ACAECLAYERSTANDARD
 70
     0
  0
APPID
  2
ACCMTRANSPARENCY
 70
     0
  0
APPID
  2
ACDBATTR
 70
     0
  0
ENDTAB
  0
TABLE
  2
DIMSTYLE
 70
     1
  0
DIMSTYLE
  2
STANDARD
 70
     0
  3

  4

  5

  6

  7

 40
1.0
 41
0.1875
 42
0.0625
 43
0.38
 44
0.125
 45
0.0
 46
0.0
 47
0.01
 48
0.01
140
0.15625
141
0.09
142
0.0
143
25.3999999999999986
144
1.0
145
0.0
146
1.0
147
0.09
 71
     1
 72
     0
 73
     1
 74
     1
 75
     0
 76
     0
 77
     0
 78
     4
170
     0
171
     2
172
     0
173
     0
174
     0
175
     0
176
     0
177
     0
178
     0
  0
ENDTAB
  0
ENDSEC
  0
SECTION
  2
BLOCKS
  0
BLOCK
  8
0
  2
$MODEL_SPACE
 70
     0
 10
0.0
 20
0.0
 30
0.0
  3
$MODEL_SPACE
  1

  0
ENDBLK
  5
21
  8
0
  0
BLOCK
 67
     1
  8
0
  2
$PAPER_SPACE
 70
     0
 10
0.0
 20
0.0
 30
0.0
  3
$PAPER_SPACE
  1

  0
ENDBLK
  5
1D
 67
     1
  8
0
  0
ENDSEC
  0
SECTION
  2
ENTITIES
  0
ATTDEF
  5
383D
  8
DEFPOINTS
 10
98.1373388180644923
 20
-7.147836845450942
 30
0.0
 40
0.001
  1
K-72275BR-4ND
  3

  2
MODELNUMBER
 70
     0
1001
ACDBATTR
1070
     0
1070
     1
  0
ATTDEF
  5
383E
  8
DEFPOINTS
 10
98.1373388180644923
 20
-7.149503512117608
 30
0.0
 40
0.001
  1
ALEO
  3

  2
TRADENAME
 70
     0
1001
ACDBATTR
1070
     0
1070
     1
  0
ATTDEF
  5
383F
  8
DEFPOINTS
 10
98.1373388180644923
 20
-7.1511701787842732
 30
0.0
 40
0.001
  1
BATHROOM SINK FAUCET
  3

  2
PRODUCT
 70
     0
1001
ACDBATTR
1070
     0
1070
     1
  0
LINE
  5
7B97
  8
0
 10
99.130337464550081
 20
-7.1513822226791008
 30
0.0
 11
97.1443408950117799
 21
-7.1513822226791008
 31
0.0
  0
LINE
  5
7B98
  8
0
 10
97.1761800069647563
 20
-2.9860278919791021
 30
0.0
 11
99.0984983473088192
 21
-2.9860278919790981
 31
0.0
  0
LINE
  5
7B99
  8
0
 10
97.1606109356918637
 20
-2.8830792176018818
 30
0.0
 11
99.113938090670004
 21
-2.8830710545563218
 31
0.0
  0
ARC
  5
7B9A
  8
0
 10
98.1372730909638449
 20
-2.3712600157268291
 30
0.0
 40
0.1259842519999983
 50
90.0003335624669631
 51
180.0000000000005116
  0
ARC
  5
7B9B
  8
0
 10
98.1445100751279256
 20
-2.3867966449954419
 30
0.0
 40
0.1341241388196427
 50
173.3480564206780912
 51
221.9705393152358113
  0
ARC
  5
7B9C
  8
0
 10
98.1372866232447905
 20
-2.390921161872114
 30
0.0
 40
0.1260076690933382
 50
222.7727212156686107
 51
269.9904820764814986
  0
ARC
  5
7B9D
  8
0
 10
99.0941618341195039
 20
-3.0222486926275169
 30
0.0
 40
0.0364794702024773
 50
7.4000998528487472
 51
83.1727943325852124
  0
ARC
  5
7B9E
  8
0
 10
99.1035948572892238
 20
-1.5789205909669941
 30
0.0
 40
0.0196499617409216
 50
359.742291660780495
 51
92.4616240275107231
  0
ARC
  5
7B9F
  8
0
 10
-40102.4121583904925501
 20
-2.2466447737570041
 30
0.0
 40
40201.535405529270065
 50
359.9991237714074259
 51
0.0009520163232595
  0
ARC
  5
7BA0
  8
0
 10
99.084817698194982
 20
-2.862906050118013
 30
0.0
 40
0.0384523235831777
 50
333.1201852916527173
 51
2.1703602319396502
  0
ARC
  5
7BA1
  8
0
 10
99.1135631273760538
 20
-2.8761614437621539
 30
0.0
 40
0.0069197773662653
 50
273.1062186889546979
 51
323.3592835289093728
  0
ARC
  5
7BA2
  8
0
 10
99.0371937742101949
 20
-3.228507257803249
 30
0.0
 40
0.0401547203788588
 50
26.8083197694387607
 51
81.1778022569884712
  0
ARC
  5
7BA3
  8
0
 10
98.8857374356779815
 20
-3.3026508670628458
 30
0.0
 40
0.2087827786835573
 50
10.9017938721752099
 51
26.2228971678732812
  0
ARC
  5
7BA4
  8
0
 10
97.5375148531063303
 20
-3.5465502219077281
 30
0.0
 40
1.578877414968394
 50
2.6630927305660079
 51
10.3397946798916003
  0
ARC
  5
7BA5
  8
0
 10
92.2134980889194509
 20
-3.9395241578050788
 30
0.0
 40
6.916926811413477
 50
0.2880886171044773
 51
3.8657650315868208
  0
ARC
  5
7BA6
  8
0
 10
98.1372730923638841
 20
-2.3712600157268291
 30
0.0
 40
0.1259842519999983
 50
359.9999999999992042
 51
89.9996664375330369
  0
ARC
  5
7BA7
  8
0
 10
98.1300361081998318
 20
-2.3867966449954419
 30
0.0
 40
0.1341241388196427
 50
318.0294606847642171
 51
6.6519435793218467
  0
ARC
  5
7BA8
  8
0
 10
98.1372595600829811
 20
-2.390921161872114
 30
0.0
 40
0.1260076690933382
 50
270.0095179235185014
 51
317.2272787843314177
  0
LINE
  5
7BA9
  8
0
 10
97.2314155935506363
 20
-3.1888224695660821
 30
0.0
 11
99.0294219743101536
 21
-3.1881380567465252
 31
0.0
  0
ARC
  5
7BAA
  8
0
 10
98.9508626342915534
 20
-2.4312761157435889
 30
0.0
 40
0.8186922569797673
 50
83.5131513128969942
 51
89.6812194043112072
  0
ARC
  5
7BAB
  8
0
 10
99.0348919706723478
 20
-1.692251976295978
 30
0.0
 40
0.074906260836468
 50
62.5007527330657311
 51
83.5131513128953458
  0
ARC
  5
7BAC
  8
0
 10
99.044755729502711
 20
-1.6613727133858549
 30
0.0
 40
0.0433131157323133
 50
22.2856829468599287
 51
55.1938016154170796
  0
ARC
  5
7BAD
  8
0
 10
98.8737411187709938
 20
-1.728265046928797
 30
0.0
 40
0.2269402167146326
 50
6.3261858544986689
 51
21.5390474335170801
  0
ARC
  5
7BAE
  8
0
 10
97.0178214179850329
 20
-1.9517959117437049
 30
0.0
 40
2.09626367358476
 50
1.7375593163445311
 51
6.8091151714506823
  0
ARC
  5
7BAF
  8
0
 10
108.0346223156529959
 20
-1.7099082673086941
 30
0.0
 40
8.9232831288814918
 50
181.1450939081749141
 51
182.9603348195674926
  0
ARC
  5
7BB0
  8
0
 10
98.9004349712307942
 20
-1.608833921974085
 30
0.0
 40
0.055111248021346
 50
304.635214302823897
 51
356.0852019671930861
  0
ARC
  5
7BB1
  8
0
 10
98.7308748812096439
 20
-1.3633654846088661
 30
0.0
 40
0.3534489390201511
 50
283.1312095437158973
 51
304.6352143028240107
  0
ARC
  5
7BB2
  8
0
 10
98.396086605559546
 20
-0.1857728641989951
 30
0.0
 40
1.577393504728035
 50
277.5158978265542942
 51
285.2568414708443925
  0
ARC
  5
7BB3
  8
0
 10
98.2289838603167738
 20
0.9148864127305671
 30
0.0
 40
2.6905413432253851
 50
274.3397482406230097
 51
277.9779983758220965
  0
LINE
  5
7BB4
  8
0
 10
99.130337464550081
 20
-7.1513822226791008
 30
0.0
 11
99.130337464550081
 21
-3.0175502344544709
 31
0.0
  0
LINE
  5
7BB5
  8
0
 10
98.9554176270171411
 20
-1.6125965302646921
 30
0.0
 11
97.3191313993105638
 21
-1.6125965302646921
 31
0.0
  0
ARC
  5
7BB6
  8
0
 10
97.1805165268553139
 20
-3.0222486933271582
 30
0.0
 40
0.0364794716937706
 50
96.8272159873107228
 51
172.5998993432559985
  0
ARC
  5
7BB7
  8
0
 10
97.1709541690384668
 20
-1.5789205909669941
 30
0.0
 40
0.0196499617409216
 50
87.5383759724892769
 51
180.257708339219306
  0
ARC
  5
7BB8
  8
0
 10
40298.6867074168112595
 20
-2.2466447737570041
 30
0.0
 40
40201.535405529270065
 50
179.9990479836766895
 51
180.0008762285922899
  0
ARC
  5
7BB9
  8
0
 10
97.1897313281327513
 20
-2.862906050118013
 30
0.0
 40
0.0384523235831777
 50
177.8296397680603036
 51
206.8798147083473111
  0
ARC
  5
7BBA
  8
0
 10
97.1610148863496761
 20
-2.8761278568186608
 30
0.0
 40
0.0069630878834355
 50
216.7201248820936996
 51
266.6742241024924169
  0
ARC
  5
7BBB
  8
0
 10
97.3435098811369102
 20
-3.2897906680547391
 30
0.0
 40
0.1618832117508849
 50
147.0068945729063898
 51
171.2274255986498872
  0
ARC
  5
7BBC
  8
0
 10
98.8962727315217762
 20
-3.5664292856510791
 30
0.0
 40
1.739056879858216
 50
170.0219516014745977
 51
177.7095458823100955
  0
ARC
  5
7BBD
  8
0
 10
124.7847676442781051
 20
-4.667372508596042
 30
0.0
 40
27.6509455729819607
 50
177.5739848829236109
 51
178.4195527919212907
  0
ARC
  5
7BBE
  8
0
 10
97.3236863920361515
 20
-2.4312761157435889
 30
0.0
 40
0.8186922569797673
 50
90.318780595688807
 51
96.4868486871030342
  0
ARC
  5
7BBF
  8
0
 10
97.2396570556553428
 20
-1.692251976295978
 30
0.0
 40
0.074906260836468
 50
96.4868486871046827
 51
117.499247266934205
  0
ARC
  5
7BC0
  8
0
 10
97.2297932968249796
 20
-1.6613727133858549
 30
0.0
 40
0.0433131157323133
 50
124.8061983845829985
 51
157.7143170531400926
  0
ARC
  5
7BC1
  8
0
 10
97.4008079075567537
 20
-1.728265046928797
 30
0.0
 40
0.2269402167146326
 50
158.460952566482888
 51
173.6738141455012965
  0
ARC
  5
7BC2
  8
0
 10
99.2567276083426719
 20
-1.9517959117437049
 30
0.0
 40
2.09626367358476
 50
173.1908848285494003
 51
178.2624406836555124
  0
ARC
  5
7BC3
  8
0
 10
88.2399267106746521
 20
-1.7099082673086941
 30
0.0
 40
8.9232831288814918
 50
357.0396651804321095
 51
358.8549060918247164
  0
ARC
  5
7BC4
  8
0
 10
97.3741140550969391
 20
-1.608833921974085
 30
0.0
 40
0.055111248021346
 50
183.9147980328066012
 51
235.364785697176103
  0
ARC
  5
7BC5
  8
0
 10
97.5436741451180609
 20
-1.3633654846088661
 30
0.0
 40
0.3534489390201511
 50
235.364785697176103
 51
256.8687904562842164
  0
ARC
  5
7BC6
  8
0
 10
97.8784624207681446
 20
-0.1857728641989951
 30
0.0
 40
1.577393504728035
 50
254.7431585291556075
 51
262.4841021734457058
  0
ARC
  5
7BC7
  8
0
 10
98.0455651660109453
 20
0.9148864127305671
 30
0.0
 40
2.6905413432253851
 50
262.0220016241779035
 51
265.6602517593769903
  0
LINE
  5
7BC8
  8
0
 10
97.1443408950117799
 20
-7.1513822226791008
 30
0.0
 11
97.1443408950117799
 21
-3.0175502344544709
 31
0.0
  0
ARC
  5
7BC9
  8
0
 10
98.1372745131638737
 20
-33.042410634008867
 30
0.0
 40
31.4979222717808902
 50
88.2434908909005173
 51
91.7565091090994969
  0
ARC
  5
7BCA
  8
0
 10
98.1372745131638737
 20
2.0117668423051782
 30
0.0
 40
3.7912259798665282
 50
265.5326258210989749
 51
274.4673741789010251
  0
ARC
  5
7BCB
  8
0
 10
98.6555149039382826
 20
-2.992938204809712
 30
0.0
 40
0.3955165649003603
 50
1.001100691413038
 51
16.1277875748229
  0
ARC
  5
7BCC
  8
0
 10
97.6297783890529729
 20
-2.9948620358239419
 30
0.0
 40
0.4062230260711718
 50
164.0268996678263989
 51
178.7538887987387
  0
ARC
  5
7BCD
  8
0
 10
97.2363877755807238
 20
-3.2262997043784511
 30
0.0
 40
0.0378056308414747
 50
97.5574139065200541
 51
139.2847592475687861
  0
ARC
  5
7BCE
  8
0
 10
99.0250287743362207
 20
-3.417943880309724
 30
0.0
 40
0.2298478121487599
 50
85.427526218701189
 51
88.9048094763288645
  0
ARC
  5
7BCF
  8
0
 10
99.252274287330593
 20
-2.4514322091477752
 30
0.0
 40
2.030856740773658
 50
201.2887996113969962
 51
215.0176020067650882
  0
ARC
  5
7BD0
  8
0
 10
96.7969778276367947
 20
-4.355202385971511
 30
0.0
 40
1.0828789855969361
 50
38.0712248043595167
 51
42.9917454186581764
  0
ARC
  5
7BD1
  8
0
 10
98.1253559701041667
 20
-4.827114461598069
 30
0.0
 40
1.331315606082619
 50
89.4847960807611145
 51
104.2383175395870012
  0
ARC
  5
7BD2
  8
0
 10
97.9086999598125232
 20
-3.9603418680833529
 30
0.0
 40
0.4378931560832509
 50
104.6553292012535934
 51
121.202918872304906
  0
ARC
  5
7BD3
  8
0
 10
97.7488457171922107
 20
-3.6930756332286201
 30
0.0
 40
0.1264863213576735
 50
121.9881332953004005
 51
145.8128607095439122
  0
ARC
  5
7BD4
  8
0
 10
97.6895755140070463
 20
-3.6515950530414938
 30
0.0
 40
0.054159171693264
 50
146.8805941513219011
 51
181.8893788764723922
  0
ARC
  5
7BD5
  8
0
 10
97.6948335141550217
 20
-3.6488534144566018
 30
0.0
 40
0.0595600396602703
 50
184.3593558664638863
 51
216.1274823724641863
  0
ARC
  5
7BD6
  8
0
 10
97.6948335141550217
 20
-3.6488534144566018
 30
0.0
 40
0.0595600396602703
 50
220.2572421286392057
 51
220.3803176414755001
  0
ARC
  5
7BD7
  8
0
 10
98.1356606041941859
 20
-5.0196926082960136
 30
0.0
 40
1.5207994076879221
 50
89.9362395628817808
 51
95.9523013844696067
  0
ARC
  5
7BD8
  8
0
 10
98.083722923127624
 20
-4.57571670333488
 30
0.0
 40
1.0738458959381829
 50
95.6525934756322442
 51
104.3499793595303942
  0
ARC
  5
7BD9
  8
0
 10
97.9413164991920553
 20
-4.0324282629532036
 30
0.0
 40
0.5122242118042371
 50
103.9794573245707028
 51
116.2191515267694939
  0
ARC
  5
7BDA
  8
0
 10
97.7997355958564043
 20
-3.7458116970597728
 30
0.0
 40
0.1925465399036056
 50
116.1046160108239036
 51
134.1991292949676904
  0
ARC
  5
7BDB
  8
0
 10
97.7108262693494112
 20
-3.6558590596087912
 30
0.0
 40
0.066082105326895
 50
133.3059373276142878
 51
171.2677126747678074
  0
ARC
  5
7BDC
  8
0
 10
97.7027511576255847
 20
-3.650001267361656
 30
0.0
 40
0.0573930313333118
 50
175.8287404015493962
 51
225.5432603670406024
  0
ARC
  5
7BDD
  8
0
 10
97.8021720981871567
 20
-3.554352536227507
 30
0.0
 40
0.1953370782314508
 50
224.3772217709293102
 51
245.2454532554050104
  0
ARC
  5
7BDE
  8
0
 10
97.9769994856221871
 20
-3.173274984826925
 30
0.0
 40
0.6146037102178902
 50
245.3206663795531028
 51
259.2772818855751211
  0
ARC
  5
7BDF
  8
0
 10
97.7543481557408001
 20
-3.6012998925701609
 30
0.0
 40
0.1357293237212995
 50
219.4020884273334957
 51
235.9044380043642946
  0
ARC
  5
7BE0
  8
0
 10
97.8824068324879164
 20
-3.3970646771739661
 30
0.0
 40
0.3767383717035273
 50
237.1886272086379961
 51
252.3050831641683089
  0
ARC
  5
7BE1
  8
0
 10
98.047375650738573
 20
-2.891893029353398
 30
0.0
 40
0.908158803599875
 50
252.076841561911408
 51
258.7005966037299913
  0
ARC
  5
7BE2
  8
0
 10
97.917173564831927
 20
-3.4723570788482498
 30
0.0
 40
0.2765813593475437
 50
234.7203321711043031
 51
253.3191378066333925
  0
ARC
  5
7BE3
  8
0
 10
97.8015366721321158
 20
-3.634711507377637
 30
0.0
 40
0.0772589150250006
 50
202.711917197238904
 51
235.1865144605415878
  0
ARC
  5
7BE4
  8
0
 10
97.7683261869406834
 20
-3.650941828578778
 30
0.0
 40
0.0404143420225526
 50
157.4646751616155029
 51
199.6634149464640871
  0
ARC
  5
7BE5
  8
0
 10
97.797417240477472
 20
-3.6648987189497051
 30
0.0
 40
0.0726540074251925
 50
128.4031823976798137
 51
156.0908159708941128
  0
ARC
  5
7BE6
  8
0
 10
97.9138555017964336
 20
-3.819449734955735
 30
0.0
 40
0.2661422629526926
 50
104.9168441050735936
 51
127.3788433457680043
  0
ARC
  5
7BE7
  8
0
 10
98.0844160298811403
 20
-4.364804633161393
 30
0.0
 40
0.8373805182421953
 50
95.2065145642852144
 51
106.5885884940461068
  0
ARC
  5
7BE8
  8
0
 10
98.1363516371920639
 20
-4.7988664036969881
 30
0.0
 40
1.2744239938683231
 50
89.9549264426626252
 51
95.7609491457481283
  0
ARC
  5
7BE9
  8
0
 10
98.1361178139556642
 20
-4.7244473785487742
 30
0.0
 40
1.192759303512865
 50
89.9031134328315034
 51
96.2230519975242515
  0
ARC
  5
7BEA
  8
0
 10
98.0877390717907076
 20
-4.3301562432204923
 30
0.0
 40
0.7955653401488889
 50
95.8375479728468349
 51
106.0764015848926931
  0
ARC
  5
7BEB
  8
0
 10
97.9362552307902945
 20
-3.8256580730023901
 30
0.0
 40
0.2689114346004534
 50
104.8288632608559965
 51
128.0827630938366894
  0
ARC
  5
7BEC
  8
0
 10
97.8048589358040346
 20
-3.655500289794634
 30
0.0
 40
0.0539532721057593
 50
129.7061055340026883
 51
170.9321380989752868
  0
ARC
  5
7BED
  8
0
 10
97.7984848172692836
 20
-3.6496401301118948
 30
0.0
 40
0.0469792759861681
 50
176.7747781373822988
 51
231.8338762779561932
  0
ARC
  5
7BEE
  8
0
 10
97.898674539373971
 20
-3.5426454778089682
 30
0.0
 40
0.1934268746653382
 50
228.0826844866965928
 51
251.0728603029594979
  0
ARC
  5
7BEF
  8
0
 10
98.1330649590063757
 20
-4.4363102409870017
 30
0.0
 40
0.8819190423157333
 50
89.7213388499857558
 51
101.675953656259594
  0
ARC
  5
7BF0
  8
0
 10
98.0037899063461424
 20
-3.8572065697166922
 30
0.0
 40
0.2887892021526195
 50
99.8100273859954683
 51
121.4537737907827051
  0
ARC
  5
7BF1
  8
0
 10
97.8923894757456736
 20
-3.6736475080307511
 30
0.0
 40
0.0740759456454315
 50
122.035150755542503
 51
149.0208222923832011
  0
ARC
  5
7BF2
  8
0
 10
97.8569015199750538
 20
-3.6510113068428831
 30
0.0
 40
0.0320190605968041
 50
151.0623729068348098
 51
188.1191225629968073
  0
LINE
  5
7BF3
  8
0
 10
97.8252033999809356
 20
-3.655533411479102
 30
0.0
 11
97.8374541600809522
 21
-3.7355456602791008
 31
0.0
  0
ARC
  5
7BF4
  8
0
 10
98.1347532079942795
 20
-4.5278891712104441
 30
0.0
 40
0.8895129913578653
 50
89.7681143090994453
 51
98.4735342891688248
  0
ARC
  5
7BF5
  8
0
 10
98.0612657994195303
 20
-4.0882061071707421
 30
0.0
 40
0.4438711862099849
 50
97.4541458613388869
 51
113.196934704017707
  0
ARC
  5
7BF6
  8
0
 10
97.9387675453482842
 20
-3.7994997090688978
 30
0.0
 40
0.1302585284655586
 50
113.6914764318952962
 51
132.118145508112093
  0
ARC
  5
7BF7
  8
0
 10
97.8780678838488427
 20
-3.7335804109900179
 30
0.0
 40
0.0406612439930589
 50
130.9692960309423881
 51
182.770313061781593
  0
ARC
  5
7BF8
  8
0
 10
97.903322691480156
 20
-3.7240845283699469
 30
0.0
 40
0.0668582154512728
 50
189.8706491324606134
 51
232.5287906353750031
  0
ARC
  5
7BF9
  8
0
 10
97.9838581537811137
 20
-3.6289912956732429
 30
0.0
 40
0.1914207544529614
 50
230.712661712839207
 51
254.7395590947934068
  0
ARC
  5
7BFA
  8
0
 10
98.1080523360915748
 20
-3.2304734705793718
 30
0.0
 40
0.6087582942091816
 50
253.3349423849294055
 51
265.8481093757325198
  0
ARC
  5
7BFB
  8
0
 10
98.1374260058867947
 20
-2.948875939480156
 30
0.0
 40
0.8917879815845342
 50
265.2757313920407114
 51
272.5549563520172001
  0
ARC
  5
7BFC
  8
0
 10
98.1368859548209258
 20
-4.4768689856530086
 30
0.0
 40
0.8016524029831108
 50
88.4554405268455213
 51
97.0712678486944753
  0
ARC
  5
7BFD
  8
0
 10
98.0909843181348293
 20
-4.146122211863017
 30
0.0
 40
0.4677956899143405
 50
96.4789052278950265
 51
109.2968630501788994
  0
ARC
  5
7BFE
  8
0
 10
97.9906484495707133
 20
-3.8576278870933098
 30
0.0
 40
0.1623532400930267
 50
109.5219185306219032
 51
125.7349824094737016
  0
ARC
  5
7BFF
  8
0
 10
97.9243141830258423
 20
-3.7663288296356092
 30
0.0
 40
0.0495044266388658
 50
125.1293102995351063
 51
154.8412172658761108
  0
ARC
  5
7C00
  8
0
 10
97.9040158838942745
 20
-3.7557050218944599
 30
0.0
 40
0.0266335619931402
 50
156.9640940696498888
 51
214.0520880016943863
  0
ARC
  5
7C01
  8
0
 10
97.9376280254334119
 20
-3.7326016214461002
 30
0.0
 40
0.0674196197395104
 50
214.3247494235596946
 51
240.4279335820313008
  0
ARC
  5
7C02
  8
0
 10
98.0423045372674267
 20
-3.5382911645793209
 30
0.0
 40
0.2881189859561025
 50
241.3934113426959982
 51
258.138778753096517
  0
LINE
  5
7C03
  8
0
 10
98.1185029180003738
 20
-3.6754273850570272
 30
0.0
 11
98.1275119725154781
 21
-3.6904757019701231
 31
0.0
  0
LINE
  5
7C04
  8
0
 10
98.1275119725154781
 20
-3.6904757019701231
 30
0.0
 11
98.1471964343809447
 21
-3.6904757020791021
 31
0.0
  0
LINE
  5
7C05
  8
0
 10
98.1471964343809447
 20
-3.6904757020791021
 30
0.0
 11
98.1561932812536782
 21
-3.675449119194349
 31
0.0
  0
LINE
  5
7C06
  8
0
 10
98.1171404243728347
 20
-3.6754597960152058
 30
0.0
 11
98.1081964343809432
 21
-3.6894297532791009
 31
0.0
  0
LINE
  5
7C07
  8
0
 10
98.1081964343809432
 20
-3.6894297532791009
 30
0.0
 11
98.0885119724809442
 21
-3.6872874156791009
 31
0.0
  0
LINE
  5
7C08
  8
0
 10
98.0885119724809442
 20
-3.6872874156791009
 30
0.0
 11
98.082719825386846
 21
-3.677048627303257
 31
0.0
  0
LINE
  5
7C09
  8
0
 10
98.1178542033754155
 20
-3.7089196917056091
 30
0.0
 11
98.1275119724809315
 21
-3.694895979779103
 31
0.0
  0
LINE
  5
7C0A
  8
0
 10
98.1275119724809315
 20
-3.694895979779103
 30
0.0
 11
98.1471964343623426
 21
-3.694895979789711
 31
0.0
  0
LINE
  5
7C0B
  8
0
 10
98.1471964343623426
 20
-3.694895979789711
 30
0.0
 11
98.1568542034809468
 21
-3.708919691752353
 31
0.0
  0
LINE
  5
7C0C
  8
0
 10
98.1568542034809468
 20
-3.708919691752353
 30
0.0
 11
98.1568542034809468
 21
-3.709450434279101
 31
0.0
  0
LINE
  5
7C0D
  8
0
 10
98.1568542034809468
 20
-3.709450434279101
 30
0.0
 11
98.1471963901209961
 21
-3.7232212272457521
 31
0.0
  0
LINE
  5
7C0E
  8
0
 10
98.1471963901209961
 20
-3.7232212272457521
 30
0.0
 11
98.1275119724809315
 21
-3.7232211668791022
 31
0.0
  0
LINE
  5
7C0F
  8
0
 10
98.1275119724809315
 20
-3.7232211668791022
 30
0.0
 11
98.1178542034809453
 21
-3.709450434279101
 31
0.0
  0
LINE
  5
7C10
  8
0
 10
98.1178542034809453
 20
-3.709450434279101
 30
0.0
 11
98.1178542034809453
 21
-3.7089196918631888
 31
0.0
  0
LINE
  5
7C11
  8
0
 10
98.117854203413529
 20
-3.709450434293359
 30
0.0
 11
98.1081964344226094
 21
-3.7222377891047751
 31
0.0
  0
LINE
  5
7C12
  8
0
 10
98.1081964344226094
 20
-3.7222377891047751
 30
0.0
 11
98.0885119724975851
 21
-3.720224763381232
 31
0.0
  0
LINE
  5
7C13
  8
0
 10
98.0885119724975851
 20
-3.720224763381232
 30
0.0
 11
98.0788542034809154
 21
-3.7053594382791011
 31
0.0
  0
LINE
  5
7C14
  8
0
 10
98.0788542034809154
 20
-3.7053594382791011
 30
0.0
 11
98.0788542034184445
 21
-3.7048246123063762
 31
0.0
  0
LINE
  5
7C15
  8
0
 10
98.0788542034184445
 20
-3.7048246123063762
 30
0.0
 11
98.0885119724883623
 21
-3.6917361007752758
 31
0.0
  0
LINE
  5
7C16
  8
0
 10
98.0885119724883623
 20
-3.6917361007752758
 30
0.0
 11
98.1081964343809432
 21
-3.693859289871273
 31
0.0
  0
LINE
  5
7C17
  8
0
 10
98.1081964343809432
 20
-3.693859289871273
 30
0.0
 11
98.1178542034809453
 21
-3.7089196915523761
 31
0.0
  0
LINE
  5
7C18
  8
0
 10
98.0788542033735951
 20
-3.7053594382840789
 30
0.0
 11
98.0691964344198084
 21
-3.7172401964222819
 31
0.0
  0
LINE
  5
7C19
  8
0
 10
98.0691964344198084
 20
-3.7172401964222819
 30
0.0
 11
98.0495119725560187
 21
-3.7131423928967249
 31
0.0
  0
LINE
  5
7C1A
  8
0
 10
98.0495119725560187
 20
-3.7131423928967249
 30
0.0
 11
98.0398542034809282
 21
-3.6970234245791032
 31
0.0
  0
LINE
  5
7C1B
  8
0
 10
98.0398542034809282
 20
-3.6970234245791032
 30
0.0
 11
98.0398542034809282
 21
-3.6964799606620748
 31
0.0
  0
LINE
  5
7C1C
  8
0
 10
98.0398542034809282
 20
-3.6964799606620748
 30
0.0
 11
98.0495119724537147
 21
-3.684254775243772
 31
0.0
  0
LINE
  5
7C1D
  8
0
 10
98.0495119724537147
 20
-3.684254775243772
 30
0.0
 11
98.0691964344594709
 21
-3.688585605244719
 31
0.0
  0
LINE
  5
7C1E
  8
0
 10
98.0691964344594709
 20
-3.688585605244719
 30
0.0
 11
98.0788542034809154
 21
-3.704824612221695
 31
0.0
  0
LINE
  5
7C1F
  8
0
 10
98.0398542034809282
 20
-3.6970234245791032
 30
0.0
 11
98.0301964344739503
 21
-3.7080470306656981
 31
0.0
  0
LINE
  5
7C20
  8
0
 10
98.0301964344739503
 20
-3.7080470306656981
 30
0.0
 11
98.0105119724809271
 21
-3.7017073881791021
 31
0.0
  0
LINE
  5
7C21
  8
0
 10
98.0105119724809271
 20
-3.7017073881791021
 30
0.0
 11
98.0022764865649236
 21
-3.6868143324176499
 31
0.0
  0
LINE
  5
7C22
  8
0
 10
98.0398542034809282
 20
-3.6964799606620748
 30
0.0
 11
98.0318856875693143
 21
-3.6820746287772801
 31
0.0
  0
LINE
  5
7C23
  8
0
 10
98.1275120189795871
 20
-3.7269743083110152
 30
0.0
 11
98.1471964211861234
 21
-3.7269738504864778
 31
0.0
  0
LINE
  5
7C24
  8
0
 10
98.1471964211861234
 20
-3.7269738504864778
 30
0.0
 11
98.1568542034809468
 21
-3.7388481792791008
 31
0.0
  0
LINE
  5
7C25
  8
0
 10
98.1568542034809468
 20
-3.7388481792791008
 30
0.0
 11
98.1568542034809468
 21
-3.7392989067812459
 31
0.0
  0
LINE
  5
7C26
  8
0
 10
98.1568542034809468
 20
-3.7392989067812459
 30
0.0
 11
98.1471964344467551
 21
-3.751026355064047
 31
0.0
  0
LINE
  5
7C27
  8
0
 10
98.1471964344467551
 20
-3.751026355064047
 30
0.0
 11
98.127511972515137
 21
-3.751026355064047
 31
0.0
  0
LINE
  5
7C28
  8
0
 10
98.127511972515137
 20
-3.751026355064047
 30
0.0
 11
98.1178542034809453
 21
-3.7392989067791018
 31
0.0
  0
LINE
  5
7C29
  8
0
 10
98.1178542034809453
 20
-3.7392989067791018
 30
0.0
 11
98.1178542034997179
 21
-3.7388481792077379
 31
0.0
  0
LINE
  5
7C2A
  8
0
 10
98.1178542034997179
 20
-3.7388481792077379
 30
0.0
 11
98.1275120189795871
 21
-3.7269743083110152
 31
0.0
  0
LINE
  5
7C2B
  8
0
 10
98.1178542034809453
 20
-3.7392989067791018
 30
0.0
 11
98.1081964343809432
 21
-3.7500858041791019
 31
0.0
  0
LINE
  5
7C2C
  8
0
 10
98.1081964343809432
 20
-3.7500858041791019
 30
0.0
 11
98.0888728613809349
 21
-3.748205303979101
 31
0.0
  0
LINE
  5
7C2D
  8
0
 10
98.0888728613809349
 20
-3.748205303979101
 30
0.0
 11
98.0788542034456157
 21
-3.7354146634995762
 31
0.0
  0
LINE
  5
7C2E
  8
0
 10
98.0788542034456157
 20
-3.7354146634995762
 30
0.0
 11
98.0788542034809154
 21
-3.7349611410791019
 31
0.0
  0
LINE
  5
7C2F
  8
0
 10
98.0788542034809154
 20
-3.7349611410791019
 30
0.0
 11
98.088511972420207
 21
-3.7239973269403959
 31
0.0
  0
LINE
  5
7C30
  8
0
 10
98.088511972420207
 20
-3.7239973269403959
 30
0.0
 11
98.1081964345351452
 21
-3.725997306381144
 31
0.0
  0
LINE
  5
7C31
  8
0
 10
98.1081964345351452
 20
-3.725997306381144
 30
0.0
 11
98.1178542034916887
 21
-3.738848179197515
 31
0.0
  0
LINE
  5
7C32
  8
0
 10
98.0398542034604787
 20
-3.7270553575832608
 30
0.0
 11
98.0495119725139261
 21
-3.7169620836065218
 31
0.0
  0
LINE
  5
7C33
  8
0
 10
98.0495119725139261
 20
-3.7169620836065218
 30
0.0
 11
98.0691964343809133
 21
-3.7210323834253329
 31
0.0
  0
LINE
  5
7C34
  8
0
 10
98.0691964343809133
 20
-3.7210323834253329
 30
0.0
 11
98.0788542038975919
 21
-3.734961140606099
 31
0.0
  0
LINE
  5
7C35
  8
0
 10
98.0788542034809154
 20
-3.7354146635446881
 30
0.0
 11
98.0691964343809133
 21
-3.7453094277791008
 31
0.0
  0
LINE
  5
7C36
  8
0
 10
98.0691964343809133
 20
-3.7453094277791008
 30
0.0
 11
98.0495119724120769
 21
-3.7413975811778371
 31
0.0
  0
LINE
  5
7C37
  8
0
 10
98.0495119724120769
 20
-3.7413975811778371
 30
0.0
 11
98.0398542034809282
 21
-3.7275147588791011
 31
0.0
  0
LINE
  5
7C38
  8
0
 10
98.0398542034809282
 20
-3.7275147588791011
 30
0.0
 11
98.0398542034809282
 21
-3.7270553577641241
 31
0.0
  0
LINE
  5
7C39
  8
0
 10
98.0008542034982355
 20
-3.7153127851927401
 30
0.0
 11
98.0008542035242556
 21
-3.7148437533314729
 31
0.0
  0
LINE
  5
7C3A
  8
0
 10
98.0008542035242556
 20
-3.7148437533314729
 30
0.0
 11
98.0105119724809271
 21
-3.705607453279101
 31
0.0
  0
LINE
  5
7C3B
  8
0
 10
98.0105119724809271
 20
-3.705607453279101
 30
0.0
 11
98.030196434380926
 21
-3.7119018585607271
 31
0.0
  0
LINE
  5
7C3C
  8
0
 10
98.030196434380926
 20
-3.7119018585607271
 30
0.0
 11
98.0398542034809282
 21
-3.7270553575618859
 31
0.0
  0
LINE
  5
7C3D
  8
0
 10
98.0398542034809282
 20
-3.7275147588791011
 30
0.0
 11
98.0301964343961032
 21
-3.7365394110361212
 31
0.0
  0
LINE
  5
7C3E
  8
0
 10
98.0301964343961032
 20
-3.7365394110361212
 30
0.0
 11
98.0105119724809271
 21
-3.730504515679101
 31
0.0
  0
LINE
  5
7C3F
  8
0
 10
98.0105119724809271
 20
-3.730504515679101
 30
0.0
 11
98.0008542034982355
 21
-3.7153127851927401
 31
0.0
  0
LINE
  5
7C40
  8
0
 10
98.0008542037891743
 20
-3.7153127856504282
 30
0.0
 11
97.9911964345390629
 21
-3.723462367699323
 31
0.0
  0
LINE
  5
7C41
  8
0
 10
97.9911964345390629
 20
-3.723462367699323
 30
0.0
 11
97.9715119724295249
 21
-3.715069202206247
 31
0.0
  0
LINE
  5
7C42
  8
0
 10
97.9715119724295249
 20
-3.715069202206247
 30
0.0
 11
97.9616697415258244
 21
-3.6979747324193388
 31
0.0
  0
LINE
  5
7C43
  8
0
 10
97.9616697415258244
 20
-3.6979747324193388
 30
0.0
 11
97.9643409399468936
 21
-3.6957953724856831
 31
0.0
  0
LINE
  5
7C44
  8
0
 10
98.0008542034809267
 20
-3.7148437533791019
 30
0.0
 11
97.9911964345355955
 21
-3.6982498588647199
 31
0.0
  0
LINE
  5
7C45
  8
0
 10
97.9911964345355955
 20
-3.6982498588647199
 30
0.0
 11
97.9775055760244271
 21
-3.6922991377565171
 31
0.0
  0
LINE
  5
7C46
  8
0
 10
98.117854205294563
 20
-3.7642128398003631
 30
0.0
 11
98.127511972428394
 21
-3.7542083307189582
 31
0.0
  0
LINE
  5
7C47
  8
0
 10
98.127511972428394
 20
-3.7542083307189582
 30
0.0
 11
98.1471964344478494
 21
-3.7542083307080518
 31
0.0
  0
LINE
  5
7C48
  8
0
 10
98.1471964344478494
 20
-3.7542083307080518
 30
0.0
 11
98.1568542034228244
 21
-3.7642128416579932
 31
0.0
  0
LINE
  5
7C49
  8
0
 10
98.1568542034228244
 20
-3.7642128416579932
 30
0.0
 11
98.1568542034809468
 21
-3.764593422579102
 31
0.0
  0
LINE
  5
7C4A
  8
0
 10
98.1568542034809468
 20
-3.764593422579102
 30
0.0
 11
98.1471964343809447
 21
-3.7745158540791008
 31
0.0
  0
LINE
  5
7C4B
  8
0
 10
98.1471964343809447
 20
-3.7745158540791008
 30
0.0
 11
98.1275119725018641
 21
-3.7745158540236678
 31
0.0
  0
LINE
  5
7C4C
  8
0
 10
98.1275119725018641
 20
-3.7745158540236678
 30
0.0
 11
98.1178542034538026
 21
-3.7645934225294719
 31
0.0
  0
LINE
  5
7C4D
  8
0
 10
98.1178542034538026
 20
-3.7645934225294719
 30
0.0
 11
98.117854205294563
 21
-3.7642128398003631
 31
0.0
  0
LINE
  5
7C4E
  8
0
 10
98.1196881944025847
 20
-3.7839884258803771
 30
0.0
 11
98.1275119725147249
 21
-3.7771862900991549
 31
0.0
  0
LINE
  5
7C4F
  8
0
 10
98.1275119725147249
 20
-3.7771862900991549
 30
0.0
 11
98.1471964344341359
 21
-3.7771862900994639
 31
0.0
  0
LINE
  5
7C50
  8
0
 10
98.1471964344341359
 20
-3.7771862900994639
 30
0.0
 11
98.1550202125411033
 21
-3.7839884258552541
 31
0.0
  0
LINE
  5
7C51
  8
0
 10
98.1550202125411033
 20
-3.7839884258552541
 30
0.0
 11
98.1196881944571544
 21
-3.7839884258567928
 31
0.0
  0
LINE
  5
7C52
  8
0
 10
98.0806881944210147
 20
-3.7805029864024
 30
0.0
 11
98.0885119724639054
 21
-3.77441796353328
 31
0.0
  0
LINE
  5
7C53
  8
0
 10
98.0885119724639054
 20
-3.77441796353328
 30
0.0
 11
98.1081964343959356
 21
-3.7762773768367661
 31
0.0
  0
LINE
  5
7C54
  8
0
 10
98.1081964343959356
 20
-3.7762773768367661
 30
0.0
 11
98.1160202124801231
 21
-3.7838171880421601
 31
0.0
  0
ARC
  5
7C55
  8
0
 10
98.1373103637523343
 20
-3.366856514650534
 30
0.0
 40
0.417503860643889
 50
262.2054860320275793
 51
267.0769968290779843
  0
LINE
  5
7C56
  8
0
 10
98.0788542034142381
 20
-3.760467433695756
 30
0.0
 11
98.0885119724999157
 21
-3.7513563423360661
 31
0.0
  0
LINE
  5
7C57
  8
0
 10
98.0885119724999157
 20
-3.7513563423360661
 30
0.0
 11
98.1081964344384261
 21
-3.7532720917475202
 31
0.0
  0
LINE
  5
7C58
  8
0
 10
98.1081964344384261
 20
-3.7532720917475202
 30
0.0
 11
98.117854205294563
 21
-3.7642128398003631
 31
0.0
  0
LINE
  5
7C59
  8
0
 10
98.1178542034809453
 20
-3.764593422579102
 30
0.0
 11
98.1081964344406856
 21
-3.7736041289342221
 31
0.0
  0
LINE
  5
7C5A
  8
0
 10
98.1081964344406856
 20
-3.7736041289342221
 30
0.0
 11
98.0885119724809442
 21
-3.771738920579101
 31
0.0
  0
LINE
  5
7C5B
  8
0
 10
98.0885119724809442
 20
-3.771738920579101
 30
0.0
 11
98.0788542034809154
 21
-3.760849890483378
 31
0.0
  0
LINE
  5
7C5C
  8
0
 10
98.0788542034809154
 20
-3.760849890483378
 30
0.0
 11
98.0788542034809154
 21
-3.7604674336328321
 31
0.0
  0
LINE
  5
7C5D
  8
0
 10
98.0788542034809154
 20
-3.760849890483378
 30
0.0
 11
98.0691964344112534
 21
-3.7689763741326381
 31
0.0
  0
LINE
  5
7C5E
  8
0
 10
98.0691964344112534
 20
-3.7689763741326381
 30
0.0
 11
98.0495119724610191
 21
-3.7651891021649089
 31
0.0
  0
LINE
  5
7C5F
  8
0
 10
98.0495119724610191
 20
-3.7651891021649089
 30
0.0
 11
98.0398542034809282
 21
-3.7532454180791008
 31
0.0
  0
LINE
  5
7C60
  8
0
 10
98.0398542034809282
 20
-3.7532454180791008
 30
0.0
 11
98.0398542035042908
 21
-3.7528590299944322
 31
0.0
  0
LINE
  5
7C61
  8
0
 10
98.0398542035042908
 20
-3.7528590299944322
 30
0.0
 11
98.0495119725282649
 21
-3.7446247784652891
 31
0.0
  0
LINE
  5
7C62
  8
0
 10
98.0495119725282649
 20
-3.7446247784652891
 30
0.0
 11
98.0691964344297702
 21
-3.7485179609171908
 31
0.0
  0
LINE
  5
7C63
  8
0
 10
98.0691964344297702
 20
-3.7485179609171908
 30
0.0
 11
98.0788542034809154
 21
-3.7604674336328321
 31
0.0
  0
ARC
  5
7C64
  8
0
 10
98.1370330699179334
 20
-3.3686605340910498
 30
0.0
 40
0.4156786513966262
 50
256.739922218302695
 51
261.6990156651954749
  0
LINE
  5
7C65
  8
0
 10
98.0416881945397023
 20
-3.7732567474753651
 30
0.0
 11
98.0495119726399338
 21
-3.767888961896884
 31
0.0
  0
LINE
  5
7C66
  8
0
 10
98.0495119726399338
 20
-3.767888961896884
 30
0.0
 11
98.069196434450177
 21
-3.7716641071843209
 31
0.0
  0
LINE
  5
7C67
  8
0
 10
98.069196434450177
 20
-3.7716641071843209
 30
0.0
 11
98.0770202124628554
 21
-3.7799842486602362
 31
0.0
  0
ARC
  5
7C68
  8
0
 10
98.1363509005854553
 20
-3.3713922906116678
 30
0.0
 40
0.4128629256784794
 50
251.1103830246335065
 51
256.2215675943137967
  0
LINE
  5
7C69
  8
0
 10
98.0026881943570487
 20
-3.7620200882152059
 30
0.0
 11
98.0105119723255029
 21
-3.7573921366083569
 31
0.0
  0
LINE
  5
7C6A
  8
0
 10
98.0105119723255029
 20
-3.7573921366083569
 30
0.0
 11
98.0301964344219101
 21
-3.7632046119622311
 31
0.0
  0
LINE
  5
7C6B
  8
0
 10
98.0301964344219101
 20
-3.7632046119622311
 30
0.0
 11
98.0380202124541711
 21
-3.7723746732314272
 31
0.0
  0
LINE
  5
7C6C
  8
0
 10
97.9715119724991865
 20
-3.7425608971358102
 30
0.0
 11
97.9911964344756257
 21
-3.7506190855946251
 31
0.0
  0
LINE
  5
7C6D
  8
0
 10
97.9911964344756257
 20
-3.7506190855946251
 30
0.0
 11
97.9990202125790546
 21
-3.760745446254893
 31
0.0
  0
ARC
  5
7C6E
  8
0
 10
98.1349742126355125
 20
-3.3752682613422138
 30
0.0
 40
0.4087494956810904
 50
245.2254461459831987
 51
250.5727565641608123
  0
LINE
  5
7C6F
  8
0
 10
97.9715119724991865
 20
-3.7425608971358102
 30
0.0
 11
97.9636881944423692
 21
-3.746397955813785
 31
0.0
  0
LINE
  5
7C70
  8
0
 10
97.9249118752144483
 20
-3.7297828492976191
 30
0.0
 11
97.9226697415793268
 21
-3.7263965832458399
 31
0.0
  0
LINE
  5
7C71
  8
0
 10
97.9226697415793268
 20
-3.7263965832458399
 30
0.0
 11
97.9325119724809383
 21
-3.7227948083791018
 31
0.0
  0
LINE
  5
7C72
  8
0
 10
97.9325119724809383
 20
-3.7227948083791018
 30
0.0
 11
97.9521964345365603
 21
-3.7334379695158462
 31
0.0
  0
LINE
  5
7C73
  8
0
 10
97.9521964345365603
 20
-3.7334379695158462
 30
0.0
 11
97.9600202124896668
 21
-3.7446826443302612
 31
0.0
  0
LINE
  5
7C74
  8
0
 10
97.9600202124896668
 20
-3.7446826443302612
 30
0.0
 11
97.9276320260340327
 21
-3.727502440967867
 31
0.0
  0
LINE
  5
7C75
  8
0
 10
97.9276320260340327
 20
-3.727502440967867
 30
0.0
 11
97.9249118751809249
 21
-3.729782849172413
 31
0.0
  0
LINE
  5
7C76
  8
0
 10
98.0398542034111671
 20
-3.7532454180733219
 30
0.0
 11
98.030196434380926
 21
-3.7604893507791011
 31
0.0
  0
LINE
  5
7C77
  8
0
 10
98.030196434380926
 20
-3.7604893507791011
 30
0.0
 11
98.0105119724671709
 21
-3.7546571979905439
 31
0.0
  0
LINE
  5
7C78
  8
0
 10
98.0105119733191827
 20
-3.7546571982429811
 30
0.0
 11
98.0008542034277639
 21
-3.7415257540517022
 31
0.0
  0
LINE
  5
7C79
  8
0
 10
98.0008542034277639
 20
-3.7415257540517022
 30
0.0
 11
98.0008542034931764
 21
-3.7411329687917232
 31
0.0
  0
LINE
  5
7C7A
  8
0
 10
98.0008542034931764
 20
-3.7411329687917232
 30
0.0
 11
98.0105119724738643
 21
-3.7337859178906498
 31
0.0
  0
LINE
  5
7C7B
  8
0
 10
98.0105119724738643
 20
-3.7337859178906498
 30
0.0
 11
98.0301964344551209
 21
-3.7397903672172998
 31
0.0
  0
LINE
  5
7C7C
  8
0
 10
98.0301964344551209
 20
-3.7397903672172998
 30
0.0
 11
98.0398542034618714
 21
-3.7528590299394522
 31
0.0
  0
LINE
  5
7C7D
  8
0
 10
98.0008542037440122
 20
-3.7415257544817102
 30
0.0
 11
97.9911964344607611
 21
-3.7478603855289752
 31
0.0
  0
LINE
  5
7C7E
  8
0
 10
97.9911964344607611
 20
-3.7478603855289752
 30
0.0
 11
97.9715119724767902
 21
-3.7397726896036581
 31
0.0
  0
LINE
  5
7C7F
  8
0
 10
97.9715119724767902
 20
-3.7397726896036581
 30
0.0
 11
97.9618542034440338
 21
-3.7252527913692912
 31
0.0
  0
LINE
  5
7C80
  8
0
 10
97.9618542034440338
 20
-3.7252527913692912
 30
0.0
 11
97.9618542034491071
 21
-3.724850369340686
 31
0.0
  0
LINE
  5
7C81
  8
0
 10
97.9618542034491071
 20
-3.724850369340686
 30
0.0
 11
97.9715119724692158
 21
-3.7184335510730899
 31
0.0
  0
LINE
  5
7C82
  8
0
 10
97.9715119724692158
 20
-3.7184335510730899
 30
0.0
 11
97.9911964344012745
 21
-3.7267806730370951
 31
0.0
  0
LINE
  5
7C83
  8
0
 10
97.9911964344012745
 20
-3.7267806730370951
 30
0.0
 11
98.0008542034025254
 21
-3.7411329687458248
 31
0.0
  0
LINE
  5
7C84
  8
0
 10
97.9411864311903599
 20
-3.702959261505697
 30
0.0
 11
97.9521964344411771
 21
-3.7089655858965278
 31
0.0
  0
LINE
  5
7C85
  8
0
 10
97.9521964344411771
 20
-3.7089655858965278
 30
0.0
 11
97.9618542034202449
 21
-3.724850369358371
 31
0.0
  0
LINE
  5
7C86
  8
0
 10
97.961854203426725
 20
-3.7252527913421192
 30
0.0
 11
97.9521964343749829
 21
-3.7306146142579841
 31
0.0
  0
LINE
  5
7C87
  8
0
 10
97.9521964343749829
 20
-3.7306146142579841
 30
0.0
 11
97.9325119725542947
 21
-3.719927907409688
 31
0.0
  0
LINE
  5
7C88
  8
0
 10
97.9325119725542947
 20
-3.719927907409688
 30
0.0
 11
97.9257763509569941
 21
-3.708798503602829
 31
0.0
  0
LINE
  5
7C89
  8
0
 10
97.9325119724809383
 20
-3.7199279072791018
 30
0.0
 11
97.9325119724809241
 21
-3.7060405373562899
 31
0.0
  0
LINE
  5
7C8A
  8
0
 10
97.9521964343749829
 20
-3.7306146142579841
 30
0.0
 11
97.9521964344411771
 21
-3.7089655858965278
 31
0.0
  0
LINE
  5
7C8B
  8
0
 10
97.9325119724809383
 20
-3.7227948083791018
 30
0.0
 11
97.9327581943893932
 21
-3.7302215995393371
 31
0.0
  0
LINE
  5
7C8C
  8
0
 10
97.9521964345365603
 20
-3.7334379695158462
 30
0.0
 11
97.9524067443202568
 21
-3.7406441060310369
 31
0.0
  0
LINE
  5
7C8D
  8
0
 10
97.9715119724809256
 20
-3.718433551179102
 30
0.0
 11
97.9715119724767902
 21
-3.7397726896036581
 31
0.0
  0
LINE
  5
7C8E
  8
0
 10
97.9715119724363745
 20
-3.7425608972102178
 30
0.0
 11
97.9715119734474058
 21
-3.7499097520758959
 31
0.0
  0
LINE
  5
7C8F
  8
0
 10
97.9911964344756257
 20
-3.7506190855946251
 30
0.0
 11
97.9911964363601271
 21
-3.757896150117785
 31
0.0
  0
LINE
  5
7C90
  8
0
 10
98.0105119723255029
 20
-3.7573921366083569
 30
0.0
 11
98.0105119733185433
 21
-3.7646102451662671
 31
0.0
  0
LINE
  5
7C91
  8
0
 10
98.0301964344219101
 20
-3.7632046119622311
 30
0.0
 11
98.0301964354083566
 21
-3.7703747775991969
 31
0.0
  0
LINE
  5
7C92
  8
0
 10
98.0495119726399338
 20
-3.767888961896884
 30
0.0
 11
98.0495119736211507
 21
-3.775020963918962
 31
0.0
  0
LINE
  5
7C93
  8
0
 10
98.069196434450177
 20
-3.7716641071843209
 30
0.0
 11
98.0691964354273011
 21
-3.7787665353247588
 31
0.0
  0
LINE
  5
7C94
  8
0
 10
98.0885119724639054
 20
-3.77441796353328
 30
0.0
 11
98.0885119734380737
 21
-3.7814987589470932
 31
0.0
  0
LINE
  5
7C95
  8
0
 10
98.1081964343959356
 20
-3.7762773768367661
 30
0.0
 11
98.108196435368157
 21
-3.7833440328627739
 31
0.0
  0
LINE
  5
7C96
  8
0
 10
98.1275119725147249
 20
-3.7771862900991549
 30
0.0
 11
98.1275119734505381
 21
-3.7839884258564518
 31
0.0
  0
LINE
  5
7C97
  8
0
 10
98.1471964344341359
 20
-3.7771862900994639
 30
0.0
 11
98.1471964353699633
 21
-3.7839884258555938
 31
0.0
  0
LINE
  5
7C98
  8
0
 10
97.9911964344012745
 20
-3.7267806730370951
 30
0.0
 11
97.9911964344607611
 21
-3.7478603855289752
 31
0.0
  0
LINE
  5
7C99
  8
0
 10
98.0105119724738643
 20
-3.7337859178906498
 30
0.0
 11
98.0105119733191827
 21
-3.7546571982429811
 31
0.0
  0
LINE
  5
7C9A
  8
0
 10
98.0301964344551209
 20
-3.7397903672172998
 30
0.0
 11
98.030196434380926
 21
-3.7604893507791011
 31
0.0
  0
LINE
  5
7C9B
  8
0
 10
98.0495119725282649
 20
-3.7446247784652891
 30
0.0
 11
98.0495119724610191
 21
-3.7651891021649089
 31
0.0
  0
LINE
  5
7C9C
  8
0
 10
98.0691964344297702
 20
-3.7485179609171908
 30
0.0
 11
98.0691964344112534
 21
-3.7689763741326381
 31
0.0
  0
LINE
  5
7C9D
  8
0
 10
98.0885119724999157
 20
-3.7513563423360661
 30
0.0
 11
98.0885119724809442
 21
-3.771738920579101
 31
0.0
  0
LINE
  5
7C9E
  8
0
 10
98.1081964344384261
 20
-3.7532720917475202
 30
0.0
 11
98.1081964344406856
 21
-3.7736041289342221
 31
0.0
  0
LINE
  5
7C9F
  8
0
 10
98.127511972428394
 20
-3.7542083307189582
 30
0.0
 11
98.1275119725018641
 21
-3.7745158540236678
 31
0.0
  0
LINE
  5
7CA0
  8
0
 10
98.1471964344478494
 20
-3.7542083307080518
 30
0.0
 11
98.1471964343809447
 21
-3.7745158540791008
 31
0.0
  0
LINE
  5
7CA1
  8
0
 10
98.1471964344467551
 20
-3.751026355064047
 30
0.0
 11
98.1471964211861234
 21
-3.7269738504864778
 31
0.0
  0
LINE
  5
7CA2
  8
0
 10
98.1275120189795871
 20
-3.7269743083110152
 30
0.0
 11
98.127511972515137
 21
-3.751026355064047
 31
0.0
  0
LINE
  5
7CA3
  8
0
 10
98.1081964345351452
 20
-3.725997306381144
 30
0.0
 11
98.1081964343809432
 21
-3.7500858041791019
 31
0.0
  0
LINE
  5
7CA4
  8
0
 10
98.0888728613809349
 20
-3.748205303979101
 30
0.0
 11
98.088511972420207
 21
-3.7239973269403959
 31
0.0
  0
LINE
  5
7CA5
  8
0
 10
98.0691964343809133
 20
-3.7453094277791008
 30
0.0
 11
98.0691964343809133
 21
-3.7210323834253329
 31
0.0
  0
LINE
  5
7CA6
  8
0
 10
98.0495119724120769
 20
-3.7413975811778371
 30
0.0
 11
98.0495119725139261
 21
-3.7169620836065218
 31
0.0
  0
LINE
  5
7CA7
  8
0
 10
98.0301964343961032
 20
-3.7365394110361212
 30
0.0
 11
98.030196434380926
 21
-3.7119018585607271
 31
0.0
  0
LINE
  5
7CA8
  8
0
 10
98.0105119724809271
 20
-3.730504515679101
 30
0.0
 11
98.0105119724809271
 21
-3.705607453279101
 31
0.0
  0
LINE
  5
7CA9
  8
0
 10
97.9911964345390629
 20
-3.723462367699323
 30
0.0
 11
97.9911964345355955
 21
-3.6982498588647199
 31
0.0
  0
LINE
  5
7CAA
  8
0
 10
97.9715119724295249
 20
-3.715069202206247
 30
0.0
 11
97.9715119724295249
 21
-3.6938400365408999
 31
0.0
  0
LINE
  5
7CAB
  8
0
 10
98.0105119724809271
 20
-3.7017073881791021
 30
0.0
 11
98.0105119724809271
 21
-3.6853001105186989
 31
0.0
  0
LINE
  5
7CAC
  8
0
 10
98.0301964344739503
 20
-3.7080470306656981
 30
0.0
 11
98.0301964344739503
 21
-3.682292889048616
 31
0.0
  0
LINE
  5
7CAD
  8
0
 10
98.0495119725560187
 20
-3.7131423928967249
 30
0.0
 11
98.0495119725560187
 21
-3.684254775266278
 31
0.0
  0
LINE
  5
7CAE
  8
0
 10
98.0691964344198084
 20
-3.7172401964222819
 30
0.0
 11
98.0691964344198084
 21
-3.6885856052359931
 31
0.0
  0
LINE
  5
7CAF
  8
0
 10
98.0885119724975851
 20
-3.720224763381232
 30
0.0
 11
98.0885119724883623
 21
-3.6917361007752758
 31
0.0
  0
LINE
  5
7CB0
  8
0
 10
98.1081964344226094
 20
-3.7222377891047751
 30
0.0
 11
98.1081964343809432
 21
-3.693859289871273
 31
0.0
  0
LINE
  5
7CB1
  8
0
 10
98.1275119724809315
 20
-3.7232211668791022
 30
0.0
 11
98.1275119724809315
 21
-3.694895979779103
 31
0.0
  0
LINE
  5
7CB2
  8
0
 10
98.1471963901209961
 20
-3.7232212272457521
 30
0.0
 11
98.1471964343623426
 21
-3.694895979789711
 31
0.0
  0
LINE
  5
7CB3
  8
0
 10
98.0885119724809442
 20
-3.6872874156791009
 30
0.0
 11
98.0885119724809442
 21
-3.6766774254368531
 31
0.0
  0
LINE
  5
7CB4
  8
0
 10
98.1081964343809432
 20
-3.6894297532791009
 30
0.0
 11
98.1081964343809432
 21
-3.6757301171504762
 31
0.0
  0
LINE
  5
7CB5
  8
0
 10
98.1275119725154781
 20
-3.6904757019701231
 30
0.0
 11
98.1275119725154781
 21
-3.6752713910556118
 31
0.0
  0
LINE
  5
7CB6
  8
0
 10
98.1471964343809447
 20
-3.6904757020791021
 30
0.0
 11
98.1471964343809447
 21
-3.6752828897033361
 31
0.0
  0
ARC
  5
7CB7
  8
0
 10
98.1351777156138922
 20
-3.384444544422863
 30
0.0
 40
0.4142985795464832
 50
239.5501308042613005
 51
257.1989495242254975
  0
ARC
  5
7CB8
  8
0
 10
98.1373488937322662
 20
-3.3761594832016559
 30
0.0
 40
0.4228588717735035
 50
257.160804201042879
 51
275.8988593803834988
  0
ARC
  5
7CB9
  8
0
 10
97.9539409522430162
 20
-3.6863042115004321
 30
0.0
 40
0.0919456578293654
 50
217.5294668241990905
 51
231.3690897030191138
  0
ARC
  5
7CBA
  8
0
 10
98.1410625774483947
 20
-3.4263065132823289
 30
0.0
 40
0.4121880207967219
 50
233.6132540894907095
 51
240.0886526913529053
  0
ARC
  5
7CBB
  8
0
 10
98.0893963051093607
 20
-3.5213424389060379
 30
0.0
 40
0.3040583673291132
 50
239.5975168597090885
 51
249.6840642328047011
  0
ARC
  5
7CBC
  8
0
 10
98.1038304874761309
 20
-3.542957001040091
 30
0.0
 40
0.2895653499023484
 50
245.5170928188441053
 51
257.2358078665582752
  0
ARC
  5
7CBD
  8
0
 10
98.1408759672839039
 20
-3.4108843217564089
 30
0.0
 40
0.4266156063269037
 50
256.3023618166964184
 51
266.3196982112601177
  0
LINE
  5
7CBE
  8
0
 10
97.9241763470216284
 20
-3.770360930773093
 30
0.0
 11
97.925217704780934
 21
-3.7725018372791022
 31
0.0
  0
ARC
  5
7CBF
  8
0
 10
98.1349882819480257
 20
-3.4157164765081869
 30
0.0
 40
0.4138834240525254
 50
239.5467648195306083
 51
255.1074025868958017
  0
ARC
  5
7CC0
  8
0
 10
98.137248211386904
 20
-3.4077722127327048
 30
0.0
 40
0.4221416781651751
 50
255.0880917057897932
 51
268.7274425297250104
  0
ARC
  5
7CC1
  8
0
 10
98.1373561852803249
 20
-3.4064634610771991
 30
0.0
 40
0.4234525123160079
 50
268.7167693191619264
 51
276.6121995685919046
  0
LINE
  5
7CC2
  8
0
 10
97.925217704780934
 20
-3.7725018372791022
 30
0.0
 11
97.9290205944809458
 21
-3.7708741898791018
 31
0.0
  0
LINE
  5
7CC3
  8
0
 10
97.9290205944809458
 20
-3.7708741898791018
 30
0.0
 11
97.9241763470605235
 21
-3.7703609308530441
 31
0.0
  0
LINE
  5
7CC4
  8
0
 10
97.9290205944659533
 20
-3.7708741898736009
 30
0.0
 11
97.9290205944809458
 21
-3.7640774044791021
 31
0.0
  0
LINE
  5
7CC5
  8
0
 10
97.955687812380603
 20
-3.7578433763057908
 30
0.0
 11
97.9556878124749346
 21
-3.760429555691676
 31
0.0
  0
LINE
  5
7CC6
  8
0
 10
97.9556878124749346
 20
-3.760429555691676
 30
0.0
 11
97.9587932587780159
 21
-3.7593203057104492
 31
0.0
  0
LINE
  5
7CC7
  8
0
 10
97.9486272020114939
 20
-3.7543664535995318
 30
0.0
 11
97.9325119725305058
 21
-3.760743804351145
 31
0.0
  0
LINE
  5
7CC8
  8
0
 10
97.9325119725305058
 20
-3.760743804351145
 30
0.0
 11
97.9237077636794027
 21
-3.7692031755974389
 31
0.0
  0
LINE
  5
7CC9
  8
0
 10
97.9237077636794027
 20
-3.7692031755974389
 30
0.0
 11
97.9228542035494627
 21
-3.768997619725718
 31
0.0
  0
LINE
  5
7CCA
  8
0
 10
97.9228542035494627
 20
-3.768997619725718
 30
0.0
 11
97.9131964345657337
 21
-3.7593240517650739
 31
0.0
  0
LINE
  5
7CCB
  8
0
 10
97.9131964345657337
 20
-3.7593240517650739
 30
0.0
 11
97.8935119725242657
 21
-3.746082698288284
 31
0.0
  0
LINE
  5
7CCC
  8
0
 10
97.8935119725242657
 20
-3.746082698288284
 30
0.0
 11
97.8836697416442689
 21
-3.7425083891673201
 31
0.0
  0
LINE
  5
7CCD
  8
0
 10
97.8836697416442689
 20
-3.7425083891673201
 30
0.0
 11
97.893511972480951
 21
-3.7526888034791019
 31
0.0
  0
LINE
  5
7CCE
  8
0
 10
97.893511972480951
 20
-3.7526888034791019
 30
0.0
 11
97.9131964345254175
 21
-3.7660940870818438
 31
0.0
  0
LINE
  5
7CCF
  8
0
 10
97.9131964345254175
 20
-3.7660940870818438
 30
0.0
 11
97.9228542034017551
 21
-3.7691258792746201
 31
0.0
  0
LINE
  5
7CD0
  8
0
 10
97.9228542034017551
 20
-3.7691258792746201
 30
0.0
 11
97.9241763470605235
 21
-3.7703609308530441
 31
0.0
  0
LINE
  5
7CD1
  8
0
 10
97.8935119724141742
 20
-3.752688803454669
 30
0.0
 11
97.8935119725242942
 21
-3.7460826982882942
 31
0.0
  0
LINE
  5
7CD2
  8
0
 10
97.9131964345254602
 20
-3.7660940870818531
 30
0.0
 11
97.9131964345657337
 21
-3.7593240517650779
 31
0.0
  0
LINE
  5
7CD3
  8
0
 10
97.8858650929664833
 20
-3.7355597655977522
 30
0.0
 11
97.893511972480951
 21
-3.7448475804791022
 31
0.0
  0
LINE
  5
7CD4
  8
0
 10
97.893511972480951
 20
-3.7448475804791022
 30
0.0
 11
97.9131964343809358
 21
-3.7580773713903901
 31
0.0
  0
LINE
  5
7CD5
  8
0
 10
97.9131964343809358
 20
-3.7580773713903901
 30
0.0
 11
97.9218585167809294
 21
-3.7591499771791019
 31
0.0
  0
LINE
  5
7CD6
  8
0
 10
97.9218585167809294
 20
-3.7591499771791019
 30
0.0
 11
97.9228542034854144
 21
-3.7581792090014421
 31
0.0
  0
LINE
  5
7CD7
  8
0
 10
97.9228542034854144
 20
-3.7581792090014421
 30
0.0
 11
97.9325119724512376
 21
-3.759227917101998
 31
0.0
  0
LINE
  5
7CD8
  8
0
 10
97.9325119724512376
 20
-3.759227917101998
 30
0.0
 11
97.9469163191024279
 21
-3.7534986862473181
 31
0.0
  0
LINE
  5
7CD9
  8
0
 10
97.9355150035756452
 20
-3.7474570985250191
 30
0.0
 11
97.9325119724767035
 21
-3.748692135571011
 31
0.0
  0
LINE
  5
7CDA
  8
0
 10
97.9325119724767035
 20
-3.748692135571011
 30
0.0
 11
97.9325119724809383
 21
-3.7592279171052221
 31
0.0
  0
LINE
  5
7CDB
  8
0
 10
97.9325119723491611
 20
-3.7486921356234681
 30
0.0
 11
97.9228542034854144
 21
-3.7579817486014431
 31
0.0
  0
LINE
  5
7CDC
  8
0
 10
97.9228542034854144
 20
-3.7579817486014431
 30
0.0
 11
97.9228542034854144
 21
-3.7581792090014421
 31
0.0
  0
ARC
  5
7CDD
  8
0
 10
97.9518573338051937
 20
-3.7588284911265508
 30
0.0
 40
0.0300005395974155
 50
180.6139938408385035
 51
200.2316517642454983
  0
LINE
  5
7CDE
  8
0
 10
97.9218585666934445
 20
-3.757886671962126
 30
0.0
 11
97.9228542034115748
 21
-3.7579817486724769
 31
0.0
  0
LINE
  5
7CDF
  8
0
 10
97.9218585666934445
 20
-3.757886671962126
 30
0.0
 11
97.9131964345079808
 21
-3.7475415900879181
 31
0.0
  0
LINE
  5
7CE0
  8
0
 10
97.9131964345079808
 20
-3.7475415900879181
 30
0.0
 11
97.893511972480951
 21
-3.7343117990066079
 31
0.0
  0
LINE
  5
7CE1
  8
0
 10
97.893511972480951
 20
-3.7343117990066079
 30
0.0
 11
97.8872523780299133
 21
-3.7335094623765182
 31
0.0
  0
ARC
  5
7CE2
  8
0
 10
97.9682752049937875
 20
-3.7592540458923209
 30
0.0
 40
0.0464367744634637
 50
163.6874284709508061
 51
178.3126286832545873
  0
LINE
  5
7CE3
  8
0
 10
97.9131964345854442
 20
-3.758077371519339
 30
0.0
 11
97.9131964345079808
 21
-3.747541590087923
 31
0.0
  0
LINE
  5
7CE4
  8
0
 10
97.8935119724152258
 20
-3.744847580426141
 30
0.0
 11
97.893511972480951
 21
-3.7343117990066248
 31
0.0
  0
LINE
  5
7CE5
  8
0
 10
97.8935119725217788
 20
-3.7325151422082721
 30
0.0
 11
97.8912857514698942
 21
-3.729453214850257
 31
0.0
  0
LINE
  5
7CE6
  8
0
 10
97.8935119724715861
 20
-3.7325151421398508
 30
0.0
 11
97.8935119724715861
 21
-3.7275743191650239
 31
0.0
  0
LINE
  5
7CE7
  8
0
 10
97.893511972522063
 20
-3.7325151422086589
 30
0.0
 11
97.9131964343982162
 21
-3.745756495650034
 31
0.0
  0
LINE
  5
7CE8
  8
0
 10
97.9131964343982162
 20
-3.745756495650034
 30
0.0
 11
97.9228542034007461
 21
-3.7450917424137029
 31
0.0
  0
LINE
  5
7CE9
  8
0
 10
97.9228542034007461
 20
-3.7450917424137029
 30
0.0
 11
97.9228542035279048
 21
-3.7448250813325781
 31
0.0
  0
LINE
  5
7CEA
  8
0
 10
97.9228542035279048
 20
-3.7448250813325781
 30
0.0
 11
97.9131964344250605
 21
-3.7314549678864148
 31
0.0
  0
LINE
  5
7CEB
  8
0
 10
97.9131964344250605
 20
-3.7314549678864148
 30
0.0
 11
97.9001884628152652
 21
-3.7228111026601152
 31
0.0
  0
LINE
  5
7CEC
  8
0
 10
97.9131964346449024
 20
-3.7457564956330538
 30
0.0
 11
97.9131964343809358
 21
-3.7314549679902029
 31
0.0
  0
LINE
  5
7CED
  8
0
 10
97.9228542035019558
 20
-3.7450917424067369
 30
0.0
 11
97.9237078038808164
 21
-3.746211010179552
 31
0.0
  0
LINE
  5
7CEE
  8
0
 10
97.9237078038808164
 20
-3.746211010179552
 30
0.0
 11
97.9325119725048268
 21
-3.7471762482750508
 31
0.0
  0
LINE
  5
7CEF
  8
0
 10
97.9325119725048268
 20
-3.7471762482750508
 30
0.0
 11
97.933939853083416
 21
-3.7465862786905322
 31
0.0
  0
LINE
  5
7CF0
  8
0
 10
97.9325119724809383
 20
-3.7471762482849189
 30
0.0
 11
97.9325119724809383
 21
-3.7457891300673651
 31
0.0
  0
LINE
  5
7CF1
  8
0
 10
97.9228542035279048
 20
-3.7448250813325781
 30
0.0
 11
97.9241763470307234
 21
-3.7446448220278712
 31
0.0
  0
LINE
  5
7CF2
  8
0
 10
97.9241763470307234
 20
-3.7446448220278712
 30
0.0
 11
97.925217704780934
 21
-3.741600122379102
 31
0.0
  0
LINE
  5
7CF3
  8
0
 10
97.9241763470307234
 20
-3.7446448220278712
 30
0.0
 11
97.9265117108471941
 21
-3.742357678393863
 31
0.0
  0
ARC
  5
7CF4
  8
0
 10
98.1373961915809048
 20
-3.417204143978855
 30
0.0
 40
0.4175236621002468
 50
272.9231188361997056
 51
277.7943984647964726
  0
LINE
  5
7CF5
  8
0
 10
98.1940202124857535
 20
-3.8308703483878799
 30
0.0
 11
98.1861964340228042
 21
-3.8331604203791212
 31
0.0
  0
LINE
  5
7CF6
  8
0
 10
98.1861964340228042
 20
-3.8331604203791212
 30
0.0
 11
98.1665119727232991
 21
-3.8350198336255081
 31
0.0
  0
LINE
  5
7CF7
  8
0
 10
98.1665119727232991
 20
-3.8350198336255081
 30
0.0
 11
98.1586881944596144
 21
-3.8341845501105611
 31
0.0
  0
ARC
  5
7CF8
  8
0
 10
98.1373542034809532
 20
-3.416539525878854
 30
0.0
 40
0.4181895703002489
 50
267.5788754120015938
 51
272.4211245879984062
  0
LINE
  5
7CF9
  8
0
 10
98.1550202125641249
 20
-3.834355787925916
 30
0.0
 11
98.1471964347888957
 21
-3.8359287468910508
 31
0.0
  0
LINE
  5
7CFA
  8
0
 10
98.1471964347888957
 20
-3.8359287468910508
 30
0.0
 11
98.1275119725147249
 21
-3.8359287468991559
 31
0.0
  0
LINE
  5
7CFB
  8
0
 10
98.1275119725147249
 20
-3.8359287468991559
 30
0.0
 11
98.119688194457126
 21
-3.8343557879284269
 31
0.0
  0
ARC
  5
7CFC
  8
0
 10
98.1373288412188742
 20
-3.4170268973220961
 30
0.0
 40
0.417701526120275
 50
262.2066393286202128
 51
267.0758434236246899
  0
LINE
  5
7CFD
  8
0
 10
98.1160202124100351
 20
-3.8341845500988492
 30
0.0
 11
98.1081964348617106
 21
-3.835019833612288
 31
0.0
  0
LINE
  5
7CFE
  8
0
 10
98.1081964348617106
 20
-3.835019833612288
 30
0.0
 11
98.088511972815823
 21
-3.8331604203092962
 31
0.0
  0
LINE
  5
7CFF
  8
0
 10
98.088511972815823
 20
-3.8331604203092962
 30
0.0
 11
98.0806888273482684
 21
-3.8308704350896239
 31
0.0
  0
ARC
  5
7D00
  8
0
 10
98.1371049583929675
 20
-3.418650347009756
 30
0.0
 40
0.416062624166595
 50
256.7422119436458843
 51
261.6967259257854153
  0
LINE
  5
7D01
  8
0
 10
98.0770202119964978
 20
-3.83035161074103
 30
0.0
 11
98.0691964343720883
 21
-3.8304065639883791
 31
0.0
  0
LINE
  5
7D02
  8
0
 10
98.0691964343720883
 20
-3.8304065639883791
 30
0.0
 11
98.0495119724948552
 21
-3.8266314187882968
 31
0.0
  0
LINE
  5
7D03
  8
0
 10
98.0495119724948552
 20
-3.8266314187882968
 30
0.0
 11
98.0416881944444327
 21
-3.8236241095993639
 31
0.0
  0
ARC
  5
7D04
  8
0
 10
98.1364674883068346
 20
-3.4213618336229601
 30
0.0
 40
0.4132770649215885
 50
251.1129455703758993
 51
256.2190048808486722
  0
LINE
  5
7D05
  8
0
 10
98.038020212562671
 20
-3.8227420352881039
 30
0.0
 11
98.0301964343812671
 21
-3.8219470687962849
 31
0.0
  0
LINE
  5
7D06
  8
0
 10
98.0301964343812671
 20
-3.8219470687962849
 30
0.0
 11
98.0105119733984509
 21
-3.816134593801805
 31
0.0
  0
LINE
  5
7D07
  8
0
 10
98.0105119733984509
 20
-3.816134593801805
 30
0.0
 11
98.0026881946407968
 21
-3.8123874504335968
 31
0.0
  0
ARC
  5
7D08
  8
0
 10
98.1352002440807922
 20
-3.4250790005794371
 30
0.0
 40
0.4093496080996381
 50
245.2293684760348924
 51
250.5688340845850064
  0
LINE
  5
7D09
  8
0
 10
97.9990202124880341
 20
-3.8111128082267949
 30
0.0
 11
97.9911964344408659
 21
-3.809361542351513
 31
0.0
  0
LINE
  5
7D0A
  8
0
 10
97.9911964344408659
 20
-3.809361542351513
 30
0.0
 11
97.9715119724809256
 21
-3.8013033538598
 31
0.0
  0
LINE
  5
7D0B
  8
0
 10
97.9715119724809256
 20
-3.8013033538598
 30
0.0
 11
97.9636881944394275
 21
-3.796765317894379
 31
0.0
  0
LINE
  5
7D0C
  8
0
 10
97.952196434784895
 20
-3.7921804263753649
 30
0.0
 11
97.9600202125132142
 21
-3.7950500063858712
 31
0.0
  0
LINE
  5
7D0D
  8
0
 10
97.9600202125132142
 20
-3.7950500063858712
 30
0.0
 11
97.922669741727475
 21
-3.7746032585562062
 31
0.0
  0
LINE
  5
7D0E
  8
0
 10
97.922669741727475
 20
-3.7746032585562062
 30
0.0
 11
97.9325119723795297
 21
-3.7815372651292209
 31
0.0
  0
LINE
  5
7D0F
  8
0
 10
97.9325119724809383
 20
-3.7815372652006638
 30
0.0
 11
97.9521964347849092
 21
-3.792180426375376
 31
0.0
  0
LINE
  5
7D10
  8
0
 10
98.0873542034819934
 20
-3.5555766126813211
 30
0.0
 11
98.0873542034809134
 21
-3.5361227563791018
 31
0.0
  0
LINE
  5
7D11
  8
0
 10
97.9545854378809366
 20
-3.5726400158791018
 30
0.0
 11
97.909912091980928
 21
-3.5588351858791021
 31
0.0
  0
LINE
  5
7D12
  8
0
 10
97.9545854377930567
 20
-3.5726400158519458
 30
0.0
 11
97.9545854378820025
 21
-3.5498050735515361
 31
0.0
  0
ARC
  5
7D13
  8
0
 10
98.1156341108036258
 20
-4.4615554654623351
 30
0.0
 40
0.9258647051266791
 50
91.7503328284332156
 51
102.8379576362482055
  0
LINE
  5
7D14
  8
0
 10
97.8838747597809231
 20
-3.5944908280790999
 30
0.0
 11
97.8392014138809429
 21
-3.580685998079101
 31
0.0
  0
LINE
  5
7D15
  8
0
 10
97.828880136406994
 20
-3.6355186536022202
 30
0.0
 11
97.8288801364809331
 21
-3.5879658300791011
 31
0.0
  0
LINE
  5
7D16
  8
0
 10
97.7657024847809453
 20
-3.6355186534791022
 30
0.0
 11
97.828880136406994
 21
-3.6355186534791022
 31
0.0
  0
ARC
  5
7D17
  8
0
 10
97.8388539028843667
 20
-3.6734323610440298
 30
0.0
 40
0.082392834590533
 50
122.1585895017686028
 51
152.6027078672235859
  0
ARC
  5
7D18
  8
0
 10
97.9265335962755472
 20
-3.8025476976880839
 30
0.0
 40
0.2384313817866207
 50
111.4862574719260948
 51
123.4813803992220045
  0
LINE
  5
7D19
  8
0
 10
97.8288801364809331
 20
-3.5879658300791011
 30
0.0
 11
97.8225906026967635
 21
-3.5879658300791011
 31
0.0
  0
LINE
  5
7D1A
  8
0
 10
97.8288801364809331
 20
-3.5879658300791011
 30
0.0
 11
97.8312200383564345
 21
-3.583995988709467
 31
0.0
  0
LINE
  5
7D1B
  8
0
 10
97.8268703134748137
 20
-3.6664203683791028
 30
0.0
 11
97.7657024847809453
 21
-3.6664203683791019
 31
0.0
  0
ARC
  5
7D1C
  8
0
 10
97.832213795146572
 20
-3.633606112775241
 30
0.0
 40
0.0741655565433852
 50
206.2600515337198885
 51
234.5173516710187016
  0
ARC
  5
7D1D
  8
0
 10
97.9146224575590054
 20
-3.5225109250198319
 30
0.0
 40
0.2124801782578892
 50
233.8111817054522135
 51
247.9920439902163025
  0
LINE
  5
7D1E
  8
0
 10
97.3599987031361849
 20
-3.1887735242845072
 30
0.0
 11
97.3476896637904758
 21
-3.0190187113512712
 31
0.0
  0
ARC
  5
7D1F
  8
0
 10
97.3791159260614876
 20
-3.017491230809259
 30
0.0
 40
0.031463362139684
 50
90.0697431175770049
 51
182.7826842875230113
  0
LINE
  5
7D20
  8
0
 10
97.9228542034017551
 20
-3.7691258792746201
 30
0.0
 11
97.9228542035494627
 21
-3.768997619725718
 31
0.0
  0
ARC
  5
7D21
  8
0
 10
97.0223797226312712
 20
-2.4514322091477752
 30
0.0
 40
2.030856740773658
 50
324.9823979932349971
 51
338.7112003886028901
  0
ARC
  5
7D22
  8
0
 10
99.4776761823250695
 20
-4.355202385971511
 30
0.0
 40
1.0828789855969361
 50
137.008254581341788
 51
141.9287751956404975
  0
ARC
  5
7D23
  8
0
 10
98.1492980398576833
 20
-4.827114461598069
 30
0.0
 40
1.331315606082619
 50
75.7616824604129846
 51
90.5152039192388997
  0
ARC
  5
7D24
  8
0
 10
98.3659540501493268
 20
-3.9603418680833529
 30
0.0
 40
0.4378931560832509
 50
58.7970811276950585
 51
75.3446707987463924
  0
ARC
  5
7D25
  8
0
 10
98.5258082927696535
 20
-3.6930756332286201
 30
0.0
 40
0.1264863213576735
 50
34.187139290456102
 51
58.0118667046995498
  0
ARC
  5
7D26
  8
0
 10
98.5850784959548321
 20
-3.6515950530414938
 30
0.0
 40
0.054159171693264
 50
358.1106211235273804
 51
33.1194058486781202
  0
ARC
  5
7D27
  8
0
 10
98.5798204958068567
 20
-3.6488534144566018
 30
0.0
 40
0.0595600396602703
 50
323.8725176275357853
 51
355.6406441335361137
  0
ARC
  5
7D28
  8
0
 10
98.5798204958068567
 20
-3.6488534144566018
 30
0.0
 40
0.0595600396602703
 50
319.6196823585245284
 51
319.7427578713608227
  0
ARC
  5
7D29
  8
0
 10
98.1389950109178244
 20
-5.019671974848567
 30
0.0
 40
1.520778719029493
 50
84.0476781502184309
 51
90.0618634615002946
  0
ARC
  5
7D2A
  8
0
 10
98.1909310868342544
 20
-4.57571670333488
 30
0.0
 40
1.0738458959381829
 50
75.6500206404695632
 51
84.3474065243669173
  0
ARC
  5
7D2B
  8
0
 10
98.3333375107697947
 20
-4.0324282629532036
 30
0.0
 40
0.5122242118042371
 50
63.7808484732304919
 51
76.0205426754293256
  0
ARC
  5
7D2C
  8
0
 10
98.4749184141054599
 20
-3.7458116970597728
 30
0.0
 40
0.1925465399036056
 50
45.8008707050322883
 51
63.8953839891760609
  0
ARC
  5
7D2D
  8
0
 10
98.563827740612453
 20
-3.6558590596087912
 30
0.0
 40
0.066082105326895
 50
8.7322873252322246
 51
46.6940626723856624
  0
ARC
  5
7D2E
  8
0
 10
98.5719028523362653
 20
-3.650001267361656
 30
0.0
 40
0.0573930313333118
 50
314.4567396329595113
 51
4.1712595984505034
  0
ARC
  5
7D2F
  8
0
 10
98.4724819117746932
 20
-3.554352536227507
 30
0.0
 40
0.1953370782314508
 50
294.7545467445949043
 51
315.6227782290707182
  0
ARC
  5
7D30
  8
0
 10
98.2976545243396771
 20
-3.173274984826925
 30
0.0
 40
0.6146037102178902
 50
280.7227181144248789
 51
294.6793336204469256
  0
ARC
  5
7D31
  8
0
 10
98.5203058542210641
 20
-3.6012998925701609
 30
0.0
 40
0.1357293237212995
 50
304.0955619956357054
 51
320.5979115726664759
  0
ARC
  5
7D32
  8
0
 10
98.3922471774739478
 20
-3.3970646771739661
 30
0.0
 40
0.3767383717035273
 50
287.6949168358315774
 51
302.8113727913619186
  0
ARC
  5
7D33
  8
0
 10
98.2272783592233054
 20
-2.891893029353398
 30
0.0
 40
0.908158803599875
 50
281.299403396269895
 51
287.923158438088592
  0
ARC
  5
7D34
  8
0
 10
98.3574804451299372
 20
-3.4723570788482498
 30
0.0
 40
0.2765813593475437
 50
286.6808621933666927
 51
305.2796678288956969
  0
ARC
  5
7D35
  8
0
 10
98.4731173378297484
 20
-3.634711507377637
 30
0.0
 40
0.0772589150250006
 50
304.8134855394584974
 51
337.2880828027609823
  0
ARC
  5
7D36
  8
0
 10
98.5063278230211949
 20
-3.650941828578778
 30
0.0
 40
0.0404143420225526
 50
340.336585053535714
 51
22.535324838384529
  0
ARC
  5
7D37
  8
0
 10
98.4772367694844064
 20
-3.6648987189497051
 30
0.0
 40
0.0726540074251925
 50
23.9091840291058695
 51
51.5968176023201508
  0
ARC
  5
7D38
  8
0
 10
98.3607985081654164
 20
-3.819449734955735
 30
0.0
 40
0.2661422629526926
 50
52.6211566542319673
 51
75.0831558949263638
  0
ARC
  5
7D39
  8
0
 10
98.1902379800807239
 20
-4.364804633161393
 30
0.0
 40
0.8373805182421953
 50
73.4114115059546464
 51
84.7934854357147856
  0
ARC
  5
7D3A
  8
0
 10
98.1383035935619432
 20
-4.7988502033940641
 30
0.0
 40
1.2744077528465421
 50
84.2390323523399047
 51
90.0426833952197114
  0
ARC
  5
7D3B
  8
0
 10
98.1385814404247157
 20
-4.7238902819148141
 30
0.0
 40
1.192200585243917
 50
83.7762073634580133
 51
90.0214671092999765
  0
ARC
  5
7D3C
  8
0
 10
98.1869149381711566
 20
-4.3301562432204923
 30
0.0
 40
0.7955653401488889
 50
73.9235984151072358
 51
84.1624520271531793
  0
ARC
  5
7D3D
  8
0
 10
98.3383987791715555
 20
-3.8256580730023901
 30
0.0
 40
0.2689114346004534
 50
51.9172369061632324
 51
75.1711367391439467
  0
ARC
  5
7D3E
  8
0
 10
98.4697950741578154
 20
-3.655500289794634
 30
0.0
 40
0.0539532721057593
 50
9.0678619010246742
 51
50.2938944659972904
  0
ARC
  5
7D3F
  8
0
 10
98.4761691926925664
 20
-3.6496401301118948
 30
0.0
 40
0.0469792759861681
 50
308.1661237220437215
 51
3.2252218626176599
  0
ARC
  5
7D40
  8
0
 10
98.3759794705879074
 20
-3.5426454778089682
 30
0.0
 40
0.1934268746653382
 50
288.9271396970405021
 51
311.9173155133033219
  0
ARC
  5
7D41
  8
0
 10
98.141592710719749
 20
-4.4362862888135828
 30
0.0
 40
0.881894845116037
 50
78.3239642673867138
 51
90.2753724125941375
  0
ARC
  5
7D42
  8
0
 10
98.2708641036157076
 20
-3.8572065697166922
 30
0.0
 40
0.2887892021526195
 50
58.5462262092173304
 51
80.1899726140045317
  0
ARC
  5
7D43
  8
0
 10
98.3822645342161906
 20
-3.6736475080307511
 30
0.0
 40
0.0740759456454315
 50
30.9791777076168096
 51
57.9648492444575183
  0
ARC
  5
7D44
  8
0
 10
98.4177524899868246
 20
-3.6510113068428831
 30
0.0
 40
0.0320190605968041
 50
351.8808774370032211
 51
28.9376270931651298
  0
LINE
  5
7D45
  8
0
 10
98.4494506099809144
 20
-3.655533411479102
 30
0.0
 11
98.4371998498809262
 21
-3.7355456602791008
 31
0.0
  0
ARC
  5
7D46
  8
0
 10
98.1400189918963548
 20
-4.5268181368081777
 30
0.0
 40
0.8884362336860636
 50
81.5238267632105078
 51
90.1074274936593156
  0
ARC
  5
7D47
  8
0
 10
98.2133882105423339
 20
-4.0882061071707421
 30
0.0
 40
0.4438711862099849
 50
66.803065295982222
 51
82.5458541386611273
  0
ARC
  5
7D48
  8
0
 10
98.3358864646135942
 20
-3.7994997090688978
 30
0.0
 40
0.1302585284655586
 50
47.8818544918878573
 51
66.3085235681047038
  0
ARC
  5
7D49
  8
0
 10
98.3965861261130357
 20
-3.7335804109900179
 30
0.0
 40
0.0406612439930589
 50
357.2296869382183218
 51
49.0307039690575266
  0
ARC
  5
7D4A
  8
0
 10
98.3713313184817082
 20
-3.7240845283699469
 30
0.0
 40
0.0668582154512728
 50
307.4712093646251105
 51
350.1293508675393014
  0
ARC
  5
7D4B
  8
0
 10
98.2907958561807504
 20
-3.6289912956732429
 30
0.0
 40
0.1914207544529614
 50
285.2604409052066217
 51
309.2873382871608214
  0
ARC
  5
7D4C
  8
0
 10
98.1666016738702893
 20
-3.2304734705793718
 30
0.0
 40
0.6087582942091816
 50
274.1518906242674802
 51
286.6650576150706229
  0
ARC
  5
7D4D
  8
0
 10
98.1372280040750695
 20
-2.948875939480156
 30
0.0
 40
0.8917879815845342
 50
267.4450436479827999
 51
274.7242686079592886
  0
ARC
  5
7D4E
  8
0
 10
98.1385710122045367
 20
-4.4693034396409042
 30
0.0
 40
0.7940455663564931
 50
82.9190271981271536
 51
88.5622701972743869
  0
ARC
  5
7D4F
  8
0
 10
98.1836696918270349
 20
-4.146122211863017
 30
0.0
 40
0.4677956899143405
 50
70.7031369498210438
 51
83.5210947721057835
  0
ARC
  5
7D50
  8
0
 10
98.2840055603911509
 20
-3.8576278870933098
 30
0.0
 40
0.1623532400930267
 50
54.2650175905262699
 51
70.478081469378111
  0
ARC
  5
7D51
  8
0
 10
98.350339826936036
 20
-3.7663288296356092
 30
0.0
 40
0.0495044266388658
 50
25.1587827341238714
 51
54.8706897004649008
  0
ARC
  5
7D52
  8
0
 10
98.3706381260675755
 20
-3.7557050218944599
 30
0.0
 40
0.0266335619931402
 50
325.9479119983055284
 51
23.0359059303500402
  0
ARC
  5
7D53
  8
0
 10
98.3370259845284522
 20
-3.7326016214461002
 30
0.0
 40
0.0674196197395104
 50
299.5720664179685855
 51
325.6752505764401917
  0
ARC
  5
7D54
  8
0
 10
98.2323494726944375
 20
-3.5382911645793209
 30
0.0
 40
0.2881189859561025
 50
281.8612212469034262
 51
298.6065886573039734
  0
ARC
  5
7D55
  8
0
 10
98.1373270049809321
 20
-3.1146372890562839
 30
0.0
 40
0.7222824564293461
 50
257.6695625650947932
 51
282.3304374349050931
  0
LINE
  5
7D56
  8
0
 10
98.1561510919615046
 20
-3.6754273850570272
 30
0.0
 11
98.1471420374463861
 21
-3.6904757019701231
 31
0.0
  0
LINE
  5
7D57
  8
0
 10
98.1471420374463861
 20
-3.6904757019701231
 30
0.0
 11
98.1274575755809337
 21
-3.6904757020791021
 31
0.0
  0
LINE
  5
7D58
  8
0
 10
98.1274575755809337
 20
-3.6904757020791021
 30
0.0
 11
98.118460728708186
 21
-3.675449119194349
 31
0.0
  0
LINE
  5
7D59
  8
0
 10
98.1575135855890153
 20
-3.6754597960152058
 30
0.0
 11
98.1664575755809352
 21
-3.6894297532791009
 31
0.0
  0
LINE
  5
7D5A
  8
0
 10
98.1664575755809352
 20
-3.6894297532791009
 30
0.0
 11
98.1861420374809342
 21
-3.6872874156791009
 31
0.0
  0
LINE
  5
7D5B
  8
0
 10
98.1861420374809342
 20
-3.6872874156791009
 30
0.0
 11
98.191934184575004
 21
-3.677048627303257
 31
0.0
  0
LINE
  5
7D5C
  8
0
 10
98.1567998065864629
 20
-3.7089196917056091
 30
0.0
 11
98.1471420374809469
 21
-3.694895979779103
 31
0.0
  0
LINE
  5
7D5D
  8
0
 10
98.1471420374809469
 20
-3.694895979779103
 30
0.0
 11
98.1274575755995215
 21
-3.694895979789711
 31
0.0
  0
LINE
  5
7D5E
  8
0
 10
98.1274575755995215
 20
-3.694895979789711
 30
0.0
 11
98.1177998064809316
 21
-3.708919691752353
 31
0.0
  0
LINE
  5
7D5F
  8
0
 10
98.1177998064809316
 20
-3.708919691752353
 30
0.0
 11
98.1177998064809316
 21
-3.709450434279101
 31
0.0
  0
LINE
  5
7D60
  8
0
 10
98.1177998064809316
 20
-3.709450434279101
 30
0.0
 11
98.1274576198408681
 21
-3.7232212272457521
 31
0.0
  0
LINE
  5
7D61
  8
0
 10
98.1274576198408681
 20
-3.7232212272457521
 30
0.0
 11
98.1471420374809469
 21
-3.7232211668791022
 31
0.0
  0
LINE
  5
7D62
  8
0
 10
98.1471420374809469
 20
-3.7232211668791022
 30
0.0
 11
98.1567998064809331
 21
-3.709450434279101
 31
0.0
  0
LINE
  5
7D63
  8
0
 10
98.1567998064809331
 20
-3.709450434279101
 30
0.0
 11
98.1567998064809331
 21
-3.7089196918631888
 31
0.0
  0
LINE
  5
7D64
  8
0
 10
98.1567998065483351
 20
-3.709450434293359
 30
0.0
 11
98.1664575755392548
 21
-3.7222377891047751
 31
0.0
  0
LINE
  5
7D65
  8
0
 10
98.1664575755392548
 20
-3.7222377891047751
 30
0.0
 11
98.1861420374642648
 21
-3.720224763381232
 31
0.0
  0
LINE
  5
7D66
  8
0
 10
98.1861420374642648
 20
-3.720224763381232
 30
0.0
 11
98.1957998064809345
 21
-3.7053594382791011
 31
0.0
  0
LINE
  5
7D67
  8
0
 10
98.1957998064809345
 20
-3.7053594382791011
 30
0.0
 11
98.1957998065434197
 21
-3.7048246123063762
 31
0.0
  0
LINE
  5
7D68
  8
0
 10
98.1957998065434197
 20
-3.7048246123063762
 30
0.0
 11
98.1861420374735161
 21
-3.6917361007752758
 31
0.0
  0
LINE
  5
7D69
  8
0
 10
98.1861420374735161
 20
-3.6917361007752758
 30
0.0
 11
98.1664575755809352
 21
-3.693859289871273
 31
0.0
  0
LINE
  5
7D6A
  8
0
 10
98.1664575755809352
 20
-3.693859289871273
 30
0.0
 11
98.1567998064809331
 21
-3.7089196915523761
 31
0.0
  0
LINE
  5
7D6B
  8
0
 10
98.1957998065882691
 20
-3.7053594382840789
 30
0.0
 11
98.20545757554207
 21
-3.7172401964222819
 31
0.0
  0
LINE
  5
7D6C
  8
0
 10
98.20545757554207
 20
-3.7172401964222819
 30
0.0
 11
98.2251420374058313
 21
-3.7131423928967249
 31
0.0
  0
LINE
  5
7D6D
  8
0
 10
98.2251420374058313
 20
-3.7131423928967249
 30
0.0
 11
98.2347998064809502
 21
-3.6970234245791032
 31
0.0
  0
LINE
  5
7D6E
  8
0
 10
98.2347998064809502
 20
-3.6970234245791032
 30
0.0
 11
98.2347998064809502
 21
-3.6964799606620748
 31
0.0
  0
LINE
  5
7D6F
  8
0
 10
98.2347998064809502
 20
-3.6964799606620748
 30
0.0
 11
98.2251420375081352
 21
-3.684254775243772
 31
0.0
  0
LINE
  5
7D70
  8
0
 10
98.2251420375081352
 20
-3.684254775243772
 30
0.0
 11
98.2054575755023933
 21
-3.688585605244719
 31
0.0
  0
LINE
  5
7D71
  8
0
 10
98.2054575755023933
 20
-3.688585605244719
 30
0.0
 11
98.1957998064809345
 21
-3.704824612221695
 31
0.0
  0
LINE
  5
7D72
  8
0
 10
98.2347998064809502
 20
-3.6970234245791032
 30
0.0
 11
98.2444575754878997
 21
-3.7080470306656981
 31
0.0
  0
LINE
  5
7D73
  8
0
 10
98.2444575754878997
 20
-3.7080470306656981
 30
0.0
 11
98.2641420374809229
 21
-3.7017073881791021
 31
0.0
  0
LINE
  5
7D74
  8
0
 10
98.2641420374809229
 20
-3.7017073881791021
 30
0.0
 11
98.2723775233969263
 21
-3.6868143324176499
 31
0.0
  0
LINE
  5
7D75
  8
0
 10
98.2347998064809502
 20
-3.6964799606620748
 30
0.0
 11
98.2427683223925641
 21
-3.6820746287772801
 31
0.0
  0
LINE
  5
7D76
  8
0
 10
98.1471419909822913
 20
-3.7269743083110152
 30
0.0
 11
98.127457588775755
 21
-3.7269738504864778
 31
0.0
  0
LINE
  5
7D77
  8
0
 10
98.127457588775755
 20
-3.7269738504864778
 30
0.0
 11
98.1177998064809316
 21
-3.7388481792791008
 31
0.0
  0
LINE
  5
7D78
  8
0
 10
98.1177998064809316
 20
-3.7388481792791008
 30
0.0
 11
98.1177998064809316
 21
-3.7392989067812459
 31
0.0
  0
LINE
  5
7D79
  8
0
 10
98.1177998064809316
 20
-3.7392989067812459
 30
0.0
 11
98.1274575755151233
 21
-3.751026355064047
 31
0.0
  0
LINE
  5
7D7A
  8
0
 10
98.1274575755151233
 20
-3.751026355064047
 30
0.0
 11
98.1471420374467414
 21
-3.751026355064047
 31
0.0
  0
LINE
  5
7D7B
  8
0
 10
98.1471420374467414
 20
-3.751026355064047
 30
0.0
 11
98.1567998064809331
 21
-3.7392989067791018
 31
0.0
  0
LINE
  5
7D7C
  8
0
 10
98.1567998064809331
 20
-3.7392989067791018
 30
0.0
 11
98.1567998064621605
 21
-3.7388481792077379
 31
0.0
  0
LINE
  5
7D7D
  8
0
 10
98.1567998064621605
 20
-3.7388481792077379
 30
0.0
 11
98.1471419909822913
 21
-3.7269743083110152
 31
0.0
  0
LINE
  5
7D7E
  8
0
 10
98.1567998064809331
 20
-3.7392989067791018
 30
0.0
 11
98.1664575755809352
 21
-3.7500858041791019
 31
0.0
  0
LINE
  5
7D7F
  8
0
 10
98.1664575755809352
 20
-3.7500858041791019
 30
0.0
 11
98.1857811485809293
 21
-3.748205303979101
 31
0.0
  0
LINE
  5
7D80
  8
0
 10
98.1857811485809293
 20
-3.748205303979101
 30
0.0
 11
98.1957998065162627
 21
-3.7354146634995762
 31
0.0
  0
LINE
  5
7D81
  8
0
 10
98.1957998065162627
 20
-3.7354146634995762
 30
0.0
 11
98.1957998064809345
 21
-3.7349611410791019
 31
0.0
  0
LINE
  5
7D82
  8
0
 10
98.1957998064809345
 20
-3.7349611410791019
 30
0.0
 11
98.1861420375416714
 21
-3.7239973269403959
 31
0.0
  0
LINE
  5
7D83
  8
0
 10
98.1861420375416714
 20
-3.7239973269403959
 30
0.0
 11
98.1664575754267332
 21
-3.725997306381144
 31
0.0
  0
LINE
  5
7D84
  8
0
 10
98.1664575754267332
 20
-3.725997306381144
 30
0.0
 11
98.1567998064701754
 21
-3.738848179197515
 31
0.0
  0
LINE
  5
7D85
  8
0
 10
98.2347998065013854
 20
-3.7270553575832608
 30
0.0
 11
98.2251420374479238
 21
-3.7169620836065218
 31
0.0
  0
LINE
  5
7D86
  8
0
 10
98.2251420374479238
 20
-3.7169620836065218
 30
0.0
 11
98.2054575755809367
 21
-3.7210323834253329
 31
0.0
  0
LINE
  5
7D87
  8
0
 10
98.2054575755809367
 20
-3.7210323834253329
 30
0.0
 11
98.1957998060642723
 21
-3.734961140606099
 31
0.0
  0
LINE
  5
7D88
  8
0
 10
98.1957998064809345
 20
-3.7354146635446881
 30
0.0
 11
98.2054575755809367
 21
-3.7453094277791008
 31
0.0
  0
LINE
  5
7D89
  8
0
 10
98.2054575755809367
 20
-3.7453094277791008
 30
0.0
 11
98.2251420375497872
 21
-3.7413975811778371
 31
0.0
  0
LINE
  5
7D8A
  8
0
 10
98.2251420375497872
 20
-3.7413975811778371
 30
0.0
 11
98.2347998064809502
 21
-3.7275147588791011
 31
0.0
  0
LINE
  5
7D8B
  8
0
 10
98.2347998064809502
 20
-3.7275147588791011
 30
0.0
 11
98.2347998064809502
 21
-3.7270553577641241
 31
0.0
  0
LINE
  5
7D8C
  8
0
 10
98.2737998064636429
 20
-3.7153127851927401
 30
0.0
 11
98.2737998064376228
 21
-3.7148437533314729
 31
0.0
  0
LINE
  5
7D8D
  8
0
 10
98.2737998064376228
 20
-3.7148437533314729
 30
0.0
 11
98.2641420374809229
 21
-3.705607453279101
 31
0.0
  0
LINE
  5
7D8E
  8
0
 10
98.2641420374809229
 20
-3.705607453279101
 30
0.0
 11
98.244457575580924
 21
-3.7119018585607271
 31
0.0
  0
LINE
  5
7D8F
  8
0
 10
98.244457575580924
 20
-3.7119018585607271
 30
0.0
 11
98.2347998064809502
 21
-3.7270553575618859
 31
0.0
  0
LINE
  5
7D90
  8
0
 10
98.2347998064809502
 20
-3.7275147588791011
 30
0.0
 11
98.244457575565761
 21
-3.7365394110361212
 31
0.0
  0
LINE
  5
7D91
  8
0
 10
98.244457575565761
 20
-3.7365394110361212
 30
0.0
 11
98.2641420374809229
 21
-3.730504515679101
 31
0.0
  0
LINE
  5
7D92
  8
0
 10
98.2641420374809229
 20
-3.730504515679101
 30
0.0
 11
98.2737998064636429
 21
-3.7153127851927401
 31
0.0
  0
LINE
  5
7D93
  8
0
 10
98.2737998061726898
 20
-3.7153127856504282
 30
0.0
 11
98.2834575754228155
 21
-3.723462367699323
 31
0.0
  0
LINE
  5
7D94
  8
0
 10
98.2834575754228155
 20
-3.723462367699323
 30
0.0
 11
98.3031420375323393
 21
-3.715069202206247
 31
0.0
  0
LINE
  5
7D95
  8
0
 10
98.3031420375323393
 20
-3.715069202206247
 30
0.0
 11
98.3129842684360256
 21
-3.6979747324193388
 31
0.0
  0
LINE
  5
7D96
  8
0
 10
98.3129842684360256
 20
-3.6979747324193388
 30
0.0
 11
98.3103130700149705
 21
-3.6957953724856831
 31
0.0
  0
LINE
  5
7D97
  8
0
 10
98.2737998064809233
 20
-3.7148437533791019
 30
0.0
 11
98.2834575754262545
 21
-3.6982498588647199
 31
0.0
  0
LINE
  5
7D98
  8
0
 10
98.2834575754262545
 20
-3.6982498588647199
 30
0.0
 11
98.2971484339374513
 21
-3.6922991377565171
 31
0.0
  0
LINE
  5
7D99
  8
0
 10
98.1567998046673154
 20
-3.7642128398003631
 30
0.0
 11
98.1471420375334844
 21
-3.7542083307189582
 31
0.0
  0
LINE
  5
7D9A
  8
0
 10
98.1471420375334844
 20
-3.7542083307189582
 30
0.0
 11
98.1274575755140148
 21
-3.7542083307080518
 31
0.0
  0
LINE
  5
7D9B
  8
0
 10
98.1274575755140148
 20
-3.7542083307080518
 30
0.0
 11
98.1177998065390256
 21
-3.7642128416579932
 31
0.0
  0
LINE
  5
7D9C
  8
0
 10
98.1177998065390256
 20
-3.7642128416579932
 30
0.0
 11
98.1177998064809316
 21
-3.764593422579102
 31
0.0
  0
LINE
  5
7D9D
  8
0
 10
98.1177998064809316
 20
-3.764593422579102
 30
0.0
 11
98.1274575755809337
 21
-3.7745158540791008
 31
0.0
  0
LINE
  5
7D9E
  8
0
 10
98.1274575755809337
 20
-3.7745158540791008
 30
0.0
 11
98.1471420374600143
 21
-3.7745158540236678
 31
0.0
  0
LINE
  5
7D9F
  8
0
 10
98.1471420374600143
 20
-3.7745158540236678
 30
0.0
 11
98.1567998065080616
 21
-3.7645934225294719
 31
0.0
  0
LINE
  5
7DA0
  8
0
 10
98.1567998065080616
 20
-3.7645934225294719
 30
0.0
 11
98.1567998046673154
 21
-3.7642128398003631
 31
0.0
  0
LINE
  5
7DA1
  8
0
 10
98.1549658155592653
 20
-3.7839884258803771
 30
0.0
 11
98.1471420374471251
 21
-3.7771862900991549
 31
0.0
  0
LINE
  5
7DA2
  8
0
 10
98.1471420374471251
 20
-3.7771862900991549
 30
0.0
 11
98.1274575755277283
 21
-3.7771862900994639
 31
0.0
  0
LINE
  5
7DA3
  8
0
 10
98.1274575755277283
 20
-3.7771862900994639
 30
0.0
 11
98.1196337974207466
 21
-3.7839884258552541
 31
0.0
  0
LINE
  5
7DA4
  8
0
 10
98.1196337974207466
 20
-3.7839884258552541
 30
0.0
 11
98.154965815504724
 21
-3.7839884258567928
 31
0.0
  0
LINE
  5
7DA5
  8
0
 10
98.1939658155408637
 20
-3.7805029864024
 30
0.0
 11
98.1861420374979446
 21
-3.77441796353328
 31
0.0
  0
LINE
  5
7DA6
  8
0
 10
98.1861420374979446
 20
-3.77441796353328
 30
0.0
 11
98.1664575755659428
 21
-3.7762773768367661
 31
0.0
  0
LINE
  5
7DA7
  8
0
 10
98.1664575755659428
 20
-3.7762773768367661
 30
0.0
 11
98.1586337974817411
 21
-3.7838171880421601
 31
0.0
  0
ARC
  5
7DA8
  8
0
 10
98.1373436462095441
 20
-3.366856514650534
 30
0.0
 40
0.417503860643889
 50
272.9230031709220157
 51
277.7945139679724207
  0
LINE
  5
7DA9
  8
0
 10
98.1957998065476261
 20
-3.760467433695756
 30
0.0
 11
98.1861420374619343
 21
-3.7513563423360661
 31
0.0
  0
LINE
  5
7DAA
  8
0
 10
98.1861420374619343
 20
-3.7513563423360661
 30
0.0
 11
98.1664575755234523
 21
-3.7532720917475202
 31
0.0
  0
LINE
  5
7DAB
  8
0
 10
98.1664575755234523
 20
-3.7532720917475202
 30
0.0
 11
98.1567998046673154
 21
-3.7642128398003631
 31
0.0
  0
LINE
  5
7DAC
  8
0
 10
98.1567998064809331
 20
-3.764593422579102
 30
0.0
 11
98.1664575755211786
 21
-3.7736041289342221
 31
0.0
  0
LINE
  5
7DAD
  8
0
 10
98.1664575755211786
 20
-3.7736041289342221
 30
0.0
 11
98.1861420374809342
 21
-3.771738920579101
 31
0.0
  0
LINE
  5
7DAE
  8
0
 10
98.1861420374809342
 20
-3.771738920579101
 30
0.0
 11
98.1957998064809345
 21
-3.760849890483378
 31
0.0
  0
LINE
  5
7DAF
  8
0
 10
98.1957998064809345
 20
-3.760849890483378
 30
0.0
 11
98.1957998064809345
 21
-3.7604674336328321
 31
0.0
  0
LINE
  5
7DB0
  8
0
 10
98.1957998064809345
 20
-3.760849890483378
 30
0.0
 11
98.2054575755505965
 21
-3.7689763741326381
 31
0.0
  0
LINE
  5
7DB1
  8
0
 10
98.2054575755505965
 20
-3.7689763741326381
 30
0.0
 11
98.225142037500845
 21
-3.7651891021649089
 31
0.0
  0
LINE
  5
7DB2
  8
0
 10
98.225142037500845
 20
-3.7651891021649089
 30
0.0
 11
98.2347998064809502
 21
-3.7532454180791008
 31
0.0
  0
LINE
  5
7DB3
  8
0
 10
98.2347998064809502
 20
-3.7532454180791008
 30
0.0
 11
98.2347998064575734
 21
-3.7528590299944322
 31
0.0
  0
LINE
  5
7DB4
  8
0
 10
98.2347998064575734
 20
-3.7528590299944322
 30
0.0
 11
98.2251420374335851
 21
-3.7446247784652891
 31
0.0
  0
LINE
  5
7DB5
  8
0
 10
98.2251420374335851
 20
-3.7446247784652891
 30
0.0
 11
98.2054575755320798
 21
-3.7485179609171908
 31
0.0
  0
LINE
  5
7DB6
  8
0
 10
98.2054575755320798
 20
-3.7485179609171908
 30
0.0
 11
98.1957998064809345
 21
-3.7604674336328321
 31
0.0
  0
ARC
  5
7DB7
  8
0
 10
98.137620940043945
 20
-3.3686605340910498
 30
0.0
 40
0.4156786513966262
 50
278.3009843348045251
 51
283.2600777816971913
  0
LINE
  5
7DB8
  8
0
 10
98.2329658154221619
 20
-3.7732567474753651
 30
0.0
 11
98.2251420373219162
 21
-3.767888961896884
 31
0.0
  0
LINE
  5
7DB9
  8
0
 10
98.2251420373219162
 20
-3.767888961896884
 30
0.0
 11
98.2054575755116872
 21
-3.7716641071843209
 31
0.0
  0
LINE
  5
7DBA
  8
0
 10
98.2054575755116872
 20
-3.7716641071843209
 30
0.0
 11
98.197633797499023
 21
-3.7799842486602362
 31
0.0
  0
ARC
  5
7DBB
  8
0
 10
98.1383031093763947
 20
-3.3713922906116678
 30
0.0
 40
0.4128629256784794
 50
283.7784324056862033
 51
288.8896169753663798
  0
LINE
  5
7DBC
  8
0
 10
98.2719658156048155
 20
-3.7620200882152059
 30
0.0
 11
98.2641420376363612
 21
-3.7573921366083569
 31
0.0
  0
LINE
  5
7DBD
  8
0
 10
98.2641420376363612
 20
-3.7573921366083569
 30
0.0
 11
98.2444575755399541
 21
-3.7632046119622311
 31
0.0
  0
LINE
  5
7DBE
  8
0
 10
98.2444575755399541
 20
-3.7632046119622311
 30
0.0
 11
98.2366337975076931
 21
-3.7723746732314272
 31
0.0
  0
LINE
  5
7DBF
  8
0
 10
98.3031420374626634
 20
-3.7425608971358102
 30
0.0
 11
98.2834575754862527
 21
-3.7506190855946251
 31
0.0
  0
LINE
  5
7DC0
  8
0
 10
98.2834575754862527
 20
-3.7506190855946251
 30
0.0
 11
98.2756337973827954
 21
-3.760745446254893
 31
0.0
  0
ARC
  5
7DC1
  8
0
 10
98.1396797973263375
 20
-3.3752682613422138
 30
0.0
 40
0.4087494956810904
 50
289.4272434358392161
 51
294.7745538540168013
  0
LINE
  5
7DC2
  8
0
 10
98.3031420374626634
 20
-3.7425608971358102
 30
0.0
 11
98.310965815519495
 21
-3.746397955813785
 31
0.0
  0
LINE
  5
7DC3
  8
0
 10
98.3497421347474159
 20
-3.7297828492976191
 30
0.0
 11
98.3519842683825232
 21
-3.7263965832458399
 31
0.0
  0
LINE
  5
7DC4
  8
0
 10
98.3519842683825232
 20
-3.7263965832458399
 30
0.0
 11
98.3421420374809259
 21
-3.7227948083791018
 31
0.0
  0
LINE
  5
7DC5
  8
0
 10
98.3421420374809259
 20
-3.7227948083791018
 30
0.0
 11
98.3224575754253038
 21
-3.7334379695158462
 31
0.0
  0
LINE
  5
7DC6
  8
0
 10
98.3224575754253038
 20
-3.7334379695158462
 30
0.0
 11
98.3146337974722115
 21
-3.7446826443302612
 31
0.0
  0
LINE
  5
7DC7
  8
0
 10
98.3146337974722115
 20
-3.7446826443302612
 30
0.0
 11
98.3470219839278457
 21
-3.727502440967867
 31
0.0
  0
LINE
  5
7DC8
  8
0
 10
98.3470219839278457
 20
-3.727502440967867
 30
0.0
 11
98.3497421347809251
 21
-3.729782849172413
 31
0.0
  0
LINE
  5
7DC9
  8
0
 10
98.2347998065506971
 20
-3.7532454180733219
 30
0.0
 11
98.244457575580924
 21
-3.7604893507791011
 31
0.0
  0
LINE
  5
7DCA
  8
0
 10
98.244457575580924
 20
-3.7604893507791011
 30
0.0
 11
98.2641420374946932
 21
-3.7546571979905439
 31
0.0
  0
LINE
  5
7DCB
  8
0
 10
98.2641420366426956
 20
-3.7546571982429811
 30
0.0
 11
98.2737998065341145
 21
-3.7415257540517022
 31
0.0
  0
LINE
  5
7DCC
  8
0
 10
98.2737998065341145
 20
-3.7415257540517022
 30
0.0
 11
98.2737998064687019
 21
-3.7411329687917232
 31
0.0
  0
LINE
  5
7DCD
  8
0
 10
98.2737998064687019
 20
-3.7411329687917232
 30
0.0
 11
98.2641420374879999
 21
-3.7337859178906498
 31
0.0
  0
LINE
  5
7DCE
  8
0
 10
98.2641420374879999
 20
-3.7337859178906498
 30
0.0
 11
98.2444575755067433
 21
-3.7397903672172998
 31
0.0
  0
LINE
  5
7DCF
  8
0
 10
98.2444575755067433
 20
-3.7397903672172998
 30
0.0
 11
98.2347998064999928
 21
-3.7528590299394522
 31
0.0
  0
LINE
  5
7DD0
  8
0
 10
98.2737998062178519
 20
-3.7415257544817102
 30
0.0
 11
98.2834575755011173
 21
-3.7478603855289752
 31
0.0
  0
LINE
  5
7DD1
  8
0
 10
98.2834575755011173
 20
-3.7478603855289752
 30
0.0
 11
98.303142037485074
 21
-3.7397726896036581
 31
0.0
  0
LINE
  5
7DD2
  8
0
 10
98.303142037485074
 20
-3.7397726896036581
 30
0.0
 11
98.3127998065178446
 21
-3.7252527913692912
 31
0.0
  0
LINE
  5
7DD3
  8
0
 10
98.3127998065178446
 20
-3.7252527913692912
 30
0.0
 11
98.3127998065127571
 21
-3.724850369340686
 31
0.0
  0
LINE
  5
7DD4
  8
0
 10
98.3127998065127571
 20
-3.724850369340686
 30
0.0
 11
98.3031420374926483
 21
-3.7184335510730899
 31
0.0
  0
LINE
  5
7DD5
  8
0
 10
98.3031420374926483
 20
-3.7184335510730899
 30
0.0
 11
98.2834575755605755
 21
-3.7267806730370951
 31
0.0
  0
LINE
  5
7DD6
  8
0
 10
98.2834575755605755
 20
-3.7267806730370951
 30
0.0
 11
98.2737998065593246
 21
-3.7411329687458248
 31
0.0
  0
LINE
  5
7DD7
  8
0
 10
98.3334675787715042
 20
-3.702959261505697
 30
0.0
 11
98.3224575755206729
 21
-3.7089655858965278
 31
0.0
  0
LINE
  5
7DD8
  8
0
 10
98.3224575755206729
 20
-3.7089655858965278
 30
0.0
 11
98.3127998065416193
 21
-3.724850369358371
 31
0.0
  0
LINE
  5
7DD9
  8
0
 10
98.312799806535125
 20
-3.7252527913421192
 30
0.0
 11
98.3224575755868813
 21
-3.7306146142579841
 31
0.0
  0
LINE
  5
7DDA
  8
0
 10
98.3224575755868813
 20
-3.7306146142579841
 30
0.0
 11
98.3421420374075836
 21
-3.719927907409688
 31
0.0
  0
LINE
  5
7DDB
  8
0
 10
98.3421420374075836
 20
-3.719927907409688
 30
0.0
 11
98.3488776590048843
 21
-3.708798503602829
 31
0.0
  0
LINE
  5
7DDC
  8
0
 10
98.3421420374809259
 20
-3.7199279072791018
 30
0.0
 11
98.3421420374809259
 21
-3.7060405373562899
 31
0.0
  0
LINE
  5
7DDD
  8
0
 10
98.3224575755868813
 20
-3.7306146142579841
 30
0.0
 11
98.3224575755206729
 21
-3.7089655858965278
 31
0.0
  0
LINE
  5
7DDE
  8
0
 10
98.3421420374809259
 20
-3.7227948083791018
 30
0.0
 11
98.341895815572471
 21
-3.7302215995393371
 31
0.0
  0
LINE
  5
7DDF
  8
0
 10
98.3224575754253038
 20
-3.7334379695158462
 30
0.0
 11
98.3222472656416073
 21
-3.7406441060310369
 31
0.0
  0
LINE
  5
7DE0
  8
0
 10
98.3031420374809244
 20
-3.718433551179102
 30
0.0
 11
98.303142037485074
 21
-3.7397726896036581
 31
0.0
  0
LINE
  5
7DE1
  8
0
 10
98.3031420375255038
 20
-3.7425608972102178
 30
0.0
 11
98.3031420365144726
 21
-3.7499097520758959
 31
0.0
  0
LINE
  5
7DE2
  8
0
 10
98.2834575754862527
 20
-3.7506190855946251
 30
0.0
 11
98.2834575736017371
 21
-3.757896150117785
 31
0.0
  0
LINE
  5
7DE3
  8
0
 10
98.2641420376363612
 20
-3.7573921366083569
 30
0.0
 11
98.2641420366433351
 21
-3.7646102451662671
 31
0.0
  0
LINE
  5
7DE4
  8
0
 10
98.2444575755399541
 20
-3.7632046119622311
 30
0.0
 11
98.2444575745534934
 21
-3.7703747775991969
 31
0.0
  0
LINE
  5
7DE5
  8
0
 10
98.2251420373219162
 20
-3.767888961896884
 30
0.0
 11
98.2251420363407135
 21
-3.775020963918962
 31
0.0
  0
LINE
  5
7DE6
  8
0
 10
98.2054575755116872
 20
-3.7716641071843209
 30
0.0
 11
98.205457574534563
 21
-3.7787665353247588
 31
0.0
  0
LINE
  5
7DE7
  8
0
 10
98.1861420374979446
 20
-3.77441796353328
 30
0.0
 11
98.1861420365238047
 21
-3.7814987589470932
 31
0.0
  0
LINE
  5
7DE8
  8
0
 10
98.1664575755659428
 20
-3.7762773768367661
 30
0.0
 11
98.1664575745937213
 21
-3.7833440328627739
 31
0.0
  0
LINE
  5
7DE9
  8
0
 10
98.1471420374471251
 20
-3.7771862900991549
 30
0.0
 11
98.1471420365113119
 21
-3.7839884258564518
 31
0.0
  0
LINE
  5
7DEA
  8
0
 10
98.1274575755277283
 20
-3.7771862900994639
 30
0.0
 11
98.1274575745919009
 21
-3.7839884258555938
 31
0.0
  0
LINE
  5
7DEB
  8
0
 10
98.2834575755605755
 20
-3.7267806730370951
 30
0.0
 11
98.2834575755011173
 21
-3.7478603855289752
 31
0.0
  0
LINE
  5
7DEC
  8
0
 10
98.2641420374879999
 20
-3.7337859178906498
 30
0.0
 11
98.2641420366426956
 21
-3.7546571982429811
 31
0.0
  0
LINE
  5
7DED
  8
0
 10
98.2444575755067433
 20
-3.7397903672172998
 30
0.0
 11
98.244457575580924
 21
-3.7604893507791011
 31
0.0
  0
LINE
  5
7DEE
  8
0
 10
98.2251420374335851
 20
-3.7446247784652891
 30
0.0
 11
98.225142037500845
 21
-3.7651891021649089
 31
0.0
  0
LINE
  5
7DEF
  8
0
 10
98.2054575755320798
 20
-3.7485179609171908
 30
0.0
 11
98.2054575755505965
 21
-3.7689763741326381
 31
0.0
  0
LINE
  5
7DF0
  8
0
 10
98.1861420374619343
 20
-3.7513563423360661
 30
0.0
 11
98.1861420374809342
 21
-3.771738920579101
 31
0.0
  0
LINE
  5
7DF1
  8
0
 10
98.1664575755234523
 20
-3.7532720917475202
 30
0.0
 11
98.1664575755211786
 21
-3.7736041289342221
 31
0.0
  0
LINE
  5
7DF2
  8
0
 10
98.1471420375334844
 20
-3.7542083307189582
 30
0.0
 11
98.1471420374600143
 21
-3.7745158540236678
 31
0.0
  0
LINE
  5
7DF3
  8
0
 10
98.1274575755140148
 20
-3.7542083307080518
 30
0.0
 11
98.1274575755809337
 21
-3.7745158540791008
 31
0.0
  0
LINE
  5
7DF4
  8
0
 10
98.1274575755151233
 20
-3.751026355064047
 30
0.0
 11
98.127457588775755
 21
-3.7269738504864778
 31
0.0
  0
LINE
  5
7DF5
  8
0
 10
98.1471419909822913
 20
-3.7269743083110152
 30
0.0
 11
98.1471420374467414
 21
-3.751026355064047
 31
0.0
  0
LINE
  5
7DF6
  8
0
 10
98.1664575754267332
 20
-3.725997306381144
 30
0.0
 11
98.1664575755809352
 21
-3.7500858041791019
 31
0.0
  0
LINE
  5
7DF7
  8
0
 10
98.1857811485809293
 20
-3.748205303979101
 30
0.0
 11
98.1861420375416714
 21
-3.7239973269403959
 31
0.0
  0
LINE
  5
7DF8
  8
0
 10
98.2054575755809367
 20
-3.7453094277791008
 30
0.0
 11
98.2054575755809367
 21
-3.7210323834253329
 31
0.0
  0
LINE
  5
7DF9
  8
0
 10
98.2251420375497872
 20
-3.7413975811778371
 30
0.0
 11
98.2251420374479238
 21
-3.7169620836065218
 31
0.0
  0
LINE
  5
7DFA
  8
0
 10
98.244457575565761
 20
-3.7365394110361212
 30
0.0
 11
98.244457575580924
 21
-3.7119018585607271
 31
0.0
  0
LINE
  5
7DFB
  8
0
 10
98.2641420374809229
 20
-3.730504515679101
 30
0.0
 11
98.2641420374809229
 21
-3.705607453279101
 31
0.0
  0
LINE
  5
7DFC
  8
0
 10
98.2834575754228155
 20
-3.723462367699323
 30
0.0
 11
98.2834575754262545
 21
-3.6982498588647199
 31
0.0
  0
LINE
  5
7DFD
  8
0
 10
98.3031420375323393
 20
-3.715069202206247
 30
0.0
 11
98.3031420375323393
 21
-3.6938400365408999
 31
0.0
  0
LINE
  5
7DFE
  8
0
 10
98.2641420374809229
 20
-3.7017073881791021
 30
0.0
 11
98.2641420374809229
 21
-3.6853001105186989
 31
0.0
  0
LINE
  5
7DFF
  8
0
 10
98.2444575754878997
 20
-3.7080470306656981
 30
0.0
 11
98.2444575754878997
 21
-3.682292889048616
 31
0.0
  0
LINE
  5
7E00
  8
0
 10
98.2251420374058313
 20
-3.7131423928967249
 30
0.0
 11
98.2251420374058313
 21
-3.684254775266278
 31
0.0
  0
LINE
  5
7E01
  8
0
 10
98.20545757554207
 20
-3.7172401964222819
 30
0.0
 11
98.20545757554207
 21
-3.6885856052359931
 31
0.0
  0
LINE
  5
7E02
  8
0
 10
98.1861420374642648
 20
-3.720224763381232
 30
0.0
 11
98.1861420374735161
 21
-3.6917361007752758
 31
0.0
  0
LINE
  5
7E03
  8
0
 10
98.1664575755392548
 20
-3.7222377891047751
 30
0.0
 11
98.1664575755809352
 21
-3.693859289871273
 31
0.0
  0
LINE
  5
7E04
  8
0
 10
98.1471420374809469
 20
-3.7232211668791022
 30
0.0
 11
98.1471420374809469
 21
-3.694895979779103
 31
0.0
  0
LINE
  5
7E05
  8
0
 10
98.1274576198408681
 20
-3.7232212272457521
 30
0.0
 11
98.1274575755995215
 21
-3.694895979789711
 31
0.0
  0
LINE
  5
7E06
  8
0
 10
98.1861420374809342
 20
-3.6872874156791009
 30
0.0
 11
98.1861420374809342
 21
-3.6766774254368531
 31
0.0
  0
LINE
  5
7E07
  8
0
 10
98.1664575755809352
 20
-3.6894297532791009
 30
0.0
 11
98.1664575755809352
 21
-3.6757301171504762
 31
0.0
  0
LINE
  5
7E08
  8
0
 10
98.1471420374463861
 20
-3.6904757019701231
 30
0.0
 11
98.1471420374463861
 21
-3.6752713910556118
 31
0.0
  0
LINE
  5
7E09
  8
0
 10
98.1274575755809337
 20
-3.6904757020791021
 30
0.0
 11
98.1274575755809337
 21
-3.6752828897033361
 31
0.0
  0
ARC
  5
7E0A
  8
0
 10
98.1394762943479577
 20
-3.384444544422863
 30
0.0
 40
0.4142985795464832
 50
282.8010504757746162
 51
300.4498691957385859
  0
ARC
  5
7E0B
  8
0
 10
98.1371107452336986
 20
-3.3752108653219461
 30
0.0
 40
0.4238269646876541
 50
275.9177037905640191
 51
282.8363181619023976
  0
ARC
  5
7E0C
  8
0
 10
98.3207130577188622
 20
-3.6863042115004321
 30
0.0
 40
0.0919456578293654
 50
308.6309102969809146
 51
322.4705331758008242
  0
ARC
  5
7E0D
  8
0
 10
98.1335914325134553
 20
-3.4263065132823289
 30
0.0
 40
0.4121880207967219
 50
299.9113473086471231
 51
306.3867459105093189
  0
ARC
  5
7E0E
  8
0
 10
98.1852577048525035
 20
-3.5213424389060379
 30
0.0
 40
0.3040583673291132
 50
290.3159357671952989
 51
300.4024831402908831
  0
ARC
  5
7E0F
  8
0
 10
98.1708235224857333
 20
-3.542957001040091
 30
0.0
 40
0.2895653499023484
 50
282.7641921334416111
 51
294.4829071811550989
  0
ARC
  5
7E10
  8
0
 10
98.1337780426779602
 20
-3.4108843217564089
 30
0.0
 40
0.4266156063269037
 50
273.680301788739996
 51
283.6976381833035816
  0
LINE
  5
7E11
  8
0
 10
98.3504776629402357
 20
-3.770360930773093
 30
0.0
 11
98.3494363051809302
 21
-3.7725018372791022
 31
0.0
  0
ARC
  5
7E12
  8
0
 10
98.1396657280138527
 20
-3.4157164765081869
 30
0.0
 40
0.4138834240525254
 50
284.892597413104113
 51
300.4532351804693917
  0
ARC
  5
7E13
  8
0
 10
98.137209870931855
 20
-3.4069309047144878
 30
0.0
 40
0.4230050727760485
 50
276.6391765660591773
 51
284.9082284673951904
  0
LINE
  5
7E14
  8
0
 10
98.3494363051809302
 20
-3.7725018372791022
 30
0.0
 11
98.3456334154809326
 21
-3.7708741898791018
 31
0.0
  0
LINE
  5
7E15
  8
0
 10
98.3456334154809326
 20
-3.7708741898791018
 30
0.0
 11
98.3504776629013406
 21
-3.7703609308530441
 31
0.0
  0
LINE
  5
7E16
  8
0
 10
98.3456334154958967
 20
-3.7708741898736009
 30
0.0
 11
98.3456334154809326
 21
-3.7640774044791021
 31
0.0
  0
LINE
  5
7E17
  8
0
 10
98.3189661975812612
 20
-3.7578433763057908
 30
0.0
 11
98.3189661974869153
 21
-3.760429555691676
 31
0.0
  0
LINE
  5
7E18
  8
0
 10
98.3189661974869153
 20
-3.760429555691676
 30
0.0
 11
98.3158607511838341
 21
-3.7593203057104492
 31
0.0
  0
LINE
  5
7E19
  8
0
 10
98.3260268079503703
 20
-3.7543664535995318
 30
0.0
 11
98.3421420374313726
 21
-3.760743804351145
 31
0.0
  0
LINE
  5
7E1A
  8
0
 10
98.3421420374313726
 20
-3.760743804351145
 30
0.0
 11
98.3509462462824473
 21
-3.7692031755974389
 31
0.0
  0
LINE
  5
7E1B
  8
0
 10
98.3509462462824473
 20
-3.7692031755974389
 30
0.0
 11
98.3517998064124157
 21
-3.768997619725718
 31
0.0
  0
LINE
  5
7E1C
  8
0
 10
98.3517998064124157
 20
-3.768997619725718
 30
0.0
 11
98.3614575753961304
 21
-3.7593240517650739
 31
0.0
  0
LINE
  5
7E1D
  8
0
 10
98.3614575753961304
 20
-3.7593240517650739
 30
0.0
 11
98.3811420374375984
 21
-3.746082698288284
 31
0.0
  0
LINE
  5
7E1E
  8
0
 10
98.3811420374375984
 20
-3.746082698288284
 30
0.0
 11
98.3909842683175953
 21
-3.7425083891673201
 31
0.0
  0
LINE
  5
7E1F
  8
0
 10
98.3909842683175953
 20
-3.7425083891673201
 30
0.0
 11
98.3811420374809273
 21
-3.7526888034791019
 31
0.0
  0
LINE
  5
7E20
  8
0
 10
98.3811420374809273
 20
-3.7526888034791019
 30
0.0
 11
98.3614575754364466
 21
-3.7660940870818438
 31
0.0
  0
LINE
  5
7E21
  8
0
 10
98.3614575754364466
 20
-3.7660940870818438
 30
0.0
 11
98.3517998065601091
 21
-3.7691258792746201
 31
0.0
  0
LINE
  5
7E22
  8
0
 10
98.3517998065601091
 20
-3.7691258792746201
 30
0.0
 11
98.3504776629013406
 21
-3.7703609308530441
 31
0.0
  0
LINE
  5
7E23
  8
0
 10
98.3811420375477041
 20
-3.752688803454669
 30
0.0
 11
98.3811420374375842
 21
-3.7460826982882942
 31
0.0
  0
LINE
  5
7E24
  8
0
 10
98.3614575754364182
 20
-3.7660940870818531
 30
0.0
 11
98.3614575753961162
 21
-3.7593240517650779
 31
0.0
  0
LINE
  5
7E25
  8
0
 10
98.3887889169953667
 20
-3.7355597655977522
 30
0.0
 11
98.3811420374809273
 21
-3.7448475804791022
 31
0.0
  0
LINE
  5
7E26
  8
0
 10
98.3811420374809273
 20
-3.7448475804791022
 30
0.0
 11
98.3614575755809142
 21
-3.7580773713903901
 31
0.0
  0
LINE
  5
7E27
  8
0
 10
98.3614575755809142
 20
-3.7580773713903901
 30
0.0
 11
98.3527954931809347
 21
-3.7591499771791019
 31
0.0
  0
LINE
  5
7E28
  8
0
 10
98.3527954931809347
 20
-3.7591499771791019
 30
0.0
 11
98.3517998064764356
 21
-3.7581792090014421
 31
0.0
  0
LINE
  5
7E29
  8
0
 10
98.3517998064764356
 20
-3.7581792090014421
 30
0.0
 11
98.3421420375106266
 21
-3.759227917101998
 31
0.0
  0
LINE
  5
7E2A
  8
0
 10
98.3421420375106266
 20
-3.759227917101998
 30
0.0
 11
98.3277376908594363
 21
-3.7534986862473181
 31
0.0
  0
LINE
  5
7E2B
  8
0
 10
98.3391390063862048
 20
-3.7474570985250191
 30
0.0
 11
98.3421420374851607
 21
-3.748692135571011
 31
0.0
  0
LINE
  5
7E2C
  8
0
 10
98.3421420374851607
 20
-3.748692135571011
 30
0.0
 11
98.3421420374809259
 21
-3.7592279171052221
 31
0.0
  0
LINE
  5
7E2D
  8
0
 10
98.3421420376127173
 20
-3.7486921356234681
 30
0.0
 11
98.3517998064764356
 21
-3.7579817486014431
 31
0.0
  0
LINE
  5
7E2E
  8
0
 10
98.3517998064764356
 20
-3.7579817486014431
 30
0.0
 11
98.3517998064764356
 21
-3.7581792090014421
 31
0.0
  0
ARC
  5
7E2F
  8
0
 10
98.3227966761566847
 20
-3.7588284911265508
 30
0.0
 40
0.0300005395974155
 50
339.7683482357546154
 51
359.3860061591615249
  0
LINE
  5
7E30
  8
0
 10
98.3527954432684339
 20
-3.757886671962126
 30
0.0
 11
98.3517998065503036
 21
-3.7579817486724769
 31
0.0
  0
LINE
  5
7E31
  8
0
 10
98.3527954432684339
 20
-3.757886671962126
 30
0.0
 11
98.3614575754538834
 21
-3.7475415900879181
 31
0.0
  0
LINE
  5
7E32
  8
0
 10
98.3614575754538834
 20
-3.7475415900879181
 30
0.0
 11
98.3811420374809273
 21
-3.7343117990066079
 31
0.0
  0
LINE
  5
7E33
  8
0
 10
98.3811420374809273
 20
-3.7343117990066079
 30
0.0
 11
98.3874016319319509
 21
-3.7335094623765182
 31
0.0
  0
ARC
  5
7E34
  8
0
 10
98.3063788049680767
 20
-3.7592540458923209
 30
0.0
 40
0.0464367744634637
 50
1.687371316745413
 51
16.3125715290492117
  0
LINE
  5
7E35
  8
0
 10
98.3614575753764342
 20
-3.758077371519339
 30
0.0
 11
98.3614575754538834
 21
-3.747541590087923
 31
0.0
  0
LINE
  5
7E36
  8
0
 10
98.3811420375466241
 20
-3.744847580426141
 30
0.0
 11
98.3811420374809131
 21
-3.7343117990066248
 31
0.0
  0
LINE
  5
7E37
  8
0
 10
98.3811420374400853
 20
-3.7325151422082721
 30
0.0
 11
98.3833682584919558
 21
-3.729453214850257
 31
0.0
  0
LINE
  5
7E38
  8
0
 10
98.3811420374902923
 20
-3.7325151421398508
 30
0.0
 11
98.3811420374902923
 21
-3.7275743191650239
 31
0.0
  0
LINE
  5
7E39
  8
0
 10
98.3811420374398011
 20
-3.7325151422086589
 30
0.0
 11
98.3614575755636622
 21
-3.745756495650034
 31
0.0
  0
LINE
  5
7E3A
  8
0
 10
98.3614575755636622
 20
-3.745756495650034
 30
0.0
 11
98.3517998065611181
 21
-3.7450917424137029
 31
0.0
  0
LINE
  5
7E3B
  8
0
 10
98.3517998065611181
 20
-3.7450917424137029
 30
0.0
 11
98.3517998064339452
 21
-3.7448250813325781
 31
0.0
  0
LINE
  5
7E3C
  8
0
 10
98.3517998064339452
 20
-3.7448250813325781
 30
0.0
 11
98.3614575755368179
 21
-3.7314549678864148
 31
0.0
  0
LINE
  5
7E3D
  8
0
 10
98.3614575755368179
 20
-3.7314549678864148
 30
0.0
 11
98.3744655471466132
 21
-3.7228111026601152
 31
0.0
  0
LINE
  5
7E3E
  8
0
 10
98.3614575753169618
 20
-3.7457564956330538
 30
0.0
 11
98.3614575755809142
 21
-3.7314549679902029
 31
0.0
  0
LINE
  5
7E3F
  8
0
 10
98.3517998064599084
 20
-3.7450917424067369
 30
0.0
 11
98.350946206081062
 21
-3.746211010179552
 31
0.0
  0
LINE
  5
7E40
  8
0
 10
98.350946206081062
 20
-3.746211010179552
 30
0.0
 11
98.3421420374570516
 21
-3.7471762482750508
 31
0.0
  0
LINE
  5
7E41
  8
0
 10
98.3421420374570516
 20
-3.7471762482750508
 30
0.0
 11
98.340714156878434
 21
-3.7465862786905322
 31
0.0
  0
LINE
  5
7E42
  8
0
 10
98.3421420374809259
 20
-3.7471762482849189
 30
0.0
 11
98.3421420374809259
 21
-3.7457891300673651
 31
0.0
  0
LINE
  5
7E43
  8
0
 10
98.3517998064339452
 20
-3.7448250813325781
 30
0.0
 11
98.350477662931155
 21
-3.7446448220278712
 31
0.0
  0
LINE
  5
7E44
  8
0
 10
98.350477662931155
 20
-3.7446448220278712
 30
0.0
 11
98.3494363051809302
 21
-3.741600122379102
 31
0.0
  0
LINE
  5
7E45
  8
0
 10
98.350477662931155
 20
-3.7446448220278712
 30
0.0
 11
98.3481422991146559
 21
-3.742357678393863
 31
0.0
  0
ARC
  5
7E46
  8
0
 10
98.1372578183809452
 20
-3.417204143978855
 30
0.0
 40
0.4175236621002468
 50
262.2056015352035274
 51
267.0768811638001807
  0
LINE
  5
7E47
  8
0
 10
98.0806337974760964
 20
-3.8308703483878799
 30
0.0
 11
98.0884575759390742
 21
-3.8331604203791212
 31
0.0
  0
LINE
  5
7E48
  8
0
 10
98.0884575759390742
 20
-3.8331604203791212
 30
0.0
 11
98.1081420372385651
 21
-3.8350198336255081
 31
0.0
  0
LINE
  5
7E49
  8
0
 10
98.1081420372385651
 20
-3.8350198336255081
 30
0.0
 11
98.1159658155022356
 21
-3.8341845501105611
 31
0.0
  0
ARC
  5
7E4A
  8
0
 10
98.1372998064809252
 20
-3.416539525878854
 30
0.0
 40
0.4181895703002489
 50
267.5788754120015938
 51
272.4211245879984062
  0
LINE
  5
7E4B
  8
0
 10
98.1196337973977393
 20
-3.834355787925916
 30
0.0
 11
98.1274575751729827
 21
-3.8359287468910508
 31
0.0
  0
LINE
  5
7E4C
  8
0
 10
98.1274575751729827
 20
-3.8359287468910508
 30
0.0
 11
98.1471420374471251
 21
-3.8359287468991559
 31
0.0
  0
LINE
  5
7E4D
  8
0
 10
98.1471420374471251
 20
-3.8359287468991559
 30
0.0
 11
98.154965815504724
 21
-3.8343557879284269
 31
0.0
  0
ARC
  5
7E4E
  8
0
 10
98.1373251687429899
 20
-3.4170268973220961
 30
0.0
 40
0.417701526120275
 50
272.9241565763753101
 51
277.7933606713797872
  0
LINE
  5
7E4F
  8
0
 10
98.158633797551829
 20
-3.8341845500988492
 30
0.0
 11
98.1664575751001536
 21
-3.835019833612288
 31
0.0
  0
LINE
  5
7E50
  8
0
 10
98.1664575751001536
 20
-3.835019833612288
 30
0.0
 11
98.1861420371460412
 21
-3.8331604203092962
 31
0.0
  0
LINE
  5
7E51
  8
0
 10
98.1861420371460412
 20
-3.8331604203092962
 30
0.0
 11
98.1939651826135957
 21
-3.8308704350896239
 31
0.0
  0
ARC
  5
7E52
  8
0
 10
98.1375490515689108
 20
-3.418650347009756
 30
0.0
 40
0.416062624166595
 50
278.3032740742146984
 51
283.257788056354002
  0
LINE
  5
7E53
  8
0
 10
98.1976337979653664
 20
-3.83035161074103
 30
0.0
 11
98.2054575755897758
 21
-3.8304065639883791
 31
0.0
  0
LINE
  5
7E54
  8
0
 10
98.2054575755897758
 20
-3.8304065639883791
 30
0.0
 11
98.2251420374669948
 21
-3.8266314187882968
 31
0.0
  0
LINE
  5
7E55
  8
0
 10
98.2251420374669948
 20
-3.8266314187882968
 30
0.0
 11
98.2329658155174457
 21
-3.8236241095993639
 31
0.0
  0
ARC
  5
7E56
  8
0
 10
98.1381865216550153
 20
-3.4213618336229601
 30
0.0
 40
0.4132770649215885
 50
283.7809951191513278
 51
288.8870544296240723
  0
LINE
  5
7E57
  8
0
 10
98.2366337973991932
 20
-3.8227420352881039
 30
0.0
 11
98.2444575755806113
 21
-3.8219470687962849
 31
0.0
  0
LINE
  5
7E58
  8
0
 10
98.2444575755806113
 20
-3.8219470687962849
 30
0.0
 11
98.2641420365634275
 21
-3.816134593801805
 31
0.0
  0
LINE
  5
7E59
  8
0
 10
98.2641420365634275
 20
-3.816134593801805
 30
0.0
 11
98.2719658153210815
 21
-3.8123874504335968
 31
0.0
  0
ARC
  5
7E5A
  8
0
 10
98.1394537658810862
 20
-3.4250790005794371
 30
0.0
 40
0.4093496080996381
 50
289.431165915415022
 51
294.7706315239651076
  0
LINE
  5
7E5B
  8
0
 10
98.2756337974738443
 20
-3.8111128082267949
 30
0.0
 11
98.2834575755209841
 21
-3.809361542351513
 31
0.0
  0
LINE
  5
7E5C
  8
0
 10
98.2834575755209841
 20
-3.809361542351513
 30
0.0
 11
98.3031420374809244
 21
-3.8013033538598
 31
0.0
  0
LINE
  5
7E5D
  8
0
 10
98.3031420374809244
 20
-3.8013033538598
 30
0.0
 11
98.3109658155224508
 21
-3.796765317894379
 31
0.0
  0
LINE
  5
7E5E
  8
0
 10
98.3224575751769834
 20
-3.7921804263753649
 30
0.0
 11
98.3146337974486357
 21
-3.7950500063858712
 31
0.0
  0
LINE
  5
7E5F
  8
0
 10
98.3146337974486357
 20
-3.7950500063858712
 30
0.0
 11
98.3519842682344034
 21
-3.7746032585562062
 31
0.0
  0
LINE
  5
7E60
  8
0
 10
98.3519842682344034
 20
-3.7746032585562062
 30
0.0
 11
98.3421420375823345
 21
-3.7815372651292209
 31
0.0
  0
LINE
  5
7E61
  8
0
 10
98.3421420374809259
 20
-3.7815372652006638
 30
0.0
 11
98.3224575751769549
 21
-3.792180426375376
 31
0.0
  0
LINE
  5
7E62
  8
0
 10
98.1872998064798708
 20
-3.5555766126813211
 30
0.0
 11
98.1872998064809366
 21
-3.5361227563791018
 31
0.0
  0
LINE
  5
7E63
  8
0
 10
98.3200685720809133
 20
-3.5726400158791018
 30
0.0
 11
98.3647419179809361
 21
-3.5588351858791021
 31
0.0
  0
LINE
  5
7E64
  8
0
 10
98.3200685721688217
 20
-3.5726400158519458
 30
0.0
 11
98.3200685720798617
 21
-3.5498050735515361
 31
0.0
  0
ARC
  5
7E65
  8
0
 10
98.1590198991582383
 20
-4.4615554654623351
 30
0.0
 40
0.9258647051266791
 50
77.1620423637517803
 51
88.2496671715667986
  0
LINE
  5
7E66
  8
0
 10
98.3907792501809269
 20
-3.5944908280790999
 30
0.0
 11
98.4354525960809355
 21
-3.580685998079101
 31
0.0
  0
LINE
  5
7E67
  8
0
 10
98.445773873554856
 20
-3.6355186536022202
 30
0.0
 11
98.4457738734809453
 21
-3.5879658300791011
 31
0.0
  0
LINE
  5
7E68
  8
0
 10
98.5089515251809331
 20
-3.6355186534791022
 30
0.0
 11
98.445773873554856
 21
-3.6355186534791022
 31
0.0
  0
ARC
  5
7E69
  8
0
 10
98.4358001070774833
 20
-3.6734323610440298
 30
0.0
 40
0.082392834590533
 50
27.397292132776311
 51
57.8414104982314186
  0
ARC
  5
7E6A
  8
0
 10
98.348120413686317
 20
-3.8025476976880839
 30
0.0
 40
0.2384313817866207
 50
56.5186196007780026
 51
68.5137425280738768
  0
LINE
  5
7E6B
  8
0
 10
98.4457738734809453
 20
-3.5879658300791011
 30
0.0
 11
98.4520634072651148
 21
-3.5879658300791011
 31
0.0
  0
LINE
  5
7E6C
  8
0
 10
98.4457738734809453
 20
-3.5879658300791011
 30
0.0
 11
98.4434339716054438
 21
-3.583995988709467
 31
0.0
  0
LINE
  5
7E6D
  8
0
 10
98.4477836964870363
 20
-3.6664203683791028
 30
0.0
 11
98.5089515251809331
 21
-3.6664203683791019
 31
0.0
  0
ARC
  5
7E6E
  8
0
 10
98.4424402148152922
 20
-3.633606112775241
 30
0.0
 40
0.0741655565433852
 50
305.4826483289812131
 51
333.7399484662799978
  0
ARC
  5
7E6F
  8
0
 10
98.360031552402873
 20
-3.5225109250198319
 30
0.0
 40
0.2124801782578892
 50
292.0079560097835838
 51
306.1888182945476728
  0
LINE
  5
7E70
  8
0
 10
98.9146553068256651
 20
-3.1887735242845072
 30
0.0
 11
98.9269643461713883
 21
-3.0190187113512712
 31
0.0
  0
ARC
  5
7E71
  8
0
 10
98.8955380839003766
 20
-3.017491230809259
 30
0.0
 40
0.031463362139684
 50
357.217315712476875
 51
89.9302568824229951
  0
LINE
  5
7E72
  8
0
 10
98.3517998065601091
 20
-3.7691258792746201
 30
0.0
 11
98.3517998064124157
 21
-3.768997619725718
 31
0.0
  0
ENDSEC
  0
EOF
