  0
SECTION
  2
HEADER
  9
$ACADVER
  1
AC1009
  9
$INSBASE
 10
4376.2638320141732038
 20
216.1943678614914006
 30
0.0
  9
$EXTMIN
 10
4368.5497778081971774
 20
216.1863483474550094
 30
-0.0000000000112498
  9
$EXTMAX
 10
4383.9359945708911255
 20
232.9834226060015112
 30
0.0000000000002956
  9
$LIMMIN
 10
0.0
 20
0.0
  9
$LIMMAX
 10
11.6929133858000007
 20
8.2677165353999982
  9
$ORTHOMODE
 70
     0
  9
$REGENMODE
 70
     1
  9
$FILLMODE
 70
     1
  9
$QTEXTMODE
 70
     0
  9
$MIRRTEXT
 70
     0
  9
$DRAGMODE
 70
     2
  9
$LTSCALE
 40
0.6431102362
  9
$OSMODE
 70
  4095
  9
$ATTMODE
 70
     1
  9
$TEXTSIZE
 40
0.2
  9
$TRACEWID
 40
0.05
  9
$TEXTSTYLE
  7
STANDARD
  9
$CLAYER
  8
0
  9
$CELTYPE
  6
BYLAYER
  9
$CECOLOR
 62
   256
  9
$DIMSCALE
 40
1.0
  9
$DIMASZ
 40
0.1875
  9
$DIMEXO
 40
0.0625
  9
$DIMDLI
 40
0.4443307087
  9
$DIMRND
 40
0.0
  9
$DIMDLE
 40
0.0
  9
$DIMEXE
 40
0.125
  9
$DIMTP
 40
0.01
  9
$DIMTM
 40
0.01
  9
$DIMTXT
 40
2.0
  9
$DIMCEN
 40
0.1052362205
  9
$DIMTSZ
 40
0.0
  9
$DIMTOL
 70
     1
  9
$DIMLIM
 70
     0
  9
$DIMTIH
 70
     1
  9
$DIMTOH
 70
     1
  9
$DIMSE1
 70
     0
  9
$DIMSE2
 70
     0
  9
$DIMTAD
 70
     0
  9
$DIMZIN
 70
     0
  9
$DIMBLK
  1

  9
$DIMASO
 70
     1
  9
$DIMSHO
 70
     1
  9
$DIMPOST
  1
\X
  9
$DIMAPOST
  1

  9
$DIMALT
 70
     1
  9
$DIMALTD
 70
     2
  9
$DIMALTF
 40
25.3999999999999986
  9
$DIMLFAC
 40
1.0
  9
$DIMTOFL
 70
     0
  9
$DIMTVP
 40
0.0
  9
$DIMTIX
 70
     0
  9
$DIMSOXD
 70
     0
  9
$DIMSAH
 70
     0
  9
$DIMBLK1
  1

  9
$DIMBLK2
  1

  9
$DIMSTYLE
  2
STANDARD
  9
$DIMCLRD
 70
     0
  9
$DIMCLRE
 70
     0
  9
$DIMCLRT
 70
     0
  9
$DIMTFAC
 40
1.0
  9
$DIMGAP
 40
0.09
  9
$LUNITS
 70
     2
  9
$LUPREC
 70
     4
  9
$SKETCHINC
 40
0.1
  9
$FILLETRAD
 40
0.0
  9
$AUNITS
 70
     0
  9
$AUPREC
 70
     0
  9
$MENU
  1
.
  9
$ELEVATION
 40
0.0
  9
$PELEVATION
 40
0.0
  9
$THICKNESS
 40
0.0
  9
$LIMCHECK
 70
     0
  9
$BLIPMODE
 70
     0
  9
$CHAMFERA
 40
0.0
  9
$CHAMFERB
 40
0.0
  9
$SKPOLY
 70
     0
  9
$TDCREATE
 40
2458060.468368056230247
  9
$TDUPDATE
 40
2459235.8537499997764826
  9
$TDINDWG
 40
0.6404700231
  9
$TDUSRTIMER
 40
0.6404700231
  9
$USRTIMER
 70
     1
  9
$ANGBASE
 50
0.0
  9
$ANGDIR
 70
     0
  9
$PDMODE
 70
     0
  9
$PDSIZE
 40
0.3125
  9
$PLINEWID
 40
0.0
  9
$COORDS
 70
     1
  9
$SPLFRAME
 70
     0
  9
$SPLINETYPE
 70
     6
  9
$SPLINESEGS
 70
     8
  9
$ATTDIA
 70
     1
  9
$ATTREQ
 70
     1
  9
$HANDLING
 70
     1
  9
$HANDSEED
  5
12E72
  9
$SURFTAB1
 70
     6
  9
$SURFTAB2
 70
     6
  9
$SURFTYPE
 70
     6
  9
$SURFU
 70
     6
  9
$SURFV
 70
     6
  9
$UCSNAME
  2

  9
$UCSORG
 10
0.0
 20
0.0
 30
0.0
  9
$UCSXDIR
 10
1.0
 20
0.0
 30
0.0
  9
$UCSYDIR
 10
0.0
 20
1.0
 30
0.0
  9
$PUCSNAME
  2

  9
$PUCSORG
 10
0.0
 20
0.0
 30
0.0
  9
$PUCSXDIR
 10
1.0
 20
0.0
 30
0.0
  9
$PUCSYDIR
 10
0.0
 20
1.0
 30
0.0
  9
$USERI1
 70
     0
  9
$USERI2
 70
     0
  9
$USERI3
 70
     0
  9
$USERI4
 70
     0
  9
$USERI5
 70
     0
  9
$USERR1
 40
0.0
  9
$USERR2
 40
0.0
  9
$USERR3
 40
0.0
  9
$USERR4
 40
0.0
  9
$USERR5
 40
0.0
  9
$WORLDVIEW
 70
     1
  9
$SHADEDGE
 70
     3
  9
$SHADEDIF
 70
    70
  9
$TILEMODE
 70
     1
  9
$MAXACTVP
 70
    64
  9
$PLIMCHECK
 70
     0
  9
$PEXTMIN
 10
1.0000000000000000E+20
 20
1.0000000000000000E+20
 30
1.0000000000000000E+20
  9
$PEXTMAX
 10
-1.0000000000000000E+20
 20
-1.0000000000000000E+20
 30
-1.0000000000000000E+20
  9
$PLIMMIN
 10
0.0
 20
0.0
  9
$PLIMMAX
 10
12.0
 20
9.0
  9
$UNITMODE
 70
     0
  9
$VISRETAIN
 70
     1
  9
$PLINEGEN
 70
     0
  9
$PSLTSCALE
 70
     1
  0
ENDSEC
  0
SECTION
  2
TABLES
  0
TABLE
  2
VPORT
 70
     1
  0
VPORT
  2
*ACTIVE
 70
     0
 10
0.0
 20
0.0
 11
1.0
 21
1.0
 12
214.6864897051690946
 22
-1.525946737627236
 13
0.0
 23
0.0
 14
1.0
 24
1.0
 15
0.0
 25
0.0
 16
0.0
 26
0.0
 36
202.37134017897489
 17
4161.556396484375
 27
226.1108322143554972
 37
0.0
 40
17.02253834255378
 41
2.8789237668161429
 42
50.0
 43
0.0
 44
0.0
 50
0.0
 51
0.0
 71
     0
 72
   100
 73
     1
 74
     1
 75
     0
 76
     0
 77
     0
 78
     0
  0
ENDTAB
  0
TABLE
  2
LTYPE
 70
     2
  0
LTYPE
  2
CONTINUOUS
 70
     0
  3
Solid line
 72
    65
 73
     0
 40
0.0
  0
LTYPE
  2
PHANTOM2
 70
     0
  3
___ _ _ ___ _ _ ___ _ _ ___ _ _
 72
    65
 73
     6
 40
1.25
 49
0.625
 49
-0.125
 49
0.125
 49
-0.125
 49
0.125
 49
-0.125
  0
ENDTAB
  0
TABLE
  2
LAYER
 70
     2
  0
LAYER
  2
0
 70
     0
 62
   255
  6
CONTINUOUS
  0
LAYER
  2
DEFPOINTS
 70
     0
 62
     7
  6
CONTINUOUS
  0
ENDTAB
  0
TABLE
  2
STYLE
 70
     1
  0
STYLE
  2
STANDARD
 70
     0
 40
0.0
 41
0.8
 50
0.0
 71
     0
 42
0.2
  3
txt
  4

  0
ENDTAB
  0
TABLE
  2
VIEW
 70
     0
  0
ENDTAB
  0
TABLE
  2
UCS
 70
     0
  0
ENDTAB
  0
TABLE
  2
APPID
 70
     9
  0
APPID
  2
ACAD
 70
     0
  0
APPID
  2
ACAD_MLEADERVER
 70
     0
  0
APPID
  2
ACAD_EXEMPT_FROM_CAD_STANDARDS
 70
     0
  0
APPID
  2
ACAD_NAV_VCDISPLAY
 70
     0
  0
APPID
  2
ACAECLAYERSTANDARD
 70
     0
  0
APPID
  2
ACCMTRANSPARENCY
 70
     0
  0
APPID
  2
ACAD_DSTYLE_DIMJAG
 70
     0
  0
APPID
  2
ACAD_DSTYLE_DIMTALN
 70
     0
  0
APPID
  2
ACDBATTR
 70
     0
  0
ENDTAB
  0
TABLE
  2
DIMSTYLE
 70
     1
  0
DIMSTYLE
  2
STANDARD
 70
     0
  3

  4

  5

  6

  7

 40
1.0
 41
0.1875
 42
0.0625
 43
0.38
 44
0.125
 45
0.0
 46
0.0
 47
0.01
 48
0.01
140
0.15625
141
0.09
142
0.0
143
25.3999999999999986
144
1.0
145
0.0
146
1.0
147
0.09
 71
     1
 72
     0
 73
     1
 74
     1
 75
     0
 76
     0
 77
     0
 78
     4
170
     0
171
     2
172
     0
173
     0
174
     0
175
     0
176
     0
177
     0
178
     0
  0
ENDTAB
  0
ENDSEC
  0
SECTION
  2
BLOCKS
  0
BLOCK
  8
0
  2
$MODEL_SPACE
 70
     0
 10
0.0
 20
0.0
 30
0.0
  3
$MODEL_SPACE
  1

  0
ENDBLK
  5
21
  8
0
  0
BLOCK
 67
     1
  8
0
  2
$PAPER_SPACE
 70
     0
 10
0.0
 20
0.0
 30
0.0
  3
$PAPER_SPACE
  1

  0
ENDBLK
  5
1D
 67
     1
  8
0
  0
BLOCK
  8
0
  2
_FILLED
 70
     0
 10
0.0
 20
0.0
 30
0.0
  3
_FILLED
  1

  0
SOLID
  5
12CC5
  8
0
  6
BYBLOCK
 62
     0
 10
0.0
 20
0.0
 30
0.0
 11
-1.0
 21
0.1666666667
 31
0.0
 12
-1.0
 22
-0.1666666667
 32
0.0
 13
-1.0
 23
-0.1666666667
 33
0.0
  0
ENDBLK
  5
12CC6
  8
0
  6
BYBLOCK
 62
     0
  0
ENDSEC
  0
SECTION
  2
ENTITIES
  0
ATTDEF
  5
3930
  8
DEFPOINTS
 10
4376.2605936966529043
 20
216.19952751598791
 30
0.0
 40
0.001
  1
K-6299BR
  3

  2
MODELNUMBER
 70
     0
1001
ACDBATTR
1070
     0
1070
     1
  0
ATTDEF
  5
3931
  8
DEFPOINTS
 10
4376.2605936966529043
 20
216.1978608493213017
 30
0.0
 40
0.001
  1
VEIL
  3

  2
TRADENAME
 70
     0
1001
ACDBATTR
1070
     0
1070
     1
  0
ATTDEF
  5
3932
  8
DEFPOINTS
 10
4376.2605936966529043
 20
216.1961941826546081
 30
0.0
 40
0.001
  1
TOILET
  3

  2
PRODUCT
 70
     0
1001
ACDBATTR
1070
     0
1070
     1
  0
ARC
  5
12D1B
  8
0
 10
4377.2459959152847659
 20
511.8209693922647716
 30
0.0
 40
278.8972498627500727
 50
268.9474416964217767
 51
269.7694654792809956
  0
ARC
  5
12D1C
  8
0
 10
4373.3412542377409409
 20
210.709689042458109
 30
0.0
 40
22.2944126364441289
 50
93.1330132472708243
 51
99.2599815365654052
  0
ARC
  5
12D1D
  8
0
 10
4376.7403846438937762
 20
202.1947122715633895
 30
0.0
 40
31.3083618599483913
 50
102.8944230394534998
 51
103.1798127417073943
  0
ARC
  5
12D1E
  8
0
 10
4369.6582290324049609
 20
232.3706291426896939
 30
0.0
 40
0.3128852913945828
 50
100.3840409357345038
 51
158.5693837727473863
  0
ARC
  5
12D1F
  8
0
 10
4373.0397672535982565
 20
231.0948050654735937
 30
0.0
 40
3.9270719095286402
 50
159.2684416278329991
 51
174.173627220798096
  0
ARC
  5
12D20
  8
0
 10
4369.7056006671791692
 20
231.302659448511605
 30
0.0
 40
0.1851691298769304
 50
11.9292322043693897
 51
42.3365205326719121
  0
ARC
  5
12D21
  8
0
 10
4369.945000446058657
 20
231.3532364738707088
 30
0.0
 40
0.0595149309488676
 50
191.9292322043694128
 51
270.4104717399861215
  0
ARC
  5
12D22
  8
0
 10
4370.6568730903391042
 20
-3491.2109506152869471
 30
0.0
 40
3722.5047416713960047
 50
89.9890496125383237
 51
90.0109503874616763
  0
LINE
  5
12D23
  8
0
 10
4371.1258476702932967
 20
231.4273678614914047
 30
0.0
 11
4371.3683193683427817
 21
231.2937230701901115
 31
0.0
  0
LINE
  5
12D24
  8
0
 10
4371.3683193683427817
 20
231.2937230701901115
 30
0.0
 11
4371.5317831118436516
 21
231.1943678614914859
 31
0.0
  0
ARC
  5
12D25
  8
0
 10
4371.6824213623140167
 20
231.2624870455950088
 30
0.0
 40
0.175319646377227
 50
24.9010438581942992
 51
70.1286642082582006
  0
ARC
  5
12D26
  8
0
 10
4371.9632529693517426
 20
231.3928509562967122
 30
0.0
 40
0.1342948570377518
 50
204.9010438581942992
 51
267.1425845960769152
  0
ARC
  5
12D27
  8
0
 10
4372.5289368406720314
 20
-358562.0886042296770029
 30
0.0
 40
358793.3473277565208264
 50
89.999908596298269
 51
90.0000914032327444
  0
ARC
  5
12D28
  8
0
 10
4373.0962656743258776
 20
231.3599512733597976
 30
0.0
 40
0.1013542184811408
 50
272.8574154039231985
 51
320.984641100790725
  0
ARC
  5
12D29
  8
0
 10
4373.4945810409617479
 20
231.1297949937051897
 30
0.0
 40
0.3602703058645329
 50
124.3129282346530005
 51
152.5006137456090869
  0
LINE
  5
12D2A
  8
0
 10
4371.9565582852383159
 20
231.2587230701900864
 30
0.0
 11
4371.9572575699376102
 21
231.2187230701900944
 31
0.0
  0
LINE
  5
12D2B
  8
0
 10
4371.9572575699376102
 20
231.2187230701900944
 30
0.0
 11
4373.1006200440388056
 21
231.2187230701900944
 31
0.0
  0
LINE
  5
12D2C
  8
0
 10
4373.1006200440388056
 20
231.2187230701900944
 30
0.0
 11
4373.1013182466303988
 21
231.2587230701919907
 31
0.0
  0
ARC
  5
12D2D
  8
0
 10
4309.1373045340105818
 20
211.5072192165632998
 30
0.0
 40
62.6361646028807968
 50
8.1271300463806675
 51
18.0040763652258207
  0
ARC
  5
12D2E
  8
0
 10
4371.5504896164266029
 20
217.3607729595287026
 30
0.0
 40
2.857333777759707
 50
60.3057760909352965
 51
82.0098756121161756
  0
ARC
  5
12D2F
  8
0
 10
4371.3880220545170232
 20
217.0758702688852964
 30
0.0
 40
3.1853051969545079
 50
49.2564390972644617
 51
60.3057760909352965
  0
ARC
  5
12D30
  8
0
 10
4376.2638071946330456
 20
222.6891511048013115
 30
0.0
 40
4.2499417237709647
 50
228.8461130303429059
 51
249.5636232794248031
  0
ARC
  5
12D31
  8
0
 10
4378.7176550752437834
 20
220.8584089250877014
 30
0.0
 40
4.517471851984558
 50
188.5040550941131983
 51
204.5940162758743952
  0
ARC
  5
12D32
  8
0
 10
4375.7366476260322088
 20
219.4939737189982907
 30
0.0
 40
1.239044051364093
 50
204.5940162758743952
 51
242.9660241280662945
  0
ARC
  5
12D33
  8
0
 10
4376.2526518575587033
 20
220.5292417286987927
 30
0.0
 40
2.3957542545771142
 50
243.2272930835769955
 51
270.2673805596252237
  0
ARC
  5
12D34
  8
0
 10
4370.1615781214868548
 20
231.0144227836019013
 30
0.0
 40
1.7430970028470769
 50
100.5415331789597957
 51
107.5526997970578975
  0
ARC
  5
12D35
  8
0
 10
4369.6584457736862532
 20
232.6050517883159046
 30
0.0
 40
0.0747916381009147
 50
107.5526997970578975
 51
135.4213807247992918
  0
ARC
  5
12D36
  8
0
 10
4369.6110770316481648
 20
232.6517288597306106
 30
0.0
 40
0.0082894071747924
 50
135.4213807247992918
 51
234.0716483524394107
  0
ARC
  5
12D37
  8
0
 10
4369.6897181535723576
 20
232.760254209041392
 30
0.0
 40
0.1423124555672781
 50
234.0716483524394107
 51
263.4782904365923741
  0
ARC
  5
12D38
  8
0
 10
4370.6485663817647946
 20
240.4501659878700934
 30
0.0
 40
7.8917653330126489
 50
262.9030861427966101
 51
269.6738956229077075
  0
ARC
  5
12D39
  8
0
 10
4374.7603466755026602
 20
496.7760433282040253
 30
0.0
 40
264.2502096149395925
 50
269.0986913290856251
 51
270.3259934187495901
  0
ARC
  5
12D3A
  8
0
 10
4443.3903594943376447
 20
211.5072192165632998
 30
0.0
 40
62.6361646028807968
 50
161.9959236347741864
 51
171.8728699536193005
  0
ARC
  5
12D3B
  8
0
 10
4380.9771744119207142
 20
217.3607729595287026
 30
0.0
 40
2.857333777759707
 50
97.9901243878838102
 51
119.6942239090647035
  0
ARC
  5
12D3C
  8
0
 10
4381.1396419738302939
 20
217.0758702688852964
 30
0.0
 40
3.1853051969545079
 50
119.6942239090647035
 51
130.7435609027355952
  0
ARC
  5
12D3D
  8
0
 10
4376.263856833715181
 20
222.6891511048013115
 30
0.0
 40
4.2499417237709647
 50
290.4363767205750833
 51
311.1538869696569805
  0
ARC
  5
12D3E
  8
0
 10
4373.8100089531017147
 20
220.8584089250877014
 30
0.0
 40
4.517471851984558
 50
335.4059837241255764
 51
351.4959449058868017
  0
ARC
  5
12D3F
  8
0
 10
4376.7910164023160178
 20
219.4939737189982907
 30
0.0
 40
1.239044051364093
 50
297.0339758719337055
 51
335.4059837241255764
  0
ARC
  5
12D40
  8
0
 10
4376.2750121707886137
 20
220.5292417286987927
 30
0.0
 40
2.3957542545771231
 50
269.7326194403747763
 51
296.7727069164229761
  0
ARC
  5
12D41
  8
0
 10
4375.2386259338272794
 20
506.1469979427644716
 30
0.0
 40
273.2224548285639116
 50
270.1856313247777166
 51
271.0540863566384928
  0
ARC
  5
12D42
  8
0
 10
4379.0464095307361276
 20
210.7096890424556932
 30
0.0
 40
22.2944126364465589
 50
80.7400184634345948
 51
86.8669867527292041
  0
ARC
  5
12D43
  8
0
 10
4375.6472791245823828
 20
202.1947122715633895
 30
0.0
 40
31.3083618599483913
 50
76.8201872582925915
 51
77.1055769605461307
  0
ARC
  5
12D44
  8
0
 10
4382.7294347360711981
 20
232.3706291426896939
 30
0.0
 40
0.3128852913945828
 50
21.4306162272541592
 51
79.6159590642655104
  0
ARC
  5
12D45
  8
0
 10
4379.3478965148779025
 20
231.0948050654735937
 30
0.0
 40
3.9270719095286402
 50
5.8263727792018711
 51
20.731558372166969
  0
ARC
  5
12D46
  8
0
 10
4382.6820631012978993
 20
231.302659448511605
 30
0.0
 40
0.1851691298769304
 50
137.6634794673751969
 51
168.0707677956305872
  0
ARC
  5
12D47
  8
0
 10
4382.4426633224165926
 20
231.3532364738707088
 30
0.0
 40
0.0595149309488676
 50
269.5895282600138785
 51
348.0707677956306156
  0
ARC
  5
12D48
  8
0
 10
4381.7307906781388738
 20
-3491.2109506152869471
 30
0.0
 40
3722.5047416713960047
 50
89.9890496125383237
 51
90.0109503874616763
  0
LINE
  5
12D49
  8
0
 10
4381.2618160981828623
 20
231.4273678614914047
 30
0.0
 11
4381.0193444001333773
 21
231.2937230701901115
 31
0.0
  0
LINE
  5
12D4A
  8
0
 10
4381.0193444001333773
 20
231.2937230701901115
 30
0.0
 11
4380.855880656631598
 21
231.1943678614914859
 31
0.0
  0
ARC
  5
12D4B
  8
0
 10
4380.7052424061630518
 20
231.2624870455950088
 30
0.0
 40
0.175319646377227
 50
109.8713357918480966
 51
155.0989561418057008
  0
ARC
  5
12D4C
  8
0
 10
4380.4243429245316293
 20
231.392951667419112
 30
0.0
 40
0.1343988410721004
 50
272.8841737478891787
 51
335.0721966102345846
  0
ARC
  5
12D4D
  8
0
 10
4379.8587255027414358
 20
-130165.7196636909066001
 30
0.0
 40
130396.9783880173054058
 50
89.9997484990966257
 51
90.0002515009033743
  0
ARC
  5
12D4E
  8
0
 10
4379.291413050204028
 20
231.3599807269453947
 30
0.0
 40
0.1013843817665404
 50
219.0229709743396995
 51
267.134974416579098
  0
ARC
  5
12D4F
  8
0
 10
4378.8930827275153206
 20
231.1297949937051897
 30
0.0
 40
0.3602703058645329
 50
27.4993862543908882
 51
55.6870717653469569
  0
LINE
  5
12D50
  8
0
 10
4380.4311054806521497
 20
231.2587230701819863
 30
0.0
 11
4380.4304061985376393
 21
231.2187230701900944
 31
0.0
  0
LINE
  5
12D51
  8
0
 10
4380.4304061985376393
 20
231.2187230701900944
 30
0.0
 11
4379.2870437244373534
 21
231.2187230701900944
 31
0.0
  0
LINE
  5
12D52
  8
0
 10
4379.2870437244373534
 20
231.2187230701900944
 30
0.0
 11
4379.286345524882563
 21
231.2587230701838905
 31
0.0
  0
ARC
  5
12D53
  8
0
 10
4382.2260856469902137
 20
231.0144227836019013
 30
0.0
 40
1.7430970028470769
 50
72.4473002029420741
 51
79.4584668210401475
  0
ARC
  5
12D54
  8
0
 10
4382.7292179947908153
 20
232.6050517883159046
 30
0.0
 40
0.0747916381009147
 50
44.5786192752006869
 51
72.4473002029420741
  0
ARC
  5
12D55
  8
0
 10
4382.7765867368298132
 20
232.6517288597306106
 30
0.0
 40
0.0082894071747924
 50
305.9283516475605893
 51
44.5786192752006869
  0
ARC
  5
12D56
  8
0
 10
4382.697945614904711
 20
232.760254209041392
 30
0.0
 40
0.1423124555672781
 50
276.5217095634076259
 51
305.9283516475605893
  0
ARC
  5
12D57
  8
0
 10
4381.7390973867122739
 20
240.4501659878700934
 30
0.0
 40
7.8917653330126489
 50
270.3261043770921788
 51
277.0969138572033899
  0
ARC
  5
12D58
  8
0
 10
4377.6994703628897696
 20
489.8222221769084967
 30
0.0
 40
257.2961165488082997
 50
269.6803043659822947
 51
270.9096015067837016
  0
LINE
  5
12D59
  8
0
 10
4383.1949914714195984
 20
231.4273678614914047
 30
0.0
 11
4369.1926722970556511
 21
231.4273678614914047
 31
0.0
  0
ARC
  5
12D5A
  8
0
 10
4383.1949914714195984
 20
231.4873678614914922
 30
0.0
 40
0.06
 50
270.0
 51
5.8263727792002511
  0
ARC
  5
12D5B
  8
0
 10
4369.1926722970556511
 20
231.4873678614914922
 30
0.0
 40
0.06
 50
174.173627220803013
 51
270.0
  0
LINE
  5
12D5C
  8
0
 10
4383.5834455878703011
 20
231.1943678614914859
 30
0.0
 11
4368.9442184404779255
 21
231.1943678614914859
 31
0.0
  0
ARC
  5
12D5D
  8
0
 10
4383.5834455878703011
 20
230.9443678614914859
 30
0.0
 40
0.25
 50
341.9959236347726232
 51
90.0
  0
ARC
  5
12D5E
  8
0
 10
4368.9442184404779255
 20
230.9443678614914859
 30
0.0
 40
0.25
 50
90.0
 51
198.0040763652226872
  0
LINE
  5
12D5F
  8
0
 10
4371.3423947771116218
 20
220.1903678614914952
 30
0.0
 11
4381.1852692512347858
 21
220.1903678614914952
 31
0.0
  0
ARC
  5
12D60
  8
0
 10
4371.3423947771116218
 20
220.3903678614915123
 30
0.0
 40
0.2
 50
188.1271300463822058
 51
270.0
  0
ARC
  5
12D61
  8
0
 10
4381.1852692512347858
 20
220.3903678614915123
 30
0.0
 40
0.2
 50
270.0
 51
351.8728699536129056
  0
LINE
  5
12D62
  8
0
 10
4381.1337726974661564
 20
220.1652567859462124
 30
0.0
 11
4381.1932597365967013
 21
220.1652567859462124
 31
0.0
  0
ARC
  5
12D63
  8
0
 10
4381.1850144474410627
 20
220.2921130158975984
 30
0.0
 40
0.1271239075497202
 50
273.7188294548577119
 51
325.2513182216653718
  0
LINE
  5
12D64
  8
0
 10
4380.9912659434039597
 20
220.1903678614914952
 30
0.0
 11
4381.1337726974661564
 21
220.1652567859462124
 31
0.0
  0
LINE
  5
12D65
  8
0
 10
4371.3938912780904502
 20
220.1652567859462124
 30
0.0
 11
4371.3344042389599053
 21
220.1652567859462124
 31
0.0
  0
ARC
  5
12D66
  8
0
 10
4371.3426495281146344
 20
220.2921130158975984
 30
0.0
 40
0.1271239075497202
 50
214.7486817783344861
 51
266.2811705451422881
  0
LINE
  5
12D67
  8
0
 10
4371.5363980321526469
 20
220.1903678614914952
 30
0.0
 11
4371.3938912780904502
 21
220.1652567859462124
 31
0.0
  0
ENDSEC
  0
EOF
