  0
SECTION
  2
HEADER
  9
$ACADVER
  1
AC1009
  9
$INSBASE
 10
4456.104882055185044
 20
162.9063805373041873
 30
0.0
  9
$EXTMIN
 10
4447.4386154050807818
 20
162.906380522973393
 30
0.0
  9
$EXTMAX
 10
4457.10494476308304
 20
177.5693649636785096
 30
0.0
  9
$LIMMIN
 10
0.0
 20
0.0
  9
$LIMMAX
 10
11.6929133858000007
 20
8.2677165353999982
  9
$ORTHOMODE
 70
     0
  9
$REGENMODE
 70
     1
  9
$FILLMODE
 70
     1
  9
$QTEXTMODE
 70
     0
  9
$MIRRTEXT
 70
     0
  9
$DRAGMODE
 70
     2
  9
$LTSCALE
 40
0.6431102362
  9
$OSMODE
 70
  2039
  9
$ATTMODE
 70
     1
  9
$TEXTSIZE
 40
0.2
  9
$TRACEWID
 40
0.05
  9
$TEXTSTYLE
  7
STANDARD
  9
$CLAYER
  8
0
  9
$CELTYPE
  6
BYLAYER
  9
$CECOLOR
 62
   256
  9
$DIMSCALE
 40
1.0
  9
$DIMASZ
 40
0.1875
  9
$DIMEXO
 40
0.0625
  9
$DIMDLI
 40
0.4443307087
  9
$DIMRND
 40
0.0
  9
$DIMDLE
 40
0.0
  9
$DIMEXE
 40
0.125
  9
$DIMTP
 40
0.01
  9
$DIMTM
 40
0.01
  9
$DIMTXT
 40
2.0
  9
$DIMCEN
 40
0.1052362205
  9
$DIMTSZ
 40
0.0
  9
$DIMTOL
 70
     1
  9
$DIMLIM
 70
     0
  9
$DIMTIH
 70
     1
  9
$DIMTOH
 70
     1
  9
$DIMSE1
 70
     0
  9
$DIMSE2
 70
     0
  9
$DIMTAD
 70
     0
  9
$DIMZIN
 70
     0
  9
$DIMBLK
  1

  9
$DIMASO
 70
     1
  9
$DIMSHO
 70
     1
  9
$DIMPOST
  1
\X
  9
$DIMAPOST
  1

  9
$DIMALT
 70
     1
  9
$DIMALTD
 70
     2
  9
$DIMALTF
 40
25.3999999999999986
  9
$DIMLFAC
 40
1.0
  9
$DIMTOFL
 70
     0
  9
$DIMTVP
 40
0.0
  9
$DIMTIX
 70
     0
  9
$DIMSOXD
 70
     0
  9
$DIMSAH
 70
     0
  9
$DIMBLK1
  1

  9
$DIMBLK2
  1

  9
$DIMSTYLE
  2
STANDARD
  9
$DIMCLRD
 70
     0
  9
$DIMCLRE
 70
     0
  9
$DIMCLRT
 70
     0
  9
$DIMTFAC
 40
1.0
  9
$DIMGAP
 40
0.09
  9
$LUNITS
 70
     2
  9
$LUPREC
 70
     4
  9
$SKETCHINC
 40
0.1
  9
$FILLETRAD
 40
0.0
  9
$AUNITS
 70
     0
  9
$AUPREC
 70
     0
  9
$MENU
  1
.
  9
$ELEVATION
 40
0.0
  9
$PELEVATION
 40
0.0
  9
$THICKNESS
 40
0.0
  9
$LIMCHECK
 70
     0
  9
$BLIPMODE
 70
     0
  9
$CHAMFERA
 40
0.0
  9
$CHAMFERB
 40
0.0
  9
$SKPOLY
 70
     0
  9
$TDCREATE
 40
2458060.468368056230247
  9
$TDUPDATE
 40
2459609.9944444438442588
  9
$TDINDWG
 40
0.4469399306
  9
$TDUSRTIMER
 40
0.4469399306
  9
$USRTIMER
 70
     1
  9
$ANGBASE
 50
0.0
  9
$ANGDIR
 70
     0
  9
$PDMODE
 70
     0
  9
$PDSIZE
 40
0.3125
  9
$PLINEWID
 40
0.0
  9
$COORDS
 70
     1
  9
$SPLFRAME
 70
     0
  9
$SPLINETYPE
 70
     6
  9
$SPLINESEGS
 70
     8
  9
$ATTDIA
 70
     1
  9
$ATTREQ
 70
     1
  9
$HANDLING
 70
     1
  9
$HANDSEED
  5
D132
  9
$SURFTAB1
 70
     6
  9
$SURFTAB2
 70
     6
  9
$SURFTYPE
 70
     6
  9
$SURFU
 70
     6
  9
$SURFV
 70
     6
  9
$UCSNAME
  2

  9
$UCSORG
 10
0.0
 20
0.0
 30
0.0
  9
$UCSXDIR
 10
1.0
 20
0.0
 30
0.0
  9
$UCSYDIR
 10
0.0
 20
1.0
 30
0.0
  9
$PUCSNAME
  2

  9
$PUCSORG
 10
0.0
 20
0.0
 30
0.0
  9
$PUCSXDIR
 10
1.0
 20
0.0
 30
0.0
  9
$PUCSYDIR
 10
0.0
 20
1.0
 30
0.0
  9
$USERI1
 70
     0
  9
$USERI2
 70
     0
  9
$USERI3
 70
     0
  9
$USERI4
 70
     0
  9
$USERI5
 70
     0
  9
$USERR1
 40
0.0
  9
$USERR2
 40
0.0
  9
$USERR3
 40
0.0
  9
$USERR4
 40
0.0
  9
$USERR5
 40
0.0
  9
$WORLDVIEW
 70
     1
  9
$SHADEDGE
 70
     3
  9
$SHADEDIF
 70
    70
  9
$TILEMODE
 70
     1
  9
$MAXACTVP
 70
    64
  9
$PLIMCHECK
 70
     0
  9
$PEXTMIN
 10
1.0000000000000000E+20
 20
1.0000000000000000E+20
 30
1.0000000000000000E+20
  9
$PEXTMAX
 10
-1.0000000000000000E+20
 20
-1.0000000000000000E+20
 30
-1.0000000000000000E+20
  9
$PLIMMIN
 10
0.0
 20
0.0
  9
$PLIMMAX
 10
12.0
 20
9.0
  9
$UNITMODE
 70
     0
  9
$VISRETAIN
 70
     1
  9
$PLINEGEN
 70
     0
  9
$PSLTSCALE
 70
     1
  0
ENDSEC
  0
SECTION
  2
TABLES
  0
TABLE
  2
VPORT
 70
     1
  0
VPORT
  2
*ACTIVE
 70
     0
 10
0.0
 20
0.0
 11
1.0
 21
1.0
 12
659.50221537486334
 22
39.3166090882431618
 13
0.0
 23
0.0
 14
1.0
 24
1.0
 15
0.0
 25
0.0
 16
0.0
 26
0.0
 36
17.1152628219792007
 17
3803.5440673828129547
 27
125.9952621967499056
 37
0.0
 40
41.2973801146726416
 41
2.0416666666666661
 42
50.0
 43
0.0
 44
0.0
 50
0.0
 51
0.0
 71
     0
 72
   100
 73
     1
 74
     1
 75
     0
 76
     0
 77
     0
 78
     0
  0
ENDTAB
  0
TABLE
  2
LTYPE
 70
     2
  0
LTYPE
  2
CONTINUOUS
 70
     0
  3
Solid line
 72
    65
 73
     0
 40
0.0
  0
LTYPE
  2
PHANTOM2
 70
     0
  3
___ _ _ ___ _ _ ___ _ _ ___ _ _
 72
    65
 73
     6
 40
1.25
 49
0.625
 49
-0.125
 49
0.125
 49
-0.125
 49
0.125
 49
-0.125
  0
ENDTAB
  0
TABLE
  2
LAYER
 70
     2
  0
LAYER
  2
0
 70
     0
 62
   255
  6
CONTINUOUS
  0
LAYER
  2
DEFPOINTS
 70
     0
 62
     7
  6
CONTINUOUS
  0
ENDTAB
  0
TABLE
  2
STYLE
 70
     1
  0
STYLE
  2
STANDARD
 70
     0
 40
0.0
 41
0.8
 50
0.0
 71
     0
 42
0.2
  3
txt
  4

  0
ENDTAB
  0
TABLE
  2
VIEW
 70
     0
  0
ENDTAB
  0
TABLE
  2
UCS
 70
     0
  0
ENDTAB
  0
TABLE
  2
APPID
 70
     9
  0
APPID
  2
ACAD
 70
     0
  0
APPID
  2
ACAD_MLEADERVER
 70
     0
  0
APPID
  2
ACAD_EXEMPT_FROM_CAD_STANDARDS
 70
     0
  0
APPID
  2
ACAD_NAV_VCDISPLAY
 70
     0
  0
APPID
  2
ACAECLAYERSTANDARD
 70
     0
  0
APPID
  2
ACCMTRANSPARENCY
 70
     0
  0
APPID
  2
ACAD_DSTYLE_DIMJAG
 70
     0
  0
APPID
  2
ACAD_DSTYLE_DIMTALN
 70
     0
  0
APPID
  2
ACDBATTR
 70
     0
  0
ENDTAB
  0
TABLE
  2
DIMSTYLE
 70
     1
  0
DIMSTYLE
  2
STANDARD
 70
     0
  3

  4

  5

  6

  7

 40
1.0
 41
0.1875
 42
0.0625
 43
0.38
 44
0.125
 45
0.0
 46
0.0
 47
0.01
 48
0.01
140
0.15625
141
0.09
142
0.0
143
25.3999999999999986
144
1.0
145
0.0
146
1.0
147
0.09
 71
     1
 72
     0
 73
     1
 74
     1
 75
     0
 76
     0
 77
     0
 78
     4
170
     0
171
     2
172
     0
173
     0
174
     0
175
     0
176
     0
177
     0
178
     0
  0
ENDTAB
  0
ENDSEC
  0
SECTION
  2
BLOCKS
  0
BLOCK
  8
0
  2
$MODEL_SPACE
 70
     0
 10
0.0
 20
0.0
 30
0.0
  3
$MODEL_SPACE
  1

  0
ENDBLK
  5
21
  8
0
  0
BLOCK
 67
     1
  8
0
  2
$PAPER_SPACE
 70
     0
 10
0.0
 20
0.0
 30
0.0
  3
$PAPER_SPACE
  1

  0
ENDBLK
  5
1D
 67
     1
  8
0
  0
ENDSEC
  0
SECTION
  2
ENTITIES
  0
ATTDEF
  5
AB47
  8
DEFPOINTS
 10
4456.1064677399199354
 20
162.9108685326833097
 30
0.0
 40
0.001
  1
K-597BR-C4
  3

  2
MODELNUMBER
 70
     0
1001
ACDBATTR
1070
     0
1070
     1
  0
ATTDEF
  5
AB48
  8
DEFPOINTS
 10
4456.1064677399199354
 20
162.9092018660167014
 30
0.0
 40
0.001
  1
SIMPLICE
  3

  2
TRADENAME
 70
     0
1001
ACDBATTR
1070
     0
1070
     1
  0
ATTDEF
  5
AB49
  8
DEFPOINTS
 10
4456.1064677399199354
 20
162.9075351993500078
 30
0.0
 40
0.001
  1
KITCHEN SINK FAUCET
  3

  2
PRODUCT
 70
     0
1001
ACDBATTR
1070
     0
1070
     1
  0
ARC
  5
CEA9
  8
0
 10
4452.3961179794423515
 20
173.3506124155611872
 30
0.0
 40
4.21875254811731
 50
1.300759246220905
 51
165.2575007020348039
  0
ARC
  5
CEAA
  8
0
 10
4452.5124886802923356
 20
173.5364447321211117
 30
0.0
 40
3.1645593381451942
 50
358.3692034097693977
 51
168.5339743528155054
  0
ARC
  5
CEAB
  8
0
 10
202499.6403196050960105
 20
-53860.4862963152627344
 30
0.0
 40
205290.2640311823925003
 50
164.7393807732705966
 51
164.7401943675762936
  0
ARC
  5
CEAC
  8
0
 10
4454.6409333356259594
 20
172.660414144173501
 30
0.0
 40
5.4386912047316027
 50
168.8769205852676976
 51
171.4693124849787011
  0
ARC
  5
CEAD
  8
0
 10
4450.3044601346391573
 20
173.2463715001892126
 30
0.0
 40
1.191429017728195
 50
195.6509093522942067
 51
199.2936125277066139
  0
ARC
  5
CEAE
  8
0
 10
4449.6580135765289015
 20
173.1047821974057968
 30
0.0
 40
0.5321158562867212
 50
141.8514379705677868
 51
199.7520861706171047
  0
ARC
  5
CEAF
  8
0
 10
4449.2415535385080148
 20
173.4705397102783024
 30
0.0
 40
0.0211273361603885
 50
316.0091931107299956
 51
350.8628605511639194
  0
ARC
  5
CEB0
  8
0
 10
4449.8881601315515582
 20
172.9530459459637939
 30
0.0
 40
0.807156768015308
 50
141.4679730069204879
 51
143.4725870589603005
  0
ARC
  5
CEB1
  8
0
 10
4449.3561922435983433
 20
173.3745841794512046
 30
0.0
 40
0.0295275590052518
 50
346.7064688766586755
 51
76.7064692876701173
  0
ARC
  5
CEB2
  8
0
 10
4449.2430328638456558
 20
172.8956447894996131
 30
0.0
 40
0.029527559044151
 50
256.7064688066218991
 51
346.7064689972916085
  0
LINE
  5
CEB3
  8
0
 10
4449.3849286068971196
 20
173.3677946166349955
 30
0.0
 11
4449.2717692272326531
 21
172.8888552267463012
 31
0.0
  0
LINE
  5
CEB4
  8
0
 10
4449.2389356312150994
 20
173.4326290284309096
 30
0.0
 11
4449.3629818061972401
 21
173.4033205428349902
 31
0.0
  0
LINE
  5
CEB5
  8
0
 10
4449.236243301007562
 20
172.8669084260986892
 30
0.0
 11
4449.1699379446972671
 21
172.882574443934999
 31
0.0
  0
LINE
  5
CEB6
  8
0
 10
4448.3162498825968214
 20
174.4241809390350113
 30
0.0
 11
4448.221954962486052
 21
174.0251856627417908
 31
0.0
  0
LINE
  5
CEB7
  8
0
 10
4449.4110852426965721
 20
174.165517479834989
 30
0.0
 11
4449.3168099003405587
 21
173.7665034953245993
 31
0.0
  0
LINE
  5
CEB8
  8
0
 10
4448.2368197845125906
 20
174.0011228807312023
 30
0.0
 11
4449.2927471024058832
 21
173.7516381175416029
 31
0.0
  0
ARC
  5
CEB9
  8
0
 10
4449.2973453101121777
 20
173.7711030185942036
 30
0.0
 40
0.0200006471669776
 50
256.7086421563465137
 51
346.7047697074601729
  0
ARC
  5
CEBA
  8
0
 10
4448.2414190590970975
 20
174.0205868647350087
 30
0.0
 40
0.0199999999999992
 50
166.7064665439862097
 51
256.7050636561210126
  0
ARC
  5
CEBB
  8
0
 10
4448.2453414950077786
 20
173.9585106483075094
 30
0.0
 40
0.0395238269272186
 50
78.1660104427874955
 51
164.5467284067707965
  0
ARC
  5
CEBC
  8
0
 10
4449.2656930001076034
 20
173.7174565306522993
 30
0.0
 40
0.0394976666373386
 50
348.573130965119276
 51
75.3441498198971402
  0
ARC
  5
CEBD
  8
0
 10
4441.565000588255316
 20
172.5542739338281137
 30
0.0
 40
7.6437739221771643
 50
346.6279067275477814
 51
350.418656984465315
  0
ARC
  5
CEBE
  8
0
 10
4449.0811110041049687
 20
171.2850240202195948
 30
0.0
 40
0.0212533853105323
 50
351.7806223874268881
 51
12.3484617988591303
  0
ARC
  5
CEBF
  8
0
 10
4450.432749622569645
 20
171.6092286482293048
 30
0.0
 40
1.3687277174088941
 50
188.6681160139337123
 51
193.5058681817498893
  0
ARC
  5
CEC0
  8
0
 10
4449.134348626852443
 20
172.5270042755051065
 30
0.0
 40
0.0210923917224471
 50
330.3647503744355731
 51
354.7210938408177867
  0
ARC
  5
CEC1
  8
0
 10
4455.8804755469036536
 20
172.1458367325394079
 30
0.0
 40
6.7358077281757929
 50
174.0497100724761879
 51
176.772532693222189
  0
ARC
  5
CEC2
  8
0
 10
4449.1613863502607273
 20
172.8461622762482079
 30
0.0
 40
0.0196800830602623
 50
354.0086328963943174
 51
19.4407122473897012
  0
ARC
  5
CEC3
  8
0
 10
4449.6964980080438181
 20
172.1991063569869027
 30
0.0
 40
0.6296999177522445
 50
149.724528587951113
 51
153.4723343932647879
  0
ARC
  5
CEC4
  8
0
 10
4449.6149885912464015
 20
172.2328208810980072
 30
0.0
 40
0.5417499280406777
 50
152.8124243494496
 51
180.8686761847422986
  0
ARC
  5
CEC5
  8
0
 10
4432.6017920377644259
 20
171.883302739019399
 30
0.0
 40
16.4750453478733796
 50
359.8819153678903717
 51
1.1870514675078769
  0
ARC
  5
CEC6
  8
0
 10
4444.5247963206093118
 20
171.8898727506422119
 30
0.0
 40
4.5521864577091282
 50
356.554936529445115
 51
359.4899345798868922
  0
ARC
  5
CEC7
  8
0
 10
4450.0608850724265722
 20
171.5600348634199008
 30
0.0
 40
0.9937242512479441
 50
176.7526979329101096
 51
189.0954831869738086
  0
ARC
  5
CEC8
  8
0
 10
4449.288887537921255
 20
172.3995774658021105
 30
0.0
 40
0.0394177883353774
 50
348.8689024495469084
 51
75.4557163482595712
  0
ARC
  5
CEC9
  8
0
 10
3382.5583518070748141
 20
424.5123849077344858
 30
0.0
 40
1096.1574961826620438
 50
346.674473878703111
 51
346.702703042892324
  0
ARC
  5
CECA
  8
0
 10
4449.1505642981946949
 20
171.7972209341361065
 30
0.0
 40
0.0590481664627023
 50
344.8934339655727968
 51
10.0083410907672796
  0
ARC
  5
CECB
  8
0
 10
4449.2606836853474306
 20
171.8528065986407114
 30
0.0
 40
0.0590551187531035
 50
166.6824690119848924
 51
190.0072552675582926
  0
LINE
  5
CECC
  8
0
 10
4449.2025270456406361
 20
171.8425444202906078
 30
0.0
 11
4449.2087138969973239
 21
171.8074830061349871
 31
0.0
  0
LINE
  5
CECD
  8
0
 10
4449.2075719236427176
 20
171.7818320874193034
 30
0.0
 11
4449.1535231603966167
 21
171.6024688595350085
 31
0.0
  0
LINE
  5
CECE
  8
0
 10
4449.1535231603966167
 20
171.6024688595350085
 30
0.0
 11
4449.1329633546965852
 21
171.5311677149350089
 31
0.0
  0
ARC
  5
CECF
  8
0
 10
4449.4883976061273643
 20
171.4381744491404902
 30
0.0
 40
0.3673979512365968
 50
165.3381887494701061
 51
178.8941825747297116
  0
ARC
  5
CED0
  8
0
 10
4449.0829108375819487
 20
171.3801361649423995
 30
0.0
 40
0.0393964981988795
 50
281.0583524212020734
 51
358.8614130026784892
  0
ARC
  5
CED1
  8
0
 10
4450.1481928972061723
 20
171.4367275085546964
 30
0.0
 40
1.027496443760181
 50
180.8165095409314063
 51
183.2009932884757006
  0
ARC
  5
CED2
  8
0
 10
4449.5672058704285519
 20
171.4285289378389905
 30
0.0
 40
0.4464515861470434
 50
177.8516782675972934
 51
180.8269688879846058
  0
LINE
  5
CED3
  8
0
 10
4449.1330936482199832
 20
172.4803491591131888
 30
0.0
 11
4449.2987864563983749
 21
172.437732065135009
 31
0.0
  0
LINE
  5
CED4
  8
0
 10
4447.4689020206888017
 20
171.1080515444093066
 30
0.0
 11
4448.9541557553966413
 21
170.7571294970350095
 31
0.0
  0
ARC
  5
CED5
  8
0
 10
4448.9631281529973421
 20
170.7955744602923005
 30
0.0
 40
0.0394780840283307
 50
256.8632835725582026
 51
346.6622346259056826
  0
ARC
  5
CED6
  8
0
 10
4447.4780734667410798
 20
171.1464289232579858
 30
0.0
 40
0.0394580616599987
 50
164.8728465385210882
 51
256.5595099626078195
  0
LINE
  5
CED7
  8
0
 10
4447.5136694223983795
 20
171.0974743158350009
 30
0.0
 11
4447.5118588723080393
 21
171.0898112855325053
 31
0.0
  0
LINE
  5
CED8
  8
0
 10
4447.5118588723080393
 20
171.0898112855325053
 30
0.0
 11
4448.9062749439426625
 21
170.7603515349368024
 31
0.0
  0
LINE
  5
CED9
  8
0
 10
4448.9062749439426625
 20
170.7603515349368024
 30
0.0
 11
4448.9080854912963332
 21
170.7680145539272871
 31
0.0
  0
ARC
  5
CEDA
  8
0
 10
4448.1486091410379231
 20
170.9292444923875962
 30
0.0
 40
0.0098611759855335
 50
356.7317362062597113
 51
73.9928662006281996
  0
ARC
  5
CEDB
  8
0
 10
4448.1652101872468847
 20
170.8747623883105859
 30
0.0
 40
0.0098425196450776
 50
176.7064690451917102
 51
256.7079124935681875
  0
LINE
  5
CEDC
  8
0
 10
4448.1553839201969822
 20
170.8753277808349935
 30
0.0
 11
4448.1584542782966309
 21
170.9286822965318891
 31
0.0
  0
ARC
  5
CEDD
  8
0
 10
4448.2649948053222033
 20
170.9017459614622112
 30
0.0
 40
0.0098611759855335
 50
79.4200715980420142
 51
79.4207053530033988
  0
ARC
  5
CEDE
  8
0
 10
4448.2649948053222033
 20
170.9017459614622112
 30
0.0
 40
0.0098611759855335
 50
90.1114042960807211
 51
90.1114043875343071
  0
ARC
  5
CEDF
  8
0
 10
4448.2649948053222033
 20
170.9017459614622112
 30
0.0
 40
0.0098611759855335
 50
95.4462450511339568
 51
156.681201592452112
  0
ARC
  5
CEE0
  8
0
 10
4448.2257653750966711
 20
170.8604549672373878
 30
0.0
 40
0.0098425196450776
 50
256.7050253051278901
 51
336.7064687535266216
  0
LINE
  5
CEE1
  8
0
 10
4448.23480561217184
 20
170.8565627562387874
 30
0.0
 11
4448.2559391241538833
 21
170.9056494765960963
 31
0.0
  0
LINE
  5
CEE2
  8
0
 10
4448.1629472409968002
 20
170.8651835435350108
 30
0.0
 11
4448.2235019461631964
 21
170.8508762365059965
 31
0.0
  0
LINE
  5
CEE3
  8
0
 10
4448.0158519509895996
 20
170.9707324515011067
 30
0.0
 11
4448.0144940384352594
 21
170.964985178825998
 31
0.0
  0
LINE
  5
CEE4
  8
0
 10
4448.0144940384352594
 20
170.964985178825998
 30
0.0
 11
4448.1499705159976656
 21
170.9329760468349946
 31
0.0
  0
LINE
  5
CEE5
  8
0
 10
4448.1499705159976656
 20
170.9329760468349946
 30
0.0
 11
4448.1513260696792713
 21
170.9387133358960114
 31
0.0
  0
LINE
  5
CEE6
  8
0
 10
4448.1598494572963318
 20
170.9367100494349927
 30
0.0
 11
4448.1584915447983803
 21
170.9309627767349866
 31
0.0
  0
LINE
  5
CEE7
  8
0
 10
4448.1584915447983803
 20
170.9309627767349866
 30
0.0
 11
4448.1644867736022206
 21
170.9295462794570994
 31
0.0
  0
LINE
  5
CEE8
  8
0
 10
4448.1644867736022206
 20
170.9295462794570994
 30
0.0
 11
4448.1658446860910772
 21
170.935293552110096
 31
0.0
  0
LINE
  5
CEE9
  8
0
 10
4448.1727359812966824
 20
170.9336653404349988
 30
0.0
 11
4448.1713780687487088
 21
170.9279180677226861
 31
0.0
  0
LINE
  5
CEEA
  8
0
 10
4448.1713780687487088
 20
170.9279180677226861
 30
0.0
 11
4448.1868052190638991
 21
170.9242730828945867
 31
0.0
  0
LINE
  5
CEEB
  8
0
 10
4448.1868052190638991
 20
170.9242730828945867
 30
0.0
 11
4448.1881631316946368
 21
170.9300203557264126
 31
0.0
  0
LINE
  5
CEEC
  8
0
 10
4448.197327086297264
 20
170.9278551810349995
 30
0.0
 11
4448.1959691737547473
 21
170.9221079084213102
 31
0.0
  0
LINE
  5
CEED
  8
0
 10
4448.1959691737547473
 20
170.9221079084213102
 30
0.0
 11
4448.236196615098379
 21
170.912603339735
 31
0.0
  0
LINE
  5
CEEE
  8
0
 10
4448.236196615098379
 20
170.912603339735
 30
0.0
 11
4448.2375545289924048
 21
170.9183506182876897
 31
0.0
  0
LINE
  5
CEEF
  8
0
 10
4448.2462500759947943
 20
170.9162961085249037
 30
0.0
 11
4448.2448921634186263
 21
170.9105488358534046
 31
0.0
  0
LINE
  5
CEF0
  8
0
 10
4448.2448921634186263
 20
170.9105488358534046
 30
0.0
 11
4448.2508356877933693
 21
170.9091445547174999
 31
0.0
  0
LINE
  5
CEF1
  8
0
 10
4448.2508356877933693
 20
170.9091445547174999
 30
0.0
 11
4448.2521936003568044
 21
170.9148918274325126
 31
0.0
  0
LINE
  5
CEF2
  8
0
 10
4448.2641765239895904
 20
170.9120606128088014
 30
0.0
 11
4448.2628186114243363
 21
170.9063133401286052
 31
0.0
  0
LINE
  5
CEF3
  8
0
 10
4448.2628186114243363
 20
170.9063133401286052
 30
0.0
 11
4448.2777789106803539
 21
170.9027786585639888
 31
0.0
  0
LINE
  5
CEF4
  8
0
 10
4448.2777789106803539
 20
170.9027786585639888
 30
0.0
 11
4448.2791368232974492
 21
170.9085259313349923
 31
0.0
  0
LINE
  5
CEF5
  8
0
 10
4448.2848120540966192
 20
170.9071850401350048
 30
0.0
 11
4448.2834541415968488
 21
170.9014377674349987
 31
0.0
  0
LINE
  5
CEF6
  8
0
 10
4448.2834541415968488
 20
170.9014377674349987
 30
0.0
 11
4448.3046799863968772
 21
170.8964227207349893
 31
0.0
  0
LINE
  5
CEF7
  8
0
 10
4448.3046799863968772
 20
170.8964227207349893
 30
0.0
 11
4448.3060378989903256
 21
170.9021699934004062
 31
0.0
  0
ARC
  5
CEF8
  8
0
 10
4448.0104201746389663
 20
170.9618945062375985
 30
0.0
 40
0.0098611759855335
 50
356.7317362062597113
 51
10.2854766271117608
  0
ARC
  5
CEF9
  8
0
 10
4448.0270212208470184
 20
170.9074124021605883
 30
0.0
 40
0.0098425196450776
 50
176.7064690451917102
 51
256.7079124935681875
  0
LINE
  5
CEFA
  8
0
 10
4448.0171949537971159
 20
170.9079777946849958
 30
0.0
 11
4448.0202653118958551
 21
170.9613323103818914
 31
0.0
  0
ARC
  5
CEFB
  8
0
 10
4448.126805838922337
 20
170.9343959753122135
 30
0.0
 40
0.0098611759855335
 50
143.1274604774411046
 51
156.681201592452112
  0
ARC
  5
CEFC
  8
0
 10
4448.0875764086958952
 20
170.8931049810873901
 30
0.0
 40
0.0098425196450776
 50
256.7050253051278901
 51
336.7064687535266216
  0
LINE
  5
CEFD
  8
0
 10
4448.0966166457728832
 20
170.8892127700887897
 30
0.0
 11
4448.117750157754017
 21
170.9382994904460986
 31
0.0
  0
LINE
  5
CEFE
  8
0
 10
4448.0247582745969339
 20
170.8978335573850131
 30
0.0
 11
4448.0853129797633301
 21
170.8835262503559989
 31
0.0
  0
ARC
  5
CEFF
  8
0
 10
4447.9024344151375772
 20
170.987408385037611
 30
0.0
 40
0.0098611759855335
 50
356.7317362062597113
 51
10.2854768603751996
  0
ARC
  5
CF00
  8
0
 10
4447.9024344151375772
 20
170.987408385037611
 30
0.0
 40
0.0098611759855335
 50
73.992219284676537
 51
73.9928662006281996
  0
ARC
  5
CF01
  8
0
 10
4447.9190354613456293
 20
170.9329262809606007
 30
0.0
 40
0.0098425196450776
 50
176.7064690451917102
 51
256.7079124935681875
  0
LINE
  5
CF02
  8
0
 10
4447.9092091942966363
 20
170.9334916734850083
 30
0.0
 11
4447.912279552396285
 21
170.9868461891819038
 31
0.0
  0
ARC
  5
CF03
  8
0
 10
4448.0188200794209479
 20
170.9599098541121975
 30
0.0
 40
0.0098611759855335
 50
79.4200715980420142
 51
79.4207045443159529
  0
ARC
  5
CF04
  8
0
 10
4448.0188200794209479
 20
170.9599098541121975
 30
0.0
 40
0.0098611759855335
 50
109.7505561015634044
 51
156.681201592452112
  0
ARC
  5
CF05
  8
0
 10
4447.9795906491972346
 20
170.9186188598874026
 30
0.0
 40
0.0098425196450776
 50
256.7050253051278901
 51
336.7064687535266216
  0
LINE
  5
CF06
  8
0
 10
4447.9886308862724036
 20
170.9147266488888022
 30
0.0
 11
4448.0097643982544469
 21
170.9638133692461111
 31
0.0
  0
LINE
  5
CF07
  8
0
 10
4447.9167725150973638
 20
170.9233474361849972
 30
0.0
 11
4447.9773272202628505
 21
170.9090401291560113
 31
0.0
  0
ARC
  5
CF08
  8
0
 10
4447.7710503455600701
 20
171.0184506006652043
 30
0.0
 40
0.0098611759855335
 50
356.7317362062597113
 51
10.2854765912347901
  0
ARC
  5
CF09
  8
0
 10
4447.7710503455600701
 20
171.0184506006652043
 30
0.0
 40
0.0098611759855335
 50
73.99221745945799
 51
73.9928662006281996
  0
ARC
  5
CF0A
  8
0
 10
4447.7876513917690318
 20
170.9639684965883077
 30
0.0
 40
0.0098425196450776
 50
176.7064690451917102
 51
256.7079124935681875
  0
LINE
  5
CF0B
  8
0
 10
4447.7778251247191292
 20
170.9645338891126016
 30
0.0
 11
4447.7808954828196875
 21
171.0178884048094972
 31
0.0
  0
ARC
  5
CF0C
  8
0
 10
4447.8874360098452598
 20
170.9909520697399046
 30
0.0
 40
0.0098611759855335
 50
143.127460474257191
 51
156.681201592452112
  0
ARC
  5
CF0D
  8
0
 10
4447.8482065796206371
 20
170.9496610755006998
 30
0.0
 40
0.0098425196314947
 50
256.7050252763726803
 51
336.7060425911394077
  0
LINE
  5
CF0E
  8
0
 10
4447.8572468166948966
 20
170.9457688645165092
 30
0.0
 11
4447.8783803286769398
 21
170.9948555848737044
 31
0.0
  0
LINE
  5
CF0F
  8
0
 10
4447.7853884455189473
 20
170.9543896518127042
 30
0.0
 11
4447.8459431506862529
 21
170.9400823447836899
 31
0.0
  0
ARC
  5
CF10
  8
0
 10
4447.7221818171319683
 20
171.0299968056197883
 30
0.0
 40
0.0098611759855335
 50
356.7317362062597113
 51
73.9928662006281996
  0
ARC
  5
CF11
  8
0
 10
4447.7387828633400204
 20
170.9755147015428065
 30
0.0
 40
0.0098425196450776
 50
176.7064690451917102
 51
256.7079124935681875
  0
LINE
  5
CF12
  8
0
 10
4447.7289565962910274
 20
170.9760800940672141
 30
0.0
 11
4447.7320269543897666
 21
171.0294346097639959
 31
0.0
  0
LINE
  5
CF13
  8
0
 10
4447.7365199170908454
 20
170.9659358567672029
 30
0.0
 11
4447.7970746222572416
 21
170.9516285497381887
 31
0.0
  0
ARC
  5
CF14
  8
0
 10
4447.6328255009239001
 20
171.0510788389447896
 30
0.0
 40
0.0099150699029652
 50
356.8498924981689129
 51
71.8559005220271843
  0
ARC
  5
CF15
  8
0
 10
4447.6494814937423143
 20
170.9966140050885883
 30
0.0
 40
0.009842519548408
 50
176.7068954320967009
 51
256.7079117876367036
  0
LINE
  5
CF16
  8
0
 10
4447.6396552267806328
 20
170.9971793975817889
 30
0.0
 11
4447.6427255891003369
 21
171.0505339854915121
 31
0.0
  0
ARC
  5
CF17
  8
0
 10
4447.7100274988806632
 20
170.9823153450186908
 30
0.0
 40
0.0098545530274213
 50
258.6413646341508752
 51
337.0059184341118907
  0
LINE
  5
CF18
  8
0
 10
4447.7190990604631224
 20
170.9784658014305023
 30
0.0
 11
4447.7306359346857789
 21
171.0052624512476029
 31
0.0
  0
LINE
  5
CF19
  8
0
 10
4447.6472185473967329
 20
170.9870351604349992
 30
0.0
 11
4447.7311522534973847
 21
170.9672040788350103
 31
0.0
  0
LINE
  5
CF1A
  8
0
 10
4447.5949409242430193
 20
171.0701814256464104
 30
0.0
 11
4447.593583011530427
 21
171.0644341523272942
 31
0.0
  0
LINE
  5
CF1B
  8
0
 10
4447.593583011530427
 20
171.0644341523272942
 30
0.0
 11
4447.6425811318968044
 21
171.0528573285349978
 31
0.0
  0
LINE
  5
CF1C
  8
0
 10
4447.763964550487799
 20
171.030246082198687
 30
0.0
 11
4447.7626066378970791
 21
171.0244988095350038
 31
0.0
  0
LINE
  5
CF1D
  8
0
 10
4447.7626066378970791
 20
171.0244988095350038
 30
0.0
 11
4447.9560768396968342
 21
170.9787874555350129
 31
0.0
  0
LINE
  5
CF1E
  8
0
 10
4447.9560768396968342
 20
170.9787874555350129
 30
0.0
 11
4447.9574347521966047
 21
170.984534728135003
 31
0.0
  0
LINE
  5
CF1F
  8
0
 10
4448.3131839630923423
 20
170.9004815873144025
 30
0.0
 11
4448.3118260505980288
 21
170.8947343146350022
 31
0.0
  0
LINE
  5
CF20
  8
0
 10
4448.3118260505980288
 20
170.8947343146350022
 30
0.0
 11
4448.3588443442313292
 21
170.8836252657542047
 31
0.0
  0
LINE
  5
CF21
  8
0
 10
4448.3588443442313292
 20
170.8836252657542047
 30
0.0
 11
4448.3602022568547909
 21
170.8893725387256097
 31
0.0
  0
LINE
  5
CF22
  8
0
 10
4448.3651358674960647
 20
170.88820687072851
 30
0.0
 11
4448.3637779549017068
 21
170.8824595980337051
 31
0.0
  0
LINE
  5
CF23
  8
0
 10
4448.3637779549017068
 20
170.8824595980337051
 30
0.0
 11
4448.3726208008965841
 21
170.8803702920349963
 31
0.0
  0
LINE
  5
CF24
  8
0
 10
4448.3726208008965841
 20
170.8803702920349963
 30
0.0
 11
4448.3739787133972641
 21
170.8861175646349864
 31
0.0
  0
LINE
  5
CF25
  8
0
 10
4448.374170407296333
 20
170.8860722730306918
 30
0.0
 11
4448.3728124947347169
 21
170.8803250003257972
 31
0.0
  0
LINE
  5
CF26
  8
0
 10
4448.3728124947347169
 20
170.8803250003257972
 30
0.0
 11
4448.4075556049965599
 21
170.8721162188350036
 31
0.0
  0
LINE
  5
CF27
  8
0
 10
4448.4075556049965599
 20
170.8721162188350036
 30
0.0
 11
4448.4089135174972398
 21
170.8778634915350096
 31
0.0
  0
LINE
  5
CF28
  8
0
 10
4448.4092844369970408
 20
170.8777758540350078
 30
0.0
 11
4448.4079265244972703
 21
170.8720285814349893
 31
0.0
  0
LINE
  5
CF29
  8
0
 10
4448.4079265244972703
 20
170.8720285814349893
 30
0.0
 11
4448.4520954263889507
 21
170.861592760380006
 31
0.0
  0
LINE
  5
CF2A
  8
0
 10
4448.4520954263889507
 20
170.861592760380006
 30
0.0
 11
4448.4534533390487923
 21
170.8673400334998007
 31
0.0
  0
LINE
  5
CF2B
  8
0
 10
4448.5073877716968127
 20
170.8545969034342136
 30
0.0
 11
4448.5060298591961327
 21
170.8488496307350033
 31
0.0
  0
LINE
  5
CF2C
  8
0
 10
4448.5060298591961327
 20
170.8488496307350033
 30
0.0
 11
4448.7010800844600453
 21
170.8027649653924982
 31
0.0
  0
LINE
  5
CF2D
  8
0
 10
4448.7010800844600453
 20
170.8027649653924982
 30
0.0
 11
4448.7024379965569096
 21
170.8085122361314916
 31
0.0
  0
LINE
  5
CF2E
  8
0
 10
4448.8293800274941532
 20
170.7785195444201918
 30
0.0
 11
4448.8280221148970668
 21
170.7727722717349934
 31
0.0
  0
LINE
  5
CF2F
  8
0
 10
4448.8280221148970668
 20
170.7727722717349934
 30
0.0
 11
4448.7728368565967685
 21
170.7858109353350073
 31
0.0
  0
ARC
  5
CF30
  8
0
 10
4447.7334156822798832
 20
170.9767828086993973
 30
0.0
 40
0.0098425187665318
 50
256.7050250001867084
 51
272.9762067565375787
  0
ARC
  5
CF31
  8
0
 10
4447.8151254942777086
 20
170.9271366305318054
 30
0.0
 40
0.009842519681383
 50
166.7064689075168928
 51
256.7064690233713122
  0
LINE
  5
CF32
  8
0
 10
4447.8055467064959885
 20
170.9293998181350105
 30
0.0
 11
4447.8100730816959185
 21
170.948557393729601
 31
0.0
  0
LINE
  5
CF33
  8
0
 10
4447.812862306696843
 20
170.9175578427349933
 30
0.0
 11
4448.5600077548970148
 21
170.7410292105350038
 31
0.0
  0
ARC
  5
CF34
  8
0
 10
4448.4031837716484006
 20
170.869095947666807
 30
0.0
 40
0.0098611759855335
 50
143.1274612543965077
 51
156.6812016752664078
  0
ARC
  5
CF35
  8
0
 10
4448.363954341481076
 20
170.8278049533853107
 30
0.0
 40
0.0098425196450776
 50
256.7050253879614274
 51
336.706468836332192
  0
LINE
  5
CF36
  8
0
 10
4448.3729945785617019
 20
170.8239127423998127
 30
0.0
 11
4448.3941280904728046
 21
170.8729994627875044
 31
0.0
  0
ARC
  5
CF37
  8
0
 10
4448.2867981073241026
 20
170.896594478423907
 30
0.0
 40
0.0098611759855335
 50
356.7317362890765935
 51
10.2854774040968699
  0
ARC
  5
CF38
  8
0
 10
4448.3033991536112808
 20
170.8421123743709131
 30
0.0
 40
0.0098425196450776
 50
176.7064691280054092
 51
256.7079125763502816
  0
LINE
  5
CF39
  8
0
 10
4448.2935728865595593
 20
170.8426777668811951
 30
0.0
 11
4448.2966432445828104
 21
170.8960322825824107
 31
0.0
  0
LINE
  5
CF3A
  8
0
 10
4448.3616909125621532
 20
170.8182262226505941
 30
0.0
 11
4448.3011362073739292
 21
170.8325335295920979
 31
0.0
  0
ARC
  5
CF3B
  8
0
 10
4448.5111695311279618
 20
170.8435820687865032
 30
0.0
 40
0.0098611759855335
 50
115.7613441674429993
 51
156.6812016752664078
  0
ARC
  5
CF3C
  8
0
 10
4448.4719401009615467
 20
170.8022910745050069
 30
0.0
 40
0.0098425196450776
 50
256.7050253879614274
 51
336.706468836332192
  0
LINE
  5
CF3D
  8
0
 10
4448.4809803380439917
 20
170.798398863519509
 30
0.0
 11
4448.5021138499550943
 21
170.8474855839072859
 31
0.0
  0
ARC
  5
CF3E
  8
0
 10
4448.3947838668045733
 20
170.8710805995436885
 30
0.0
 40
0.0098611759855335
 50
356.7317362890765935
 51
10.2854778837234697
  0
ARC
  5
CF3F
  8
0
 10
4448.4113849130917515
 20
170.8165984954906946
 30
0.0
 40
0.0098425196450776
 50
176.7064691280054092
 51
256.7079125763502816
  0
LINE
  5
CF40
  8
0
 10
4448.401558646041849
 20
170.8171638880008913
 30
0.0
 11
4448.4046290040641907
 21
170.8705184037021922
 31
0.0
  0
LINE
  5
CF41
  8
0
 10
4448.469676672042624
 20
170.792712343770404
 30
0.0
 11
4448.4091219668562189
 21
170.8070196507117942
 31
0.0
  0
ARC
  5
CF42
  8
0
 10
4448.6425536006981929
 20
170.8125398531255996
 30
0.0
 40
0.0098611759855335
 50
143.1274612903004027
 51
156.6812016752664078
  0
ARC
  5
CF43
  8
0
 10
4448.6033241705326873
 20
170.7712488588441033
 30
0.0
 40
0.0098425196450776
 50
256.7050253879614274
 51
336.706468836332192
  0
LINE
  5
CF44
  8
0
 10
4448.6123644076142227
 20
170.7673566478586054
 30
0.0
 11
4448.6334979195244159
 21
170.8164433682464107
 31
0.0
  0
ARC
  5
CF45
  8
0
 10
4448.5261679363748044
 20
170.8400383838826997
 30
0.0
 40
0.0098611759855335
 50
356.7317362890765935
 51
10.2854774072550708
  0
ARC
  5
CF46
  8
0
 10
4448.5427689826537971
 20
170.7855562798177118
 30
0.0
 40
0.0098425196314953
 50
176.706895290382505
 51
256.7079126051553999
  0
LINE
  5
CF47
  8
0
 10
4448.5329427156111706
 20
170.7861216723399878
 30
0.0
 11
4448.5360130736344217
 21
170.8394761880412887
 31
0.0
  0
LINE
  5
CF48
  8
0
 10
4448.6010607416110361
 20
170.7616701281093867
 30
0.0
 11
4448.540506036424631
 21
170.7759774350508906
 31
0.0
  0
ARC
  5
CF49
  8
0
 10
4448.6914221291181093
 20
170.8009936481325894
 30
0.0
 40
0.0098611759855335
 50
143.1274482715616045
 51
156.6812016752664078
  0
ARC
  5
CF4A
  8
0
 10
4448.6521926989516942
 20
170.7597026538510931
 30
0.0
 40
0.0098425196450776
 50
256.7050253879614274
 51
336.706468836332192
  0
LINE
  5
CF4B
  8
0
 10
4448.6612329360332296
 20
170.7558104428655952
 30
0.0
 11
4448.6823664479443323
 21
170.8048971632534005
 31
0.0
  0
LINE
  5
CF4C
  8
0
 10
4448.649929270031862
 20
170.750123923116405
 30
0.0
 11
4448.5893745648445474
 21
170.7644312300579088
 31
0.0
  0
ARC
  5
CF4D
  8
0
 10
4448.7807649055766888
 20
170.7798543087446888
 30
0.0
 40
0.0099150699029652
 50
81.5570373594932647
 51
156.563045383344587
  0
ARC
  5
CF4E
  8
0
 10
4448.7414940685239344
 20
170.7386033501990994
 30
0.0
 40
0.009842519548408
 50
256.7050260939008126
 51
336.7060424494176232
  0
LINE
  5
CF4F
  8
0
 10
4448.7505343055127014
 20
170.7347111392253964
 30
0.0
 11
4448.7716678459701143
 21
170.7837979260781935
 31
0.0
  0
ARC
  5
CF50
  8
0
 10
4448.6809510133925869
 20
170.7529144959698897
 30
0.0
 40
0.0098545530274213
 50
176.4070194474182074
 51
254.7715732473677974
  0
LINE
  5
CF51
  8
0
 10
4448.6711158303405682
 20
170.7535320635462881
 30
0.0
 11
4448.6727919518907584
 21
170.782658521017197
 31
0.0
  0
LINE
  5
CF52
  8
0
 10
4448.7392306397450739
 20
170.7290246195306054
 30
0.0
 11
4448.6552969336453316
 21
170.7488557011295995
 31
0.0
  0
ARC
  5
CF53
  8
0
 10
4448.6575598796271152
 20
170.7584345450655121
 30
0.0
 40
0.0098425187665318
 50
240.4367311249731074
 51
256.7079128813388138
  0
ARC
  5
CF54
  8
0
 10
4448.5622709427489099
 20
170.7506079979293929
 30
0.0
 40
0.0098425193523363
 50
256.7064669426683281
 51
346.7064697674505851
  0
LINE
  5
CF55
  8
0
 10
4448.5718497302450487
 20
170.748344810558109
 30
0.0
 11
4448.5763761054267889
 21
170.7675023861567922
 31
0.0
  0
LINE
  5
CF56
  8
0
 10
4447.5982799324519874
 20
171.0693925152446013
 30
0.0
 11
4447.5969220197412142
 21
171.0636452419255136
 31
0.0
  0
LINE
  5
CF57
  8
0
 10
4447.599132875124269
 20
171.0691909901445058
 30
0.0
 11
4447.5977749624125863
 21
171.0634437168253044
 31
0.0
  0
LINE
  5
CF58
  8
0
 10
4447.6004064173221195
 20
171.0688900893368043
 30
0.0
 11
4447.5990485046104368
 21
171.0631428160176029
 31
0.0
  0
LINE
  5
CF59
  8
0
 10
4447.6031579587033775
 20
171.0682399802446128
 30
0.0
 11
4447.6018000459907853
 21
171.0624927069254113
 31
0.0
  0
LINE
  5
CF5A
  8
0
 10
4447.608024261009632
 20
171.0670902156990962
 30
0.0
 11
4447.6066663482979493
 21
171.0613429423800085
 31
0.0
  0
LINE
  5
CF5B
  8
0
 10
4447.6281144908898568
 20
171.0623434812004007
 30
0.0
 11
4447.6267565781781741
 21
171.0565962078813129
 31
0.0
  0
LINE
  5
CF5C
  8
0
 10
4447.6302175084611008
 20
171.0618466002136984
 30
0.0
 11
4447.6288595957494181
 21
171.0560993268944969
 31
0.0
  0
LINE
  5
CF5D
  8
0
 10
4447.6377884173843995
 20
171.0600578152262017
 30
0.0
 11
4447.6364305046718073
 21
171.0543105419071139
 31
0.0
  0
LINE
  5
CF5E
  8
0
 10
4447.6398914541277918
 20
171.0595609292566053
 30
0.0
 11
4447.6385335414170186
 21
171.0538136559374891
 31
0.0
  0
LINE
  5
CF5F
  8
0
 10
4447.7707197061654369
 20
171.0286500358471926
 30
0.0
 11
4447.7693617934528447
 21
171.0229027625281049
 31
0.0
  0
LINE
  5
CF60
  8
0
 10
4447.8031186371526928
 20
171.0209951162445918
 30
0.0
 11
4447.8017607244401006
 21
171.0152478429255041
 31
0.0
  0
LINE
  5
CF61
  8
0
 10
4447.8040377555789746
 20
171.0207779579835972
 30
0.0
 11
4447.8026798428672919
 21
171.0150306846645094
 31
0.0
  0
LINE
  5
CF62
  8
0
 10
4447.8063026180816451
 20
171.0202428371943881
 30
0.0
 11
4447.8049447053699623
 21
171.0144955638753004
 31
0.0
  0
LINE
  5
CF63
  8
0
 10
4447.8092403502987509
 20
171.0195487369651914
 30
0.0
 11
4447.8078824375870681
 21
171.01380146364599
 31
0.0
  0
LINE
  5
CF64
  8
0
 10
4447.8137535982532427
 20
171.0184823857445906
 30
0.0
 11
4447.8123956855406504
 21
171.0127351124253892
 31
0.0
  0
LINE
  5
CF65
  8
0
 10
4447.8189397162996102
 20
171.01725705647209
 30
0.0
 11
4447.8175818035879274
 21
171.0115097831530022
 31
0.0
  0
LINE
  5
CF66
  8
0
 10
4447.8245689277018755
 20
171.0159270395446072
 30
0.0
 11
4447.8232110149901928
 21
171.0101797662254057
 31
0.0
  0
LINE
  5
CF67
  8
0
 10
4447.8299683567520333
 20
171.0146513122446095
 30
0.0
 11
4447.8286104440412601
 21
171.008904038925408
 31
0.0
  0
LINE
  5
CF68
  8
0
 10
4447.832889617751789
 20
171.0139611036445899
 30
0.0
 11
4447.8315317050401063
 21
171.0082138303253885
 31
0.0
  0
LINE
  5
CF69
  8
0
 10
4447.8332997652269114
 20
171.0138641996879016
 30
0.0
 11
4447.8319418525152287
 21
171.0081169263688139
 31
0.0
  0
LINE
  5
CF6A
  8
0
 10
4447.8382561068656287
 20
171.012693162052102
 30
0.0
 11
4447.8368981941548554
 21
171.0069458887329858
 31
0.0
  0
LINE
  5
CF6B
  8
0
 10
4447.8395842622530836
 20
171.0123793548445974
 30
0.0
 11
4447.8382263495414009
 21
171.0066320815255096
 31
0.0
  0
LINE
  5
CF6C
  8
0
 10
4447.8482129449030253
 20
171.0103406492945908
 30
0.0
 11
4447.8468550321913426
 21
171.004593375975503
 31
0.0
  0
LINE
  5
CF6D
  8
0
 10
4447.8769752201023948
 20
171.0035449627584114
 30
0.0
 11
4447.8756173073888931
 21
170.99779768943921
 31
0.0
  0
LINE
  5
CF6E
  8
0
 10
4447.8856039038673771
 20
171.001506261977795
 30
0.0
 11
4447.8842459911547849
 21
170.9957589886587073
 31
0.0
  0
LINE
  5
CF6F
  8
0
 10
4447.8978899189223739
 20
170.9986034345938037
 30
0.0
 11
4447.8965320062097817
 21
170.9928561612746023
 31
0.0
  0
LINE
  5
CF70
  8
0
 10
4447.9341231310027069
 20
170.9900425832445876
 30
0.0
 11
4447.9327652182910242
 21
170.9842953099253862
 31
0.0
  0
LINE
  5
CF71
  8
0
 10
4447.9370990831957897
 20
170.9893394567208986
 30
0.0
 11
4447.9357411704831975
 21
170.9835921834016972
 31
0.0
  0
LINE
  5
CF72
  8
0
 10
4447.9395210580023559
 20
170.9887672108945935
 30
0.0
 11
4447.9381631452906731
 21
170.9830199375755058
 31
0.0
  0
LINE
  5
CF73
  8
0
 10
4447.9424970093032243
 20
170.9880640805446035
 30
0.0
 11
4447.9411390965906321
 21
170.9823168072254873
 31
0.0
  0
LINE
  5
CF74
  8
0
 10
4447.9544588006529011
 20
170.9852378588946067
 30
0.0
 11
4447.9531008879412184
 21
170.9794905855754905
 31
0.0
  0
LINE
  5
CF75
  8
0
 10
4448.0181928565543785
 20
170.9701793642445864
 30
0.0
 11
4448.0168349438417863
 21
170.9644320909254134
 31
0.0
  0
LINE
  5
CF76
  8
0
 10
4448.0267840674541731
 20
170.9681495122445938
 30
0.0
 11
4448.0254261547415808
 21
170.9624022389253923
 31
0.0
  0
LINE
  5
CF77
  8
0
 10
4448.0576729577742299
 20
170.9608513755019885
 30
0.0
 11
4448.0563150450625471
 21
170.9551041021829008
 31
0.0
  0
LINE
  5
CF78
  8
0
 10
4448.0624811475818206
 20
170.9597153408327017
 30
0.0
 11
4448.0611232348701378
 21
170.9539680675135003
 31
0.0
  0
LINE
  5
CF79
  8
0
 10
4448.0690259650718872
 20
170.958168981619508
 30
0.0
 11
4448.0676680523602045
 21
170.9524217083003919
 31
0.0
  0
LINE
  5
CF7A
  8
0
 10
4448.0806861983255658
 20
170.9554140196217986
 30
0.0
 11
4448.0793282856138831
 21
170.9496667463025972
 31
0.0
  0
LINE
  5
CF7B
  8
0
 10
4448.0811341623530097
 20
170.9553081733446049
 30
0.0
 11
4448.079776249641327
 21
170.9495609000254035
 31
0.0
  0
LINE
  5
CF7C
  8
0
 10
4448.0862724426497152
 20
170.9540941534189926
 30
0.0
 11
4448.084914529937123
 21
170.9483468800999049
 31
0.0
  0
LINE
  5
CF7D
  8
0
 10
4448.0928654892140912
 20
170.9525363985731019
 30
0.0
 11
4448.0915075765024085
 21
170.9467891252539005
 31
0.0
  0
LINE
  5
CF7E
  8
0
 10
4448.1026332331857702
 20
170.9502285769729042
 30
0.0
 11
4448.1012753204740875
 21
170.944481303653788
 31
0.0
  0
LINE
  5
CF7F
  8
0
 10
4448.1073797048529741
 20
170.9491071187445925
 30
0.0
 11
4448.1060217921412914
 21
170.9433598454253911
 31
0.0
  0
LINE
  5
CF80
  8
0
 10
4448.1079170070534019
 20
170.9489801699446048
 30
0.0
 11
4448.1065590943408097
 21
170.9432328966254886
 31
0.0
  0
LINE
  5
CF81
  8
0
 10
4448.1117804912519205
 20
170.9480673415446006
 30
0.0
 11
4448.1104225785411472
 21
170.9423200682255128
 31
0.0
  0
LINE
  5
CF82
  8
0
 10
4448.1159297226404306
 20
170.9470870031364029
 30
0.0
 11
4448.1145718099269288
 21
170.9413397298172868
 31
0.0
  0
LINE
  5
CF83
  8
0
 10
4448.1235480203031329
 20
170.9452870183446009
 30
0.0
 11
4448.1221901075914502
 21
170.9395397450255132
 31
0.0
  0
LINE
  5
CF84
  8
0
 10
4448.1279829465520379
 20
170.9442391748445971
 30
0.0
 11
4448.1266250338412647
 21
170.9384919015255093
 31
0.0
  0
LINE
  5
CF85
  8
0
 10
4448.1347782218526845
 20
170.9426336499446109
 30
0.0
 11
4448.1334203091410018
 21
170.9368863766254094
 31
0.0
  0
LINE
  5
CF86
  8
0
 10
4448.1394988958772956
 20
170.9415182987586945
 30
0.0
 11
4448.1381409831637939
 21
170.9357710254396068
 31
0.0
  0
LINE
  5
CF87
  8
0
 10
4448.1445052895869594
 20
170.9403354343021988
 30
0.0
 11
4448.1431473768752767
 21
170.934588160983111
 31
0.0
  0
LINE
  5
CF88
  8
0
 10
4448.1461854491526537
 20
170.939938455544592
 30
0.0
 11
4448.144827536440971
 21
170.9341911822255042
 31
0.0
  0
LINE
  5
CF89
  8
0
 10
4448.1464711719800107
 20
170.9398709537713898
 30
0.0
 11
4448.1451132592674185
 21
170.9341236804523021
 31
0.0
  0
LINE
  5
CF8A
  8
0
 10
4448.1506141259533251
 20
170.9388920886445931
 30
0.0
 11
4448.1492562132407329
 21
170.9331448153255053
 31
0.0
  0
LINE
  5
CF8B
  8
0
 10
4448.1654217043032986
 20
170.9353934906446
 30
0.0
 11
4448.1640637915907064
 21
170.9296462173255122
 31
0.0
  0
LINE
  5
CF8C
  8
0
 10
4448.179079229137642
 20
170.9321666130969106
 30
0.0
 11
4448.1777213164268687
 21
170.9264193397777092
 31
0.0
  0
LINE
  5
CF8D
  8
0
 10
4448.1857777483519385
 20
170.9305839524446071
 30
0.0
 11
4448.1844198356411653
 21
170.9248366791254057
 31
0.0
  0
LINE
  5
CF8E
  8
0
 10
4448.1987442280124014
 20
170.9275203484868086
 30
0.0
 11
4448.1973863153007187
 21
170.9217730751676925
 31
0.0
  0
LINE
  5
CF8F
  8
0
 10
4448.2010539740149397
 20
170.9269746335446882
 30
0.0
 11
4448.199696061303257
 21
170.9212273602254868
 31
0.0
  0
LINE
  5
CF90
  8
0
 10
4448.2044512112033772
 20
170.9261719589445931
 30
0.0
 11
4448.2030932984907849
 21
170.9204246856253917
 31
0.0
  0
LINE
  5
CF91
  8
0
 10
4448.2100833248032359
 20
170.9248412550946057
 30
0.0
 11
4448.2087254120915532
 21
170.9190939817754042
 31
0.0
  0
LINE
  5
CF92
  8
0
 10
4448.2156854704526268
 20
170.9235176318445895
 30
0.0
 11
4448.214327557740944
 21
170.917770358525388
 31
0.0
  0
LINE
  5
CF93
  8
0
 10
4448.2201551706648388
 20
170.9224615792577993
 30
0.0
 11
4448.2187972579531561
 21
170.9167143059387115
 31
0.0
  0
LINE
  5
CF94
  8
0
 10
4448.2257273483710378
 20
170.9211450365853011
 30
0.0
 11
4448.2243694356602646
 21
170.9153977632662134
 31
0.0
  0
LINE
  5
CF95
  8
0
 10
4448.2312695054533833
 20
170.9198355798446016
 30
0.0
 11
4448.2299115927417006
 21
170.9140883065255139
 31
0.0
  0
LINE
  5
CF96
  8
0
 10
4448.2345768418999796
 20
170.9190541600065103
 30
0.0
 11
4448.2332189291892064
 21
170.9133068866873089
 31
0.0
  0
LINE
  5
CF97
  8
0
 10
4448.2367367953029316
 20
170.9185438190446007
 30
0.0
 11
4448.2353788825912488
 21
170.9127965457255129
 31
0.0
  0
LINE
  5
CF98
  8
0
 10
4448.2466175549034233
 20
170.9162092843446032
 30
0.0
 11
4448.2452596421908311
 21
170.9104620110254871
 31
0.0
  0
LINE
  5
CF99
  8
0
 10
4448.2650348631532324
 20
170.9118578126445982
 30
0.0
 11
4448.2636769504415497
 21
170.9061105393255104
 31
0.0
  0
LINE
  5
CF9A
  8
0
 10
4448.2724613664522622
 20
170.9101031469946008
 30
0.0
 11
4448.2711034537405794
 21
170.9043558736755131
 31
0.0
  0
LINE
  5
CF9B
  8
0
 10
4448.3030201917035811
 20
170.9028829897445974
 30
0.0
 11
4448.3016622789909889
 21
170.8971357164255096
 31
0.0
  0
LINE
  5
CF9C
  8
0
 10
4448.3165460112977598
 20
170.8996872347703118
 30
0.0
 11
4448.3151880985860771
 21
170.8939399614511103
 31
0.0
  0
LINE
  5
CF9D
  8
0
 10
4448.3187624408947158
 20
170.8991635572604082
 30
0.0
 11
4448.3174045281839426
 21
170.893416283941292
 31
0.0
  0
LINE
  5
CF9E
  8
0
 10
4448.3218505297527372
 20
170.8984339312445968
 30
0.0
 11
4448.3204926170410545
 21
170.8926866579253954
 31
0.0
  0
LINE
  5
CF9F
  8
0
 10
4448.327130111651968
 20
170.8971865203446043
 30
0.0
 11
4448.3257721989402853
 21
170.8914392470254882
 31
0.0
  0
LINE
  5
CFA0
  8
0
 10
4448.3319614707534129
 20
170.896045011394591
 30
0.0
 11
4448.3306035580417301
 21
170.8902977380753896
 31
0.0
  0
LINE
  5
CFA1
  8
0
 10
4448.3376643898473048
 20
170.8946975793791125
 30
0.0
 11
4448.3363064771356221
 21
170.8889503060599964
 31
0.0
  0
LINE
  5
CFA2
  8
0
 10
4448.3475262581650895
 20
170.8923675077818984
 30
0.0
 11
4448.3461683454534068
 21
170.8866202344628107
 31
0.0
  0
LINE
  5
CFA3
  8
0
 10
4448.3527809541756142
 20
170.8911259767297963
 30
0.0
 11
4448.3514230414639314
 21
170.8853787034107086
 31
0.0
  0
LINE
  5
CFA4
  8
0
 10
4448.3567157171883082
 20
170.8901963077520065
 30
0.0
 11
4448.355357804475716
 21
170.8844490344328904
 31
0.0
  0
LINE
  5
CFA5
  8
0
 10
4448.3715789807347392
 20
170.8866845531487968
 30
0.0
 11
4448.3702210680230564
 21
170.8809372798295954
 31
0.0
  0
LINE
  5
CFA6
  8
0
 10
4448.3743603439406797
 20
170.8860273959500091
 30
0.0
 11
4448.3730024312299065
 21
170.8802801226308077
 31
0.0
  0
LINE
  5
CFA7
  8
0
 10
4448.3756241176033654
 20
170.8857288040946116
 30
0.0
 11
4448.3742662048916827
 21
170.8799815307754102
 31
0.0
  0
LINE
  5
CFA8
  8
0
 10
4448.3779617259533552
 20
170.8851764955446129
 30
0.0
 11
4448.376603813240763
 21
170.8794292222254114
 31
0.0
  0
LINE
  5
CFA9
  8
0
 10
4448.3835208907030392
 20
170.8838630274445904
 30
0.0
 11
4448.3821629779913565
 21
170.878115754125389
 31
0.0
  0
LINE
  5
CFAA
  8
0
 10
4448.3884482186585956
 20
170.8826988454507898
 30
0.0
 11
4448.3870903059469128
 21
170.8769515721315884
 31
0.0
  0
LINE
  5
CFAB
  8
0
 10
4448.3930595536530745
 20
170.8816093201446051
 30
0.0
 11
4448.3917016409413918
 21
170.875862046825489
 31
0.0
  0
LINE
  5
CFAC
  8
0
 10
4448.3984288307528914
 20
170.880340716894608
 30
0.0
 11
4448.3970709180412086
 21
170.8745934435754066
 31
0.0
  0
LINE
  5
CFAD
  8
0
 10
4448.4034821157511033
 20
170.8791467744441945
 30
0.0
 11
4448.4021242030394205
 21
170.8733995011249931
 31
0.0
  0
LINE
  5
CFAE
  8
0
 10
4448.4068297278117825
 20
170.878355832277208
 30
0.0
 11
4448.4054718151000998
 21
170.8726085589580919
 31
0.0
  0
LINE
  5
CFAF
  8
0
 10
4448.4087875109962624
 20
170.8778932623590094
 30
0.0
 11
4448.4074295982836702
 21
170.872145989039808
 31
0.0
  0
LINE
  5
CFB0
  8
0
 10
4448.445099548152939
 20
170.8693137904446075
 30
0.0
 11
4448.4437416354412562
 21
170.8635665171254061
 31
0.0
  0
LINE
  5
CFB1
  8
0
 10
4448.5347061880529509
 20
170.8481423604445979
 30
0.0
 11
4448.5333482753412682
 21
170.8423950871255101
 31
0.0
  0
LINE
  5
CFB2
  8
0
 10
4448.5577880192531666
 20
170.8426887983445965
 30
0.0
 11
4448.5564301065405743
 21
170.8369415250255088
 31
0.0
  0
LINE
  5
CFB3
  8
0
 10
4448.5620154618527522
 20
170.8416899771945907
 30
0.0
 11
4448.56065754914016
 21
170.835942703875503
 31
0.0
  0
LINE
  5
CFB4
  8
0
 10
4448.5641187353749046
 20
170.8411930386128859
 30
0.0
 11
4448.5627608226632219
 21
170.8354457652937981
 31
0.0
  0
LINE
  5
CFB5
  8
0
 10
4448.5646789921529489
 20
170.8410606628445976
 30
0.0
 11
4448.5633210794412662
 21
170.8353133895255098
 31
0.0
  0
LINE
  5
CFB6
  8
0
 10
4448.570722943652072
 20
170.8396326537445873
 30
0.0
 11
4448.5693650309412988
 21
170.8338853804254995
 31
0.0
  0
LINE
  5
CFB7
  8
0
 10
4448.5758244459111665
 20
170.8384273214653888
 30
0.0
 11
4448.5744665331985743
 21
170.8326800481461873
 31
0.0
  0
LINE
  5
CFB8
  8
0
 10
4448.585849142627012
 20
170.8360587787339
 30
0.0
 11
4448.5844912299153293
 21
170.8303115054148122
 31
0.0
  0
LINE
  5
CFB9
  8
0
 10
4448.5914100262525608
 20
170.834744900744596
 30
0.0
 11
4448.5900521135417875
 21
170.8289976274255082
 31
0.0
  0
LINE
  5
CFBA
  8
0
 10
4448.5947063286530465
 20
170.8339660846428103
 30
0.0
 11
4448.5933484159422733
 21
170.8282188113236089
 31
0.0
  0
LINE
  5
CFBB
  8
0
 10
4448.5983601643038128
 20
170.8331027838175942
 30
0.0
 11
4448.5970022515912206
 21
170.8273555104985064
 31
0.0
  0
LINE
  5
CFBC
  8
0
 10
4448.6046819685971059
 20
170.8316091261901875
 30
0.0
 11
4448.6033240558854231
 21
170.8258618528710997
 31
0.0
  0
LINE
  5
CFBD
  8
0
 10
4448.6096215102934366
 20
170.8304420633118923
 30
0.0
 11
4448.6082635975817539
 21
170.8246947899928045
 31
0.0
  0
LINE
  5
CFBE
  8
0
 10
4448.6165379265103184
 20
170.8288079163824023
 30
0.0
 11
4448.6151800137968166
 21
170.8230606430632861
 31
0.0
  0
LINE
  5
CFBF
  8
0
 10
4448.6200952425033393
 20
170.8279674225445888
 30
0.0
 11
4448.618737329790747
 21
170.822220149225501
 31
0.0
  0
LINE
  5
CFC0
  8
0
 10
4448.6247400460270001
 20
170.8268699953545138
 30
0.0
 11
4448.6233821333153173
 21
170.8211227220353976
 31
0.0
  0
LINE
  5
CFC1
  8
0
 10
4448.6269150174375682
 20
170.8263561132019959
 30
0.0
 11
4448.6255571047258854
 21
170.8206088398829081
 31
0.0
  0
LINE
  5
CFC2
  8
0
 10
4448.6277078052526122
 20
170.8261687964445912
 30
0.0
 11
4448.6263498925409294
 21
170.8204215231255034
 31
0.0
  0
LINE
  5
CFC3
  8
0
 10
4448.6436203030525576
 20
170.8224091383445966
 30
0.0
 11
4448.6422623903408748
 21
170.8166618650255089
 31
0.0
  0
LINE
  5
CFC4
  8
0
 10
4448.6719416462519803
 20
170.8157176326446063
 30
0.0
 11
4448.670583733541207
 21
170.8099703593254048
 31
0.0
  0
LINE
  5
CFC5
  8
0
 10
4448.6807906711483156
 20
170.8136268696235049
 30
0.0
 11
4448.6794327584348139
 21
170.8078795963043888
 31
0.0
  0
LINE
  5
CFC6
  8
0
 10
4448.6874081952028064
 20
170.8120633392445882
 30
0.0
 11
4448.6860502824911237
 21
170.8063160659253867
 31
0.0
  0
LINE
  5
CFC7
  8
0
 10
4448.6978182608299903
 20
170.8096037399423892
 30
0.0
 11
4448.6964603481183076
 21
170.8038564666233015
 31
0.0
  0
LINE
  5
CFC8
  8
0
 10
4448.7788631927351162
 20
170.7895852953056135
 30
0.0
 11
4448.7776999453153621
 21
170.7846619296076938
 31
0.0
  0
LINE
  5
CFC9
  8
0
 10
4448.7823476644043694
 20
170.7896319174446091
 30
0.0
 11
4448.7809897516917772
 21
170.7838846441254077
 31
0.0
  0
LINE
  5
CFCA
  8
0
 10
4448.7862337061033031
 20
170.7887137594445903
 30
0.0
 11
4448.7848757933916204
 21
170.7829664861255026
 31
0.0
  0
LINE
  5
CFCB
  8
0
 10
4448.7922100737032451
 20
170.7873017146457073
 30
0.0
 11
4448.7908521609906529
 21
170.7815544413265059
 31
0.0
  0
LINE
  5
CFCC
  8
0
 10
4448.7972885854942433
 20
170.7861018107068958
 30
0.0
 11
4448.7959306727816511
 21
170.780354537387808
 31
0.0
  0
LINE
  5
CFCD
  8
0
 10
4448.802963332453146
 20
170.7847610376446141
 30
0.0
 11
4448.8016054197405538
 21
170.7790137643254127
 31
0.0
  0
LINE
  5
CFCE
  8
0
 10
4448.8186407863531713
 20
170.781056913544603
 30
0.0
 11
4448.8172828736405791
 21
170.7753096402254869
 31
0.0
  0
LINE
  5
CFCF
  8
0
 10
4448.8234176790547281
 20
170.7799282772031972
 30
0.0
 11
4448.8220597663439548
 21
170.7741810038841095
 31
0.0
  0
LINE
  5
CFD0
  8
0
 10
4448.82670047510328
 20
170.7791526446445971
 30
0.0
 11
4448.8253425623915973
 21
170.7734053713255093
 31
0.0
  0
LINE
  5
CFD1
  8
0
 10
4448.8290854150018276
 20
170.7785891530446065
 30
0.0
 11
4448.8277275022901449
 21
170.7728418797254903
 31
0.0
  0
ARC
  5
CFD2
  8
0
 10
4398.2821115492743047
 20
172.9299016714938091
 30
0.0
 40
57.4071417779692084
 50
354.7807570205831098
 51
358.7587940678046152
  0
ARC
  5
CFD3
  8
0
 10
4517.5981528305555912
 20
173.1325529547731037
 30
0.0
 40
61.0015141658278921
 50
181.3584472423162026
 51
185.102001669293287
  0
ARC
  5
CFD4
  8
0
 10
4455.4867908058977264
 20
167.6170104044335858
 30
0.0
 40
0.0393700788013935
 50
90.0771462061856028
 51
176.6265119612988883
  0
ARC
  5
CFD5
  8
0
 10
4455.4711912615466645
 20
167.7063805515142008
 30
0.0
 40
0.0199999998791823
 50
176.0922573725246139
 51
270.0000001433551802
  0
LINE
  5
CFD6
  8
0
 10
4455.4711912615966867
 20
167.6863805516350112
 30
0.0
 11
4455.8081154476658412
 21
167.6863805516350112
 31
0.0
  0
LINE
  5
CFD7
  8
0
 10
4455.4697834558974137
 20
167.666380551635001
 30
0.0
 11
4455.4697834558974137
 21
167.6563805516350101
 31
0.0
  0
LINE
  5
CFD8
  8
0
 10
4455.4697834558974137
 20
167.6563805516350101
 30
0.0
 11
4455.8109773257965571
 21
167.6563805516350101
 31
0.0
  0
ARC
  5
CFD9
  8
0
 10
4460.9701215135282837
 20
165.1077340301359015
 30
0.0
 40
5.8516588878239473
 50
169.7620420804452976
 51
181.5754599461753003
  0
ARC
  5
CFDA
  8
0
 10
4449.4505411574209575
 20
167.989308724205813
 30
0.0
 40
6.0083499570054064
 50
350.6378878592568071
 51
356.4696123647315176
  0
ARC
  5
CFDB
  8
0
 10
4431.6936321280518314
 20
171.1473066128062044
 30
0.0
 40
24.0435336722317388
 50
347.9985719319532791
 51
350.0960948946507187
  0
ARC
  5
CFDC
  8
0
 10
4697.5875739778930438
 20
162.0339824717570991
 30
0.0
 40
242.4843955234914858
 50
179.3117119439542932
 51
179.7892167515601045
  0
ARC
  5
CFDD
  8
0
 10
4455.1245043817698388
 20
162.9260655843729069
 30
0.0
 40
0.0196850432424762
 50
180.0540529321486929
 51
269.9408084345380985
  0
LINE
  5
CFDE
  8
0
 10
4455.1244840453982761
 20
162.9063805516350101
 30
0.0
 11
4457.085280064971812
 21
162.906380522973393
 31
0.0
  0
ARC
  5
CFDF
  8
0
 10
4454.9126716659602607
 20
166.645906740646609
 30
0.0
 40
0.9638799139342678
 50
324.5160992188680211
 51
349.0480366936275232
  0
ARC
  5
CFE0
  8
0
 10
4444.987210247954863
 20
173.1522860781435043
 30
0.0
 40
12.8311295994197092
 50
326.0972195044275281
 51
326.5861081328517912
  0
ARC
  5
CFE1
  8
0
 10
4459.6980047891338472
 20
163.3839414681887945
 30
0.0
 40
4.828244618555293
 50
147.258875536271205
 51
148.6579481513064138
  0
ARC
  5
CFE2
  8
0
 10
4456.446600438306632
 20
165.352811579910508
 30
0.0
 40
1.027239073787648
 50
148.1203662094561082
 51
170.509117589117011
  0
ARC
  5
CFE3
  8
0
 10
4456.0726363902986122
 20
165.430725170285001
 30
0.0
 40
0.6457252236264698
 50
171.8565247555561939
 51
217.9076802674246096
  0
ARC
  5
CFE4
  8
0
 10
4456.0918598181806374
 20
165.4408116830499864
 30
0.0
 40
0.6671007276572519
 50
217.5768023719141979
 51
271.1185859179900035
  0
ARC
  5
CFE5
  8
0
 10
4456.1220926739315473
 20
165.4787233843424872
 30
0.0
 40
0.7537392928275713
 50
268.6916714239396811
 51
311.9683649409175246
  0
ARC
  5
CFE6
  8
0
 10
4456.1047834558976319
 20
165.4063805516350101
 30
0.0
 40
0.6949999999999993
 50
270.0
 51
296.2322950800868853
  0
ARC
  5
CFE7
  8
0
 10
4456.1047834558976319
 20
165.4063805516350101
 30
0.0
 40
0.6949999999999908
 50
225.7645307103213952
 51
270.0081901885009756
  0
ARC
  5
CFE8
  8
0
 10
4456.1151676860208681
 20
165.424409875003704
 30
0.0
 40
0.6993049198239124
 50
225.5073938010885968
 51
269.1573037627640019
  0
ARC
  5
CFE9
  8
0
 10
4456.1051005994613661
 20
165.4220395134823036
 30
0.0
 40
0.6905809188146096
 50
215.7513981347671006
 51
225.9653855041580925
  0
ARC
  5
CFEA
  8
0
 10
4456.1047834558976319
 20
165.4063805516350953
 30
0.0
 40
0.6950000000000199
 50
214.6981765556949995
 51
225.7645307103225889
  0
ARC
  5
CFEB
  8
0
 10
4456.145722724373627
 20
165.4486472931887135
 30
0.0
 40
0.7390974121224789
 50
185.9866618335105102
 51
215.5854663103351072
  0
ARC
  5
CFEC
  8
0
 10
4456.1047834558976319
 20
165.4063805516350101
 30
0.0
 40
0.6950000000000037
 50
182.8716677141974003
 51
214.6981765556936921
  0
ARC
  5
CFED
  8
0
 10
4456.127694375527426
 20
165.4417380826102999
 30
0.0
 40
0.7203044813695532
 50
138.2070213338512872
 51
185.5898244942420092
  0
ARC
  5
CFEE
  8
0
 10
4456.1047905817031278
 20
165.4063784468092138
 30
0.0
 40
0.792642837108379
 50
120.9166206597520983
 51
179.9998478537509925
  0
ARC
  5
CFEF
  8
0
 10
4456.1047834558976319
 20
165.4063805516350101
 30
0.0
 40
0.7521597375999712
 50
128.4703065369843955
 51
180.0
  0
ARC
  5
CFF0
  8
0
 10
4456.1043307823274517
 20
165.4062983026776976
 30
0.0
 40
0.7921830419997709
 50
179.9940512354918098
 51
223.8969777544270983
  0
ARC
  5
CFF1
  8
0
 10
4456.1047834558976319
 20
165.4063805516350101
 30
0.0
 40
0.7521597376000014
 50
180.0
 51
225.230589590376411
  0
ARC
  5
CFF2
  8
0
 10
4456.1047834558976319
 20
165.4063805516350101
 30
0.0
 40
0.7521597376000086
 50
225.2305895903776047
 51
270.0
  0
ARC
  5
CFF3
  8
0
 10
4456.1026603095915561
 20
165.4129377081247867
 30
0.0
 40
0.7956050366258247
 50
224.3249343638017024
 51
270.1600538752155103
  0
ARC
  5
CFF4
  8
0
 10
4456.1047834558976319
 20
165.4063805516350101
 30
0.0
 40
0.7521597375999985
 50
270.0
 51
316.2861169644053234
  0
ARC
  5
CFF5
  8
0
 10
4456.1066539721023219
 20
165.4126828811859014
 30
0.0
 40
0.7953490775707344
 50
269.8724074877060843
 51
318.8759393287451189
  0
ARC
  5
CFF6
  8
0
 10
4456.0698306236208737
 20
165.4312454999185888
 30
0.0
 40
0.7946307935042285
 50
316.7318692186022986
 51
348.9197020232293767
  0
ARC
  5
CFF7
  8
0
 10
4456.1169129896516097
 20
165.4837308448923068
 30
0.0
 40
0.760926336082714
 50
312.0062078136915034
 51
344.3552064963686234
  0
ARC
  5
CFF8
  8
0
 10
4456.1047834553983193
 20
165.4063805517178878
 30
0.0
 40
0.7926357117931411
 50
319.3985596667076265
 51
3.4936217374739771
  0
ARC
  5
CFF9
  8
0
 10
4456.1929518890419786
 20
165.4583181555842941
 30
0.0
 40
0.6808629625452314
 50
344.6889189553797905
 51
22.5314161205708317
  0
ARC
  5
CFFA
  8
0
 10
4456.1047834558976319
 20
165.4063805516350101
 30
0.0
 40
0.7926357113000341
 50
3.4936217456523999
 51
28.4057982438981718
  0
ARC
  5
CFFB
  8
0
 10
4456.1466416495686644
 20
165.4436617989775868
 30
0.0
 40
0.7292666302570729
 50
22.2008082520170618
 51
65.1345730107105396
  0
ARC
  5
CFFC
  8
0
 10
4456.105715165030233
 20
165.4070956495787925
 30
0.0
 40
0.7914760197935703
 50
28.3923498613054903
 51
65.037918044647725
  0
ARC
  5
CFFD
  8
0
 10
4456.0861760294428677
 20
165.4406220913922141
 30
0.0
 40
0.667046367781442
 50
271.6070243079440161
 51
321.5717831253828081
  0
ARC
  5
CFFE
  8
0
 10
4456.0822921077287901
 20
165.4342942811207138
 30
0.0
 40
0.6661968162918968
 50
322.2057435462152739
 51
7.6652313753790651
  0
ARC
  5
CFFF
  8
0
 10
4457.2512788736858056
 20
166.6885587096489871
 30
0.0
 40
0.9883025318727769
 50
193.135913922876
 51
215.0204433823209911
  0
ARC
  5
D000
  8
0
 10
4455.669180007099385
 20
165.315754110937803
 30
0.0
 40
1.0932100208098301
 50
10.9362785774352798
 51
33.9927858172607387
  0
ARC
  5
D001
  8
0
 10
4449.9846221241732565
 20
161.5396764903314022
 30
0.0
 40
7.9176257736559119
 50
33.6498109228593805
 51
35.3573521180450285
  0
ARC
  5
D002
  8
0
 10
4456.1025437755561143
 20
166.1892661705664125
 30
0.0
 40
1.426630558387306
 50
265.8701616441413194
 51
274.2452772191584813
  0
ARC
  5
D003
  8
0
 10
4456.1149851037653207
 20
165.1091904685729048
 30
0.0
 40
0.3669797689145594
 50
268.4225497834349881
 51
286.1067230807581723
  0
ARC
  5
D004
  8
0
 10
4456.1081307043568813
 20
165.1589451028565918
 30
0.0
 40
0.416607988268319
 50
254.6009007375193107
 51
269.5533141008144185
  0
ARC
  5
D005
  8
0
 10
4456.0118217549916153
 20
164.8136434419247962
 30
0.0
 40
0.0581403982111288
 50
238.5898463649214989
 51
255.7438121830672912
  0
ARC
  5
D006
  8
0
 10
4455.9820434769244457
 20
164.7647592323455967
 30
0.0
 40
0.0009026154528207
 50
99.5673135077517344
 51
234.6501986031773015
  0
ARC
  5
D007
  8
0
 10
4455.9888509841312043
 20
164.7398661177807071
 30
0.0
 40
0.0267054176282756
 50
87.3103239740043762
 51
105.1014351308819954
  0
ARC
  5
D008
  8
0
 10
4455.9914096406082535
 20
164.5964235718419957
 30
0.0
 40
0.1701235523623273
 50
87.1722967595361951
 51
90.4396710956906276
  0
ARC
  5
D009
  8
0
 10
4456.2117989252483312
 20
164.6578903156587899
 30
0.0
 40
0.1087207419490658
 50
83.7642549181711615
 51
91.9223196206321802
  0
ARC
  5
D00A
  8
0
 10
4456.2057657727364131
 20
164.7921813398878044
 30
0.0
 40
0.0372364323156733
 50
287.2297323829918128
 51
305.3631647614798226
  0
ARC
  5
D00B
  8
0
 10
4456.2226630069599196
 20
164.7560889432992894
 30
0.0
 40
0.0099239634154741
 50
58.04326557162954
 51
84.5351065641317234
  0
ARC
  5
D00C
  8
0
 10
4456.2265569823775877
 20
164.7633974390525964
 30
0.0
 40
0.0017552987105264
 50
295.6433342824026909
 51
39.2872888757414032
  0
ARC
  5
D00D
  8
0
 10
4453.4221351728920126
 20
166.8035041529485056
 30
0.0
 40
2.4605655356276852
 50
352.0405251055177018
 51
5.920970524303093
  0
ARC
  5
D00E
  8
0
 10
4458.7057785503284322
 20
166.8879636140532057
 30
0.0
 40
2.453852406453974
 50
175.3082306016792131
 51
189.9502442872725965
  0
ARC
  5
D00F
  8
0
 10
4425.8489837220568006
 20
164.4232445325594938
 30
0.0
 40
30.1359292079797285
 50
5.0144359007510264
 51
6.1588366868433564
  0
ARC
  5
D010
  8
0
 10
4457.4475892372565795
 20
167.948967835497001
 30
0.0
 40
1.6570923805290361
 50
172.947781225764686
 51
186.9189010645106919
  0
ARC
  5
D011
  8
0
 10
4456.0927405107013328
 20
168.0444106925606889
 30
0.0
 40
0.3787428311170343
 50
88.1628131638044721
 51
112.2861782324023068
  0
ARC
  5
D012
  8
0
 10
4456.0570554767045905
 20
168.1835918448005032
 30
0.0
 40
0.2372499368214731
 50
117.0643939639770963
 51
154.9539482667601078
  0
ARC
  5
D013
  8
0
 10
4456.2656276093357519
 20
168.08666442762771
 30
0.0
 40
0.4672437175701333
 50
155.0134432024329101
 51
171.9104204919250947
  0
ARC
  5
D014
  8
0
 10
4462.2836936728554065
 20
168.2889879038179117
 30
0.0
 40
6.5035566401399434
 50
184.7596600321288918
 51
185.5820431016323937
  0
ARC
  5
D015
  8
0
 10
4456.1030974561435869
 20
168.1612695548197962
 30
0.0
 40
0.2616953712181054
 50
50.7719715874074495
 51
89.6091117540040756
  0
ARC
  5
D016
  8
0
 10
4456.0894774428261371
 20
168.1769663797934129
 30
0.0
 40
0.2589603623288336
 50
9.3428972856977843
 51
46.2365609017092112
  0
ARC
  5
D017
  8
0
 10
4452.6089340725529837
 20
168.226158469340902
 30
0.0
 40
3.7537981552623041
 50
352.6853367298040212
 51
356.6641329611003925
  0
ARC
  5
D018
  8
0
 10
4455.5360011163020317
 20
168.0695282392383092
 30
0.0
 40
0.8226950410695147
 50
355.6919814050114041
 51
10.4684244793714196
  0
ARC
  5
D019
  8
0
 10
4466.2192008087849899
 20
166.3346850115077871
 30
0.0
 40
9.9875534758472106
 50
171.8635675978487996
 51
175.6704395257291935
  0
ARC
  5
D01A
  8
0
 10
4455.4897834558969407
 20
167.666380551635001
 30
0.0
 40
0.0199999999999971
 50
90.0
 51
180.0000000000065086
  0
ARC
  5
D01B
  8
0
 10
4456.8035502106877175
 20
167.6165667083569133
 30
0.0
 40
0.0398202687831166
 50
5.9512537189380357
 51
91.0376108914174438
  0
ARC
  5
D01C
  8
0
 10
4456.8183756502467077
 20
167.7063805515142008
 30
0.0
 40
0.0199999998791823
 50
269.9999998566448198
 51
3.9077426274753968
  0
LINE
  5
D01D
  8
0
 10
4456.8183756501966855
 20
167.6863805516350112
 30
0.0
 11
4456.3235379406542052
 21
167.6863805516350112
 31
0.0
  0
LINE
  5
D01E
  8
0
 10
4456.819783455896868
 20
167.666380551635001
 30
0.0
 11
4456.819783455896868
 21
167.6563805516350101
 31
0.0
  0
LINE
  5
D01F
  8
0
 10
4456.819783455896868
 20
167.6563805516350101
 30
0.0
 11
4456.3194864021907051
 21
167.6563805516350101
 31
0.0
  0
ARC
  5
D020
  8
0
 10
4349.8071054149268093
 20
159.2171674961068106
 30
0.0
 40
107.3675243455609944
 50
3.0389462421276439
 51
3.6966948738745602
  0
ARC
  5
D021
  8
0
 10
4365.4935920018069737
 20
159.8564152141721877
 30
0.0
 40
91.6789335921446309
 50
4.4756561933383523
 51
4.858193421889708
  0
ARC
  5
D022
  8
0
 10
4330.6346248386262232
 20
158.1252545227796986
 30
0.0
 40
126.570599084460099
 50
3.6303776118586391
 51
4.0255280841578589
  0
ARC
  5
D023
  8
0
 10
4412.5937762819339696
 20
162.0945199940609029
 30
0.0
 40
44.5189348113940326
 50
1.070235835587338
 51
3.6249442320920888
  0
ARC
  5
D024
  8
0
 10
4457.0852597286002492
 20
162.9260655843729069
 30
0.0
 40
0.0196850432424762
 50
270.0591915654619015
 51
359.9459470678513071
  0
ARC
  5
D025
  8
0
 10
4456.7997834558973409
 20
167.666380551635001
 30
0.0
 40
0.0199999999999971
 50
359.9999999999935199
 51
90.0
  0
LINE
  5
D026
  8
0
 10
4455.6757662538966542
 20
173.4463847689349905
 30
0.0
 11
4455.6757835204962248
 21
171.6863805516350112
 31
0.0
  0
LINE
  5
D027
  8
0
 10
4456.6137833912971473
 20
173.4463805516350021
 30
0.0
 11
4456.6137833912971473
 21
171.6863805516350112
 31
0.0
  0
ENDSEC
  0
EOF
