  0
SECTION
  2
HEADER
  9
$ACADVER
  1
AC1009
  9
$INSBASE
 10
3654.5249661227630895
 20
134.0188372574963864
 30
0.0
  9
$EXTMIN
 10
3632.1742297882760795
 20
134.0188625192471932
 30
-0.0000000349181948
  9
$EXTMAX
 10
3654.7592524727078853
 20
152.6393861759088963
 30
0.0000000814935746
  9
$LIMMIN
 10
0.0
 20
0.0
  9
$LIMMAX
 10
11.6929133858000007
 20
8.2677165353999982
  9
$ORTHOMODE
 70
     1
  9
$REGENMODE
 70
     1
  9
$FILLMODE
 70
     1
  9
$QTEXTMODE
 70
     0
  9
$MIRRTEXT
 70
     0
  9
$DRAGMODE
 70
     2
  9
$LTSCALE
 40
0.6431102362
  9
$OSMODE
 70
  4095
  9
$ATTMODE
 70
     1
  9
$TEXTSIZE
 40
0.2
  9
$TRACEWID
 40
0.05
  9
$TEXTSTYLE
  7
STANDARD
  9
$CLAYER
  8
0
  9
$CELTYPE
  6
BYLAYER
  9
$CECOLOR
 62
   256
  9
$DIMSCALE
 40
1.0
  9
$DIMASZ
 40
0.1875
  9
$DIMEXO
 40
0.0625
  9
$DIMDLI
 40
0.4443307087
  9
$DIMRND
 40
0.0
  9
$DIMDLE
 40
0.0
  9
$DIMEXE
 40
0.125
  9
$DIMTP
 40
0.01
  9
$DIMTM
 40
0.01
  9
$DIMTXT
 40
2.0
  9
$DIMCEN
 40
0.1052362205
  9
$DIMTSZ
 40
0.0
  9
$DIMTOL
 70
     1
  9
$DIMLIM
 70
     0
  9
$DIMTIH
 70
     1
  9
$DIMTOH
 70
     1
  9
$DIMSE1
 70
     0
  9
$DIMSE2
 70
     0
  9
$DIMTAD
 70
     0
  9
$DIMZIN
 70
     0
  9
$DIMBLK
  1

  9
$DIMASO
 70
     1
  9
$DIMSHO
 70
     1
  9
$DIMPOST
  1
\X
  9
$DIMAPOST
  1

  9
$DIMALT
 70
     1
  9
$DIMALTD
 70
     2
  9
$DIMALTF
 40
25.3999999999999986
  9
$DIMLFAC
 40
1.0
  9
$DIMTOFL
 70
     0
  9
$DIMTVP
 40
0.0
  9
$DIMTIX
 70
     0
  9
$DIMSOXD
 70
     0
  9
$DIMSAH
 70
     0
  9
$DIMBLK1
  1

  9
$DIMBLK2
  1

  9
$DIMSTYLE
  2
STANDARD
  9
$DIMCLRD
 70
     0
  9
$DIMCLRE
 70
     0
  9
$DIMCLRT
 70
     0
  9
$DIMTFAC
 40
1.0
  9
$DIMGAP
 40
0.09
  9
$LUNITS
 70
     2
  9
$LUPREC
 70
     4
  9
$SKETCHINC
 40
0.1
  9
$FILLETRAD
 40
0.0
  9
$AUNITS
 70
     0
  9
$AUPREC
 70
     0
  9
$MENU
  1
.
  9
$ELEVATION
 40
0.0
  9
$PELEVATION
 40
0.0
  9
$THICKNESS
 40
0.0
  9
$LIMCHECK
 70
     0
  9
$BLIPMODE
 70
     0
  9
$CHAMFERA
 40
0.0
  9
$CHAMFERB
 40
0.0
  9
$SKPOLY
 70
     0
  9
$TDCREATE
 40
2458060.468368056230247
  9
$TDUPDATE
 40
2459405.7477546301670372
  9
$TDINDWG
 40
0.3365927083
  9
$TDUSRTIMER
 40
0.3365927083
  9
$USRTIMER
 70
     1
  9
$ANGBASE
 50
0.0
  9
$ANGDIR
 70
     0
  9
$PDMODE
 70
     0
  9
$PDSIZE
 40
0.3125
  9
$PLINEWID
 40
0.0
  9
$COORDS
 70
     1
  9
$SPLFRAME
 70
     0
  9
$SPLINETYPE
 70
     6
  9
$SPLINESEGS
 70
     8
  9
$ATTDIA
 70
     1
  9
$ATTREQ
 70
     1
  9
$HANDLING
 70
     1
  9
$HANDSEED
  5
13C73
  9
$SURFTAB1
 70
     6
  9
$SURFTAB2
 70
     6
  9
$SURFTYPE
 70
     6
  9
$SURFU
 70
     6
  9
$SURFV
 70
     6
  9
$UCSNAME
  2

  9
$UCSORG
 10
0.0
 20
0.0
 30
0.0
  9
$UCSXDIR
 10
1.0
 20
0.0
 30
0.0
  9
$UCSYDIR
 10
0.0
 20
1.0
 30
0.0
  9
$PUCSNAME
  2

  9
$PUCSORG
 10
0.0
 20
0.0
 30
0.0
  9
$PUCSXDIR
 10
1.0
 20
0.0
 30
0.0
  9
$PUCSYDIR
 10
0.0
 20
1.0
 30
0.0
  9
$USERI1
 70
     0
  9
$USERI2
 70
     0
  9
$USERI3
 70
     0
  9
$USERI4
 70
     0
  9
$USERI5
 70
     0
  9
$USERR1
 40
0.0
  9
$USERR2
 40
0.0
  9
$USERR3
 40
0.0
  9
$USERR4
 40
0.0
  9
$USERR5
 40
0.0
  9
$WORLDVIEW
 70
     1
  9
$SHADEDGE
 70
     3
  9
$SHADEDIF
 70
    70
  9
$TILEMODE
 70
     1
  9
$MAXACTVP
 70
    64
  9
$PLIMCHECK
 70
     0
  9
$PEXTMIN
 10
1.0000000000000000E+20
 20
1.0000000000000000E+20
 30
1.0000000000000000E+20
  9
$PEXTMAX
 10
-1.0000000000000000E+20
 20
-1.0000000000000000E+20
 30
-1.0000000000000000E+20
  9
$PLIMMIN
 10
0.0
 20
0.0
  9
$PLIMMAX
 10
12.0
 20
9.0
  9
$UNITMODE
 70
     0
  9
$VISRETAIN
 70
     1
  9
$PLINEGEN
 70
     0
  9
$PSLTSCALE
 70
     1
  0
ENDSEC
  0
SECTION
  2
TABLES
  0
TABLE
  2
VPORT
 70
     1
  0
VPORT
  2
*ACTIVE
 70
     0
 10
0.0
 20
0.0
 11
1.0
 21
1.0
 12
-160.0773262523206881
 22
17.3338621508281214
 13
0.0
 23
0.0
 14
1.0
 24
1.0
 15
0.0
 25
0.0
 16
0.0
 26
0.0
 36
17.1152628219792007
 17
3803.5440673828129547
 27
125.9952621967499056
 37
0.0
 40
18.7735690565794684
 41
2.6159122085048012
 42
50.0
 43
0.0
 44
0.0
 50
0.0
 51
0.0
 71
     0
 72
   100
 73
     1
 74
     1
 75
     0
 76
     0
 77
     0
 78
     0
  0
ENDTAB
  0
TABLE
  2
LTYPE
 70
     2
  0
LTYPE
  2
CONTINUOUS
 70
     0
  3
Solid line
 72
    65
 73
     0
 40
0.0
  0
LTYPE
  2
PHANTOM2
 70
     0
  3
___ _ _ ___ _ _ ___ _ _ ___ _ _
 72
    65
 73
     6
 40
1.25
 49
0.625
 49
-0.125
 49
0.125
 49
-0.125
 49
0.125
 49
-0.125
  0
ENDTAB
  0
TABLE
  2
LAYER
 70
     2
  0
LAYER
  2
0
 70
     0
 62
   255
  6
CONTINUOUS
  0
LAYER
  2
DEFPOINTS
 70
     0
 62
     7
  6
CONTINUOUS
  0
ENDTAB
  0
TABLE
  2
STYLE
 70
     1
  0
STYLE
  2
STANDARD
 70
     0
 40
0.0
 41
0.8
 50
0.0
 71
     0
 42
0.2
  3
txt
  4

  0
ENDTAB
  0
TABLE
  2
VIEW
 70
     0
  0
ENDTAB
  0
TABLE
  2
UCS
 70
     0
  0
ENDTAB
  0
TABLE
  2
APPID
 70
     9
  0
APPID
  2
ACAD
 70
     0
  0
APPID
  2
ACAD_MLEADERVER
 70
     0
  0
APPID
  2
ACAD_EXEMPT_FROM_CAD_STANDARDS
 70
     0
  0
APPID
  2
ACAD_NAV_VCDISPLAY
 70
     0
  0
APPID
  2
ACAECLAYERSTANDARD
 70
     0
  0
APPID
  2
ACCMTRANSPARENCY
 70
     0
  0
APPID
  2
ACAD_DSTYLE_DIMJAG
 70
     0
  0
APPID
  2
ACAD_DSTYLE_DIMTALN
 70
     0
  0
APPID
  2
ACDBATTR
 70
     0
  0
ENDTAB
  0
TABLE
  2
DIMSTYLE
 70
     1
  0
DIMSTYLE
  2
STANDARD
 70
     0
  3

  4

  5

  6

  7

 40
1.0
 41
0.1875
 42
0.0625
 43
0.38
 44
0.125
 45
0.0
 46
0.0
 47
0.01
 48
0.01
140
0.15625
141
0.09
142
0.0
143
25.3999999999999986
144
1.0
145
0.0
146
1.0
147
0.09
 71
     1
 72
     0
 73
     1
 74
     1
 75
     0
 76
     0
 77
     0
 78
     4
170
     0
171
     2
172
     0
173
     0
174
     0
175
     0
176
     0
177
     0
178
     0
  0
ENDTAB
  0
ENDSEC
  0
SECTION
  2
BLOCKS
  0
BLOCK
  8
0
  2
$MODEL_SPACE
 70
     0
 10
0.0
 20
0.0
 30
0.0
  3
$MODEL_SPACE
  1

  0
ENDBLK
  5
21
  8
0
  0
BLOCK
 67
     1
  8
0
  2
$PAPER_SPACE
 70
     0
 10
0.0
 20
0.0
 30
0.0
  3
$PAPER_SPACE
  1

  0
ENDBLK
  5
1D
 67
     1
  8
0
  0
BLOCK
  8
0
  2
_FILLED
 70
     0
 10
0.0
 20
0.0
 30
0.0
  3
_FILLED
  1

  0
SOLID
  5
124E8
  8
0
  6
BYBLOCK
 62
     0
 10
0.0
 20
0.0
 30
0.0
 11
-1.0
 21
0.1666666667
 31
0.0
 12
-1.0
 22
-0.1666666667
 32
0.0
 13
-1.0
 23
-0.1666666667
 33
0.0
  0
ENDBLK
  5
124E9
  8
0
  6
BYBLOCK
 62
     0
  0
ENDSEC
  0
SECTION
  2
ENTITIES
  0
ATTDEF
  5
12FEB
  8
DEFPOINTS
 10
3654.5255101973721139
 20
134.0229148995890114
 30
0.0
 40
0.001
  1
K-5036BR
  3

  2
MODELNUMBER
 70
     0
1001
ACDBATTR
1070
     0
1070
     1
  0
ATTDEF
  5
12FEC
  8
DEFPOINTS
 10
3654.5255101973721139
 20
134.0212482329224031
 30
0.0
 40
0.001
  1
REVE
  3

  2
TRADENAME
 70
     0
1001
ACDBATTR
1070
     0
1070
     1
  0
ATTDEF
  5
12FED
  8
DEFPOINTS
 10
3654.5255101973721139
 20
134.0195815662557095
 30
0.0
 40
0.001
  1
TOILET
  3

  2
PRODUCT
 70
     0
1001
ACDBATTR
1070
     0
1070
     1
  0
LINE
  5
13888
  8
0
 10
3632.3202530905628009
 20
150.6330278086963972
 30
0.0
 11
3650.7022817070392193
 21
150.6330278086963972
 31
0.0
  0
LINE
  5
13889
  8
0
 10
3632.6352011497820058
 20
150.5149175723963992
 30
0.0
 11
3649.443021953232801
 21
150.5149175723963992
 31
0.0
  0
LINE
  5
1388A
  8
0
 10
3632.6414941893599462
 20
150.3574372574964002
 30
0.0
 11
3654.4068546930629964
 21
150.3574372574964002
 31
0.0
  0
LINE
  5
1388B
  8
0
 10
3636.2142842563621343
 20
138.9401144227963982
 30
0.0
 11
3650.6731122094452076
 21
138.9401144227963982
 31
0.0
  0
LINE
  5
1388C
  8
0
 10
3632.633851003251948
 20
152.4172278144066013
 30
0.0
 11
3650.7462523514109307
 21
152.4172278144066013
 31
0.0
  0
ARC
  5
1388D
  8
0
 10
3650.5718768241858925
 20
152.2029564907012968
 30
0.0
 40
1.575335361138553
 50
274.7483279569930801
 51
279.6273030038494767
  0
ARC
  5
1388E
  8
0
 10
3650.7926443534579448
 20
150.901472481767513
 30
0.0
 40
0.255260011966733
 50
279.6273030038494767
 51
309.3167988515672846
  0
ARC
  5
1388F
  8
0
 10
3650.8672489044170106
 20
150.7899329159207014
 30
0.0
 40
0.1223844283541953
 50
315.3928432659657801
 51
359.688606859148706
  0
ARC
  5
13890
  8
0
 10
3489.4123182734679176
 20
144.7620010244532978
 30
0.0
 40
161.689690772873405
 50
2.136295598158426
 51
2.6225550606088528
  0
ARC
  5
13891
  8
0
 10
3644.3202182506847748
 20
151.91400837591911
 30
0.0
 40
6.61702831566362
 50
2.133206742873353
 51
3.649354307464427
  0
ARC
  5
13892
  8
0
 10
3650.6886765234639824
 20
152.3257528335018947
 30
0.0
 40
0.2353415305860605
 50
2.2965850830997732
 51
41.3124717008472118
  0
ARC
  5
13893
  8
0
 10
3650.6427381713438081
 20
152.200256673253989
 30
0.0
 40
0.358443198704362
 50
51.5873547575498534
 51
87.5872248166189848
  0
ARC
  5
13894
  8
0
 10
3642.5148110719442229
 20
-97.1556822103110562
 30
0.0
 40
249.7684343348553
 50
90.3046015090713041
 51
92.2672403963483418
  0
ARC
  5
13895
  8
0
 10
3652.4567905421290561
 20
1303.2110616643130925
 30
0.0
 40
1150.6161828117319601
 50
269.5518872843824738
 51
269.7863773017925837
  0
ARC
  5
13896
  8
0
 10
3641.0888111442550326
 20
286.9981746228767179
 30
0.0
 40
134.3889879480020966
 50
270.0418508568869242
 51
271.0100811720224101
  0
ARC
  5
13897
  8
0
 10
3644.910671159823778
 20
-99.4445819778765667
 30
0.0
 40
252.0684901309348049
 50
88.6935440805343234
 51
89.2598487139101024
  0
ARC
  5
13898
  8
0
 10
3632.6233733337389822
 20
152.180313570974505
 30
0.0
 40
0.2371458207504923
 50
87.4677111044569529
 51
143.9919079824462926
  0
ARC
  5
13899
  8
0
 10
3632.5934984004088619
 20
152.2020254277487936
 30
0.0
 40
0.2002145824009372
 50
143.9919079824462926
 51
166.2087850536833002
  0
ARC
  5
1389A
  8
0
 10
3632.8199636867398112
 20
152.1464370352607034
 30
0.0
 40
0.4334024793688762
 50
166.2087850536817939
 51
179.6895055519584048
  0
LINE
  5
1389B
  8
0
 10
3632.3865675712631855
 20
152.1487856969964128
 30
0.0
 11
3632.3202530905628009
 21
150.6330278086963972
 31
0.0
  0
LINE
  5
1389C
  8
0
 10
3632.6352011606618362
 20
150.5149178215964128
 30
0.0
 11
3632.640357954061983
 21
150.6330278086963972
 31
0.0
  0
ARC
  5
1389D
  8
0
 10
3632.6469857935671826
 20
150.1880766314002074
 30
0.0
 40
0.1694496367315505
 50
91.8571940023657731
 51
136.7375374502879879
  0
ARC
  5
1389E
  8
0
 10
3632.6466034997069983
 20
150.1884364143240873
 30
0.0
 40
0.168924667830157
 50
136.7375374502879879
 51
177.6127426009105932
  0
LINE
  5
1389F
  8
0
 10
3632.4778254384627871
 20
150.195472709096407
 30
0.0
 11
3632.4776440688619914
 21
150.1233702833964117
 31
0.0
  0
LINE
  5
138A0
  8
0
 10
3632.4776440688619914
 20
150.1233702833964117
 30
0.0
 11
3636.0644643701621135
 21
139.0490683393963991
 31
0.0
  0
ARC
  5
138A1
  8
0
 10
3636.2142906863491589
 20
139.0976070673656011
 30
0.0
 40
0.1574926447004356
 50
197.950594399532406
 51
269.9976607728970066
  0
ARC
  5
138A2
  8
0
 10
3645.8295289691018297
 20
141.583556691112193
 30
0.0
 40
4.7722014685730292
 50
213.6367115492309097
 51
255.6391924994777867
  0
ARC
  5
138A3
  8
0
 10
3646.2485032329568639
 20
145.1658007953232072
 30
0.0
 40
8.3603696828340102
 50
258.9484949897714046
 51
272.302947697296986
  0
ARC
  5
138A4
  8
0
 10
3646.371685091532072
 20
138.9773573110956875
 30
0.0
 40
2.1756024929234101
 50
275.6122501876128013
 51
318.2441759247469122
  0
ARC
  5
138A5
  8
0
 10
3644.7357346385429082
 20
140.4377977085383975
 30
0.0
 40
4.368595889884741
 50
318.2441759247469122
 51
339.9506470512974943
  0
LINE
  5
138A6
  8
0
 10
3654.5249661227630895
 20
150.2393258277963923
 30
0.0
 11
3654.5249661227630895
 21
136.89267875019641
 31
0.0
  0
LINE
  5
138A7
  8
0
 10
3654.5249661227630895
 20
136.89267875019641
 30
0.0
 11
3654.4070496789749996
 21
136.7747600921400135
 31
0.0
  0
LINE
  5
138A8
  8
0
 10
3654.4070496789749996
 20
136.7747600921400135
 30
0.0
 11
3653.7878659616631012
 21
136.7747600921400135
 31
0.0
  0
ARC
  5
138A9
  8
0
 10
3653.7878333426801873
 20
136.8535012157684037
 30
0.0
 40
0.0787411303846924
 50
204.8721906163123947
 51
270.0237351191431117
  0
ARC
  5
138AA
  8
0
 10
3610.6734419058420826
 20
116.865931954852897
 30
0.0
 40
47.4433976464918317
 50
24.8721517156084211
 51
24.9079471847155212
  0
ARC
  5
138AB
  8
0
 10
3653.6324694713589452
 20
136.814091597680914
 30
0.0
 40
0.0787787573827579
 50
24.9079471847169991
 51
89.9530335850702301
  0
LINE
  5
138AC
  8
0
 10
3653.6325340477619648
 20
136.8928703285963877
 30
0.0
 11
3652.4523006790841464
 21
136.8928703285963877
 31
0.0
  0
ARC
  5
138AD
  8
0
 10
3652.4522995031989012
 20
136.8141306708945137
 30
0.0
 40
0.0787381129970907
 50
89.9994328314810446
 51
155.102461634308014
  0
ARC
  5
138AE
  8
0
 10
3825.4926210088269727
 20
56.5005238467231976
 30
0.0
 40
190.8488309155081026
 50
155.102461634308014
 51
155.1113725830118995
  0
ARC
  5
138AF
  8
0
 10
3652.2969689948640735
 20
136.8534880294311051
 30
0.0
 40
0.0787279372911601
 50
269.9999970964713043
 51
335.111373664098096
  0
LINE
  5
138B0
  8
0
 10
3652.2969689908741202
 20
136.7747600921400135
 30
0.0
 11
3651.5598337974620335
 21
136.7747600921400135
 31
0.0
  0
ARC
  5
138B1
  8
0
 10
3651.5953265318607919
 20
136.9802044717590093
 30
0.0
 40
0.2084877150150747
 50
206.8013608567275128
 51
260.198286286855307
  0
LINE
  5
138B2
  8
0
 10
3651.4092355868619961
 20
136.886197623596388
 30
0.0
 11
3650.8153542200011543
 21
138.828696043099086
 31
0.0
  0
ARC
  5
138B3
  8
0
 10
3650.6642116884031566
 20
138.7822459787377909
 30
0.0
 40
0.1581191478104601
 50
17.0763110591210001
 51
89.7978383629273651
  0
LINE
  5
138B4
  8
0
 10
3652.2969689908741202
 20
136.7747600921400135
 30
0.0
 11
3651.9215640253628408
 21
138.0728601838964096
 31
0.0
  0
ARC
  5
138B5
  8
0
 10
3652.0475025294808802
 20
138.1092810577854095
 30
0.0
 40
0.1310991490227898
 50
129.9049024354933124
 51
196.1296418228837979
  0
ARC
  5
138B6
  8
0
 10
3652.212451222917025
 20
137.9120389318472917
 30
0.0
 40
0.3882227140856361
 50
91.3311177362211168
 51
129.9049024354933124
  0
LINE
  5
138B7
  8
0
 10
3652.2034326938260165
 20
138.3001568802407064
 30
0.0
 11
3653.5013428924421532
 21
138.3001711049001869
 31
0.0
  0
ARC
  5
138B8
  8
0
 10
3653.5042841148720072
 20
137.9251347774813041
 30
0.0
 40
0.3750336363922844
 50
62.5323797956299217
 51
90.4493509305370367
  0
ARC
  5
138B9
  8
0
 10
3653.6028575392788298
 20
138.0875520937404133
 30
0.0
 40
0.1858825686214618
 50
5.6274918410866004
 51
66.402722517571334
  0
LINE
  5
138BA
  8
0
 10
3653.7878442399628511
 20
138.1057798167963995
 30
0.0
 11
3653.7878659616631012
 21
136.7747600921400135
 31
0.0
  0
LINE
  5
138BB
  8
0
 10
3652.4523002826240372
 20
136.8928687838877067
 30
0.0
 11
3652.0750441962632067
 21
138.1849068863963907
 31
0.0
  0
ARC
  5
138BC
  8
0
 10
3652.1577949441661985
 20
138.2090688853629956
 30
0.0
 40
0.0862060814133541
 50
100.3313257687700997
 51
196.2770264100574025
  0
ARC
  5
138BD
  8
0
 10
3653.5305420452828002
 20
138.2015484159842913
 30
0.0
 40
0.1019522008670031
 50
1.4802615464390441
 51
64.4573557898874014
  0
LINE
  5
138BE
  8
0
 10
3653.6324602230329219
 20
138.2041821027187041
 30
0.0
 11
3653.6324602230329219
 21
136.8928703285963877
 31
0.0
  0
LINE
  5
138BF
  8
0
 10
3654.5249661227630895
 20
138.8939286186964068
 30
0.0
 11
3650.7761431533099312
 21
138.8939286186964068
 31
0.0
  0
LINE
  5
138C0
  8
0
 10
3654.5249661227630895
 20
150.2393258277963923
 30
0.0
 11
3654.4068546930629964
 21
150.3574372574964002
 31
0.0
  0
ARC
  5
138C1
  8
0
 10
3649.4405259712439147
 20
150.6337864599300076
 30
0.0
 40
0.1188950896780874
 50
268.7970929620937
 51
319.3868057650577157
  0
ARC
  5
138C2
  8
0
 10
3649.3852392027251881
 20
150.6811950405592029
 30
0.0
 40
0.1917250305710575
 50
319.3868057650577157
 51
345.4496437541815226
  0
LINE
  5
138C3
  8
0
 10
3650.0208764980620799
 20
150.6330278086963972
 30
0.0
 11
3650.0269334332620019
 21
150.5542876511964039
 31
0.0
  0
LINE
  5
138C4
  8
0
 10
3650.0269334332620019
 20
150.5542876511964039
 30
0.0
 11
3650.7520347060622044
 21
150.5542876511964039
 31
0.0
  0
LINE
  5
138C5
  8
0
 10
3650.7520347060622044
 20
150.5542876511964039
 30
0.0
 11
3651.0308704411618237
 21
150.4581373976963903
 31
0.0
  0
LINE
  5
138C6
  8
0
 10
3651.0308704411618237
 20
150.4581373976963903
 30
0.0
 11
3651.0308704411618237
 21
150.4164923755963912
 31
0.0
  0
LINE
  5
138C7
  8
0
 10
3651.0308704411618237
 20
150.4164923755963912
 30
0.0
 11
3649.7513428820620902
 21
150.4164923755963912
 31
0.0
  0
LINE
  5
138C8
  8
0
 10
3649.7513428820620902
 20
150.4164923755963912
 30
0.0
 11
3649.7513428820620902
 21
150.4581373976963903
 31
0.0
  0
LINE
  5
138C9
  8
0
 10
3649.7513428820620902
 20
150.4581373976963903
 30
0.0
 11
3650.0301786171630738
 21
150.5542876511964039
 31
0.0
  0
LINE
  5
138CA
  8
0
 10
3650.7022817070392193
 20
150.6330278086963972
 30
0.0
 11
3650.6962247718620347
 21
150.5542876511964039
 31
0.0
  0
LINE
  5
138CB
  8
0
 10
3651.0308704411618237
 20
150.4581373976963903
 30
0.0
 11
3649.7513428820620902
 21
150.4581373976963903
 31
0.0
  0
ARC
  5
138CC
  8
0
 10
3649.7907129613049619
 20
150.3884232423708056
 30
0.0
 40
0.0393700792422906
 50
134.5240666399255929
 51
179.999999526121087
  0
LINE
  5
138CD
  8
0
 10
3649.7513428820620902
 20
150.3884232426964047
 30
0.0
 11
3649.7513428818060675
 21
150.3574372574964002
 31
0.0
  0
LINE
  5
138CE
  8
0
 10
3651.0308704411618237
 20
150.3574372574964002
 30
0.0
 11
3651.0308704411618237
 21
150.3884232426964047
 31
0.0
  0
ARC
  5
138CF
  8
0
 10
3650.9915003626970247
 20
150.3884232426964047
 30
0.0
 40
0.0393700784653177
 50
0.0000000000048853
 51
45.4759338339539525
  0
ARC
  5
138D0
  8
0
 10
3650.6800672439339905
 20
152.1255778000711132
 30
0.0
 40
0.2990655435078166
 50
34.4587035818048122
 51
77.2142264868651722
  0
LINE
  5
138D1
  8
0
 10
3634.9752786716621813
 20
150.5149175723963992
 30
0.0
 11
3634.9821544106957845
 21
150.3574372574964002
 31
0.0
  0
ARC
  5
138D2
  8
0
 10
3636.7312683221530278
 20
151.0255600599589059
 30
0.0
 40
0.668885564235301
 50
229.7668803196347938
 51
267.2634873658853962
  0
ARC
  5
138D3
  8
0
 10
3636.7108119173899468
 20
151.0716888776453004
 30
0.0
 40
0.7176014357967109
 50
275.5382878234411805
 51
309.1152794495919807
  0
ARC
  5
138D4
  8
0
 10
3644.2169094481491811
 20
151.1397099724063935
 30
0.0
 40
0.703699907691993
 50
242.6065107400874865
 51
297.3934892599124282
  0
LINE
  5
138D5
  8
0
 10
3643.9109298851521999
 20
150.506014408973698
 30
0.0
 11
3643.787679141712033
 21
150.5149175723963992
 31
0.0
  0
LINE
  5
138D6
  8
0
 10
3644.4138853130220923
 20
150.464140532050294
 30
0.0
 11
3646.0911405455899512
 21
150.3574372574964002
 31
0.0
  0
LINE
  5
138D7
  8
0
 10
3646.5063054665620257
 20
150.5149418642963894
 30
0.0
 11
3646.4944200506620291
 21
150.357439061196402
 31
0.0
  0
ENDSEC
  0
EOF
