  0
SECTION
  2
HEADER
  9
$ACADVER
  1
AC1009
  9
$INSBASE
 10
531.5481660202184457
 20
79.3389327156238693
 30
0.0
  9
$EXTMIN
 10
522.1146396975957487
 20
58.9473177116273277
 30
-0.0000000349181948
  9
$EXTMAX
 10
546.8568379953489966
 20
81.5442248464470651
 30
0.0000000814935746
  9
$LIMMIN
 10
0.0
 20
0.0
  9
$LIMMAX
 10
11.6929133858000007
 20
8.2677165353999982
  9
$ORTHOMODE
 70
     0
  9
$REGENMODE
 70
     1
  9
$FILLMODE
 70
     1
  9
$QTEXTMODE
 70
     0
  9
$MIRRTEXT
 70
     0
  9
$DRAGMODE
 70
     2
  9
$LTSCALE
 40
0.6431102362
  9
$OSMODE
 70
  4095
  9
$ATTMODE
 70
     1
  9
$TEXTSIZE
 40
0.2
  9
$TRACEWID
 40
0.05
  9
$TEXTSTYLE
  7
STANDARD
  9
$CLAYER
  8
0
  9
$CELTYPE
  6
BYLAYER
  9
$CECOLOR
 62
   256
  9
$DIMSCALE
 40
1.0
  9
$DIMASZ
 40
0.1875
  9
$DIMEXO
 40
0.0625
  9
$DIMDLI
 40
0.4443307087
  9
$DIMRND
 40
0.0
  9
$DIMDLE
 40
0.0
  9
$DIMEXE
 40
0.125
  9
$DIMTP
 40
0.01
  9
$DIMTM
 40
0.01
  9
$DIMTXT
 40
1.0
  9
$DIMCEN
 40
0.1052362205
  9
$DIMTSZ
 40
0.0
  9
$DIMTOL
 70
     1
  9
$DIMLIM
 70
     0
  9
$DIMTIH
 70
     0
  9
$DIMTOH
 70
     1
  9
$DIMSE1
 70
     0
  9
$DIMSE2
 70
     0
  9
$DIMTAD
 70
     0
  9
$DIMZIN
 70
     0
  9
$DIMBLK
  1

  9
$DIMASO
 70
     1
  9
$DIMSHO
 70
     1
  9
$DIMPOST
  1
\X
  9
$DIMAPOST
  1

  9
$DIMALT
 70
     1
  9
$DIMALTD
 70
     2
  9
$DIMALTF
 40
25.3999999999999986
  9
$DIMLFAC
 40
1.0
  9
$DIMTOFL
 70
     0
  9
$DIMTVP
 40
0.0
  9
$DIMTIX
 70
     0
  9
$DIMSOXD
 70
     0
  9
$DIMSAH
 70
     0
  9
$DIMBLK1
  1

  9
$DIMBLK2
  1

  9
$DIMSTYLE
  2
STANDARD
  9
$DIMCLRD
 70
     0
  9
$DIMCLRE
 70
     0
  9
$DIMCLRT
 70
     0
  9
$DIMTFAC
 40
1.0
  9
$DIMGAP
 40
0.09
  9
$LUNITS
 70
     2
  9
$LUPREC
 70
     4
  9
$SKETCHINC
 40
0.1
  9
$FILLETRAD
 40
0.0
  9
$AUNITS
 70
     0
  9
$AUPREC
 70
     0
  9
$MENU
  1
.
  9
$ELEVATION
 40
0.0
  9
$PELEVATION
 40
0.0
  9
$THICKNESS
 40
0.0
  9
$LIMCHECK
 70
     0
  9
$BLIPMODE
 70
     0
  9
$CHAMFERA
 40
0.0
  9
$CHAMFERB
 40
0.0
  9
$SKPOLY
 70
     0
  9
$TDCREATE
 40
2458172.5207638889551163
  9
$TDUPDATE
 40
2459235.4297569449990988
  9
$TDINDWG
 40
0.3396534954
  9
$TDUSRTIMER
 40
0.3396534954
  9
$USRTIMER
 70
     1
  9
$ANGBASE
 50
0.0
  9
$ANGDIR
 70
     0
  9
$PDMODE
 70
     0
  9
$PDSIZE
 40
0.3125
  9
$PLINEWID
 40
0.0
  9
$COORDS
 70
     1
  9
$SPLFRAME
 70
     0
  9
$SPLINETYPE
 70
     6
  9
$SPLINESEGS
 70
     8
  9
$ATTDIA
 70
     1
  9
$ATTREQ
 70
     1
  9
$HANDLING
 70
     1
  9
$HANDSEED
  5
9660
  9
$SURFTAB1
 70
     6
  9
$SURFTAB2
 70
     6
  9
$SURFTYPE
 70
     6
  9
$SURFU
 70
     6
  9
$SURFV
 70
     6
  9
$UCSNAME
  2

  9
$UCSORG
 10
0.0
 20
0.0
 30
0.0
  9
$UCSXDIR
 10
1.0
 20
0.0
 30
0.0
  9
$UCSYDIR
 10
0.0
 20
1.0
 30
0.0
  9
$PUCSNAME
  2

  9
$PUCSORG
 10
0.0
 20
0.0
 30
0.0
  9
$PUCSXDIR
 10
1.0
 20
0.0
 30
0.0
  9
$PUCSYDIR
 10
0.0
 20
1.0
 30
0.0
  9
$USERI1
 70
     0
  9
$USERI2
 70
     0
  9
$USERI3
 70
     0
  9
$USERI4
 70
     0
  9
$USERI5
 70
     0
  9
$USERR1
 40
0.0
  9
$USERR2
 40
0.0
  9
$USERR3
 40
0.0
  9
$USERR4
 40
0.0
  9
$USERR5
 40
0.0
  9
$WORLDVIEW
 70
     1
  9
$SHADEDGE
 70
     3
  9
$SHADEDIF
 70
    70
  9
$TILEMODE
 70
     1
  9
$MAXACTVP
 70
    64
  9
$PLIMCHECK
 70
     0
  9
$PEXTMIN
 10
1.0000000000000000E+20
 20
1.0000000000000000E+20
 30
1.0000000000000000E+20
  9
$PEXTMAX
 10
-1.0000000000000000E+20
 20
-1.0000000000000000E+20
 30
-1.0000000000000000E+20
  9
$PLIMMIN
 10
0.0
 20
0.0
  9
$PLIMMAX
 10
12.0
 20
9.0
  9
$UNITMODE
 70
     0
  9
$VISRETAIN
 70
     1
  9
$PLINEGEN
 70
     0
  9
$PSLTSCALE
 70
     1
  0
ENDSEC
  0
SECTION
  2
TABLES
  0
TABLE
  2
VPORT
 70
     1
  0
VPORT
  2
*ACTIVE
 70
     0
 10
0.0
 20
0.0
 11
1.0
 21
1.0
 12
67.74353713864231
 22
-18.8873758408925916
 13
0.0
 23
0.0
 14
1.0
 24
1.0
 15
0.0
 25
0.0
 16
0.0
 26
0.0
 36
24.1179433675886514
 17
466.74220170783002
 27
89.133147119929788
 37
0.0
 40
22.9002213245488484
 41
2.8789237668161429
 42
50.0
 43
0.0
 44
0.0
 50
0.0
 51
0.0
 71
     0
 72
   100
 73
     1
 74
     1
 75
     0
 76
     0
 77
     0
 78
     0
  0
ENDTAB
  0
TABLE
  2
LTYPE
 70
     2
  0
LTYPE
  2
CONTINUOUS
 70
     0
  3
Solid line
 72
    65
 73
     0
 40
0.0
  0
LTYPE
  2
PHANTOM2
 70
     0
  3
___ _ _ ___ _ _ ___ _ _ ___ _ _
 72
    65
 73
     6
 40
1.25
 49
0.625
 49
-0.125
 49
0.125
 49
-0.125
 49
0.125
 49
-0.125
  0
ENDTAB
  0
TABLE
  2
LAYER
 70
     2
  0
LAYER
  2
0
 70
     0
 62
   255
  6
CONTINUOUS
  0
LAYER
  2
DEFPOINTS
 70
     0
 62
     7
  6
CONTINUOUS
  0
ENDTAB
  0
TABLE
  2
STYLE
 70
     1
  0
STYLE
  2
STANDARD
 70
     0
 40
0.0
 41
0.8
 50
0.0
 71
     0
 42
0.2
  3
txt
  4

  0
ENDTAB
  0
TABLE
  2
VIEW
 70
     0
  0
ENDTAB
  0
TABLE
  2
UCS
 70
     0
  0
ENDTAB
  0
TABLE
  2
APPID
 70
    11
  0
APPID
  2
ACAD
 70
     0
  0
APPID
  2
ACAD_MLEADERVER
 70
     0
  0
APPID
  2
ACAD_EXEMPT_FROM_CAD_STANDARDS
 70
     0
  0
APPID
  2
ACAD_DSTYLE_DIMJAG
 70
     0
  0
APPID
  2
ACAD_DSTYLE_DIMTALN
 70
     0
  0
APPID
  2
ACAD_NAV_VCDISPLAY
 70
     0
  0
APPID
  2
ACAECLAYERSTANDARD
 70
     0
  0
APPID
  2
ACCMTRANSPARENCY
 70
     0
  0
APPID
  2
DCO15
 70
     0
  0
APPID
  2
ACDBATTR
 70
     0
  0
APPID
  2
ACADANNOTATIVE
 70
     0
  0
ENDTAB
  0
TABLE
  2
DIMSTYLE
 70
     1
  0
DIMSTYLE
  2
STANDARD
 70
     0
  3

  4

  5

  6

  7

 40
1.0
 41
0.1875
 42
0.0625
 43
0.38
 44
0.125
 45
0.0
 46
0.0
 47
0.01
 48
0.01
140
0.15625
141
0.09
142
0.0
143
25.3999999999999986
144
1.0
145
0.0
146
1.0
147
0.09
 71
     1
 72
     0
 73
     1
 74
     1
 75
     0
 76
     0
 77
     0
 78
     4
170
     0
171
     2
172
     0
173
     0
174
     0
175
     0
176
     0
177
     0
178
     0
  0
ENDTAB
  0
ENDSEC
  0
SECTION
  2
BLOCKS
  0
BLOCK
  8
0
  2
$MODEL_SPACE
 70
     0
 10
0.0
 20
0.0
 30
0.0
  3
$MODEL_SPACE
  1

  0
ENDBLK
  5
21
  8
0
  0
BLOCK
 67
     1
  8
0
  2
$PAPER_SPACE
 70
     0
 10
0.0
 20
0.0
 30
0.0
  3
$PAPER_SPACE
  1

  0
ENDBLK
  5
1D
 67
     1
  8
0
  0
ENDSEC
  0
SECTION
  2
ENTITIES
  0
ATTDEF
  5
829
  8
DEFPOINTS
 10
531.5444102341922417
 20
79.3363552565303678
 30
0.0
 40
0.001
  1
K-4108BR
  3

  2
MODELNUMBER
 70
     0
1001
ACDBATTR
1070
     0
1070
     1
  0
ATTDEF
  5
82A
  8
DEFPOINTS
 10
531.5444102341922417
 20
79.3346885898637026
 30
0.0
 40
0.001
  1
BIDET
  3

  2
TRADENAME
 70
     0
1001
ACDBATTR
1070
     0
1070
     1
  0
ATTDEF
  5
82B
  8
DEFPOINTS
 10
531.5444102341922417
 20
79.3330219231970375
 30
0.0
 40
0.001
  1
TOILET SEAT
  3

  2
PRODUCT
 70
     0
1001
ACDBATTR
1070
     0
1070
     1
  0
ARC
  5
93B1
  8
0
 10
531.6183531792996746
 20
62.5401257403451822
 30
0.0
 40
16.4162940799377992
 50
86.2551714553383135
 51
90.2449663866582767
  0
ARC
  5
93B2
  8
0
 10
532.3154915800340632
 20
71.2077766083775003
 30
0.0
 40
7.7227044486624212
 50
64.9742800917514671
 51
87.2162841546938665
  0
ARC
  5
93B3
  8
0
 10
532.9617077152047386
 20
72.8895299371688026
 30
0.0
 40
5.926808743640481
 50
21.1498727851825485
 51
63.7573198087249722
  0
ARC
  5
93B4
  8
0
 10
531.9474489078120314
 20
72.1229442600350268
 30
0.0
 40
7.157850746621917
 50
0.3008934129834391
 51
23.9445474721986891
  0
ARC
  5
93B5
  8
0
 10
512.2871472806687052
 20
73.5484989231287187
 30
0.0
 40
26.8539466181433291
 50
345.1185775675709806
 51
357.0373079125271829
  0
ARC
  5
93B6
  8
0
 10
521.3284274712982551
 20
71.0705821576721632
 30
0.0
 40
17.4796909009298282
 50
328.9801593469027239
 51
345.3573020626166112
  0
ARC
  5
93B7
  8
0
 10
530.2908207314753781
 20
65.564638978226796
 30
0.0
 40
6.962331591768705
 50
298.3479806085846917
 51
329.8022913089109807
  0
ARC
  5
93B8
  8
0
 10
531.7318636063378108
 20
63.3595203502795101
 30
0.0
 40
4.3430430626073546
 50
274.7292431275678268
 51
295.428701598000373
  0
ARC
  5
93B9
  8
0
 10
531.6217786556062492
 20
65.7840322759440284
 30
0.0
 40
6.7689775694932788
 50
269.3768960788613072
 51
273.965861249072816
  0
ARC
  5
93BA
  8
0
 10
531.8752718669234127
 20
69.1847733900718964
 30
0.0
 40
10.1175925243807594
 50
74.5875497073494671
 51
90.4834982519806204
  0
ARC
  5
93BB
  8
0
 10
532.8152419759499026
 20
72.9715924711062769
 30
0.0
 40
6.2232274540714156
 50
67.069965952638583
 51
69.0897751139337259
  0
ARC
  5
93BC
  8
0
 10
533.1292889532935533
 20
73.7335926607754857
 30
0.0
 40
5.3990847506844402
 50
71.2720520381191847
 51
73.28633497759796
  0
ARC
  5
93BD
  8
0
 10
534.6587416396279195
 20
76.3202606129685677
 30
0.0
 40
2.4526444843703099
 50
41.1367210745425709
 51
77.0211755049222546
  0
ARC
  5
93BE
  8
0
 10
532.5394878048998635
 20
72.4630906273898319
 30
0.0
 40
6.8102645723526081
 50
48.8439280498102519
 51
56.405241566678292
  0
ARC
  5
93BF
  8
0
 10
532.8955097731151227
 20
72.9762551864308904
 30
0.0
 40
6.1899824190436661
 50
24.1685252729040698
 51
30.353662784154821
  0
ARC
  5
93C0
  8
0
 10
532.8955097731151227
 20
72.9762551864308904
 30
0.0
 40
6.1899824190436661
 50
41.5519950236092797
 51
48.1990897418040305
  0
ARC
  5
93C1
  8
0
 10
532.1241578353475461
 20
72.4203863783354933
 30
0.0
 40
7.1238764485005079
 50
357.5063733909054235
 51
25.70758260908514
  0
ARC
  5
93C2
  8
0
 10
508.8112566061498114
 20
74.4135098933340231
 30
0.0
 40
30.5171173678424417
 50
346.3773751929842888
 51
355.2818527002572182
  0
ARC
  5
93C3
  8
0
 10
520.8366767112099751
 20
71.3903636524238721
 30
0.0
 40
18.1182751851485797
 50
327.8014764907982794
 51
346.7119549987625078
  0
ARC
  5
93C4
  8
0
 10
530.1319789858835065
 20
65.6458554641189238
 30
0.0
 40
7.1921278743931483
 50
303.2723455194484927
 51
327.0685351691345772
  0
ARC
  5
93C5
  8
0
 10
531.8189434926135846
 20
63.0961851432710503
 30
0.0
 40
4.134934242543272
 50
276.1014513302910132
 51
303.1112526731562866
  0
ARC
  5
93C6
  8
0
 10
531.3353350612014765
 20
70.1703013102742545
 30
0.0
 40
11.2236527027955795
 50
271.086548823049327
 51
274.7177134049161964
  0
ARC
  5
93C7
  8
0
 10
532.9393407101347293
 20
25.1646856268901189
 30
0.0
 40
53.8228501225677576
 50
89.7460457219770973
 51
91.4811054428460437
  0
ARC
  5
93C8
  8
0
 10
533.1707256948059239
 20
65.1755927907418737
 30
0.0
 40
13.8114161317370794
 50
84.4731994619598225
 51
89.9702336646925005
  0
LINE
  5
93C9
  8
0
 10
534.5638459785434407
 20
79.1647881868505578
 30
0.0
 11
534.5639572315781152
 21
78.5959134652052711
 31
0.0
  0
LINE
  5
93CA
  8
0
 10
534.681958658129588
 20
79.1488317120271034
 30
0.0
 11
534.6820546462398624
 21
78.6544326148918174
 31
0.0
  0
LINE
  5
93CB
  8
0
 10
534.681958658129588
 20
79.1488317120271034
 30
0.0
 11
534.5638459785434407
 21
79.1647881868505578
 31
0.0
  0
LINE
  5
93CC
  8
0
 10
534.6820546462398624
 20
78.6544326148918174
 30
0.0
 11
534.5639572315781152
 21
78.5959134652052711
 31
0.0
  0
LINE
  5
93CD
  8
0
 10
535.0363326879236183
 20
78.8468247518344612
 30
0.0
 11
534.682017296469553
 21
78.846807406240444
 31
0.0
  0
LINE
  5
93CE
  8
0
 10
535.036358485268579
 20
78.6585607345238458
 30
0.0
 11
534.6820538481285894
 21
78.6585433894044428
 31
0.0
  0
LINE
  5
93CF
  8
0
 10
535.0363326879236183
 20
78.8468247518344612
 30
0.0
 11
535.036358485268579
 21
78.65856073452386
 31
0.0
  0
LINE
  5
93D0
  8
0
 10
534.5009217751686492
 20
78.9557324550121251
 30
0.0
 11
534.5009217751686492
 21
78.6148042756395
 31
0.0
  0
LINE
  5
93D1
  8
0
 10
534.5206080699063023
 20
78.8777099215564732
 30
0.0
 11
534.5206077039199499
 21
78.6089675180601404
 31
0.0
  0
LINE
  5
93D2
  8
0
 10
534.5206080699063023
 20
78.8777099215564732
 30
0.0
 11
534.5639046307450144
 21
78.8648794705987797
 31
0.0
  0
LINE
  5
93D3
  8
0
 10
534.5009217751686492
 20
78.9003765753694495
 30
0.0
 11
534.5639013369542454
 21
78.8817217454826363
 31
0.0
  0
LINE
  5
93D4
  8
0
 10
534.6820389855163285
 20
78.7350951841861928
 30
0.0
 11
535.0363479955684625
 21
78.7351125294238727
 31
0.0
  0
LINE
  5
93D5
  8
0
 10
534.7804230458349366
 20
78.7849505947740454
 30
0.0
 11
535.0363411646670784
 21
78.7849631232312362
 31
0.0
  0
LINE
  5
93D6
  8
0
 10
534.7804175683941139
 20
78.8341631930238407
 30
0.0
 11
534.7804285942855813
 21
78.7351000008606263
 31
0.0
  0
LINE
  5
93D7
  8
0
 10
534.7804175683941139
 20
78.8341631930238407
 30
0.0
 11
534.682019752292149
 21
78.8341583759642646
 31
0.0
  0
LINE
  5
93D8
  8
0
 10
535.2095833430686298
 20
78.6573681353192597
 30
0.0
 11
535.0363486129383546
 21
78.7306070849943893
 31
0.0
  0
LINE
  5
93D9
  8
0
 10
535.2095833430686298
 20
78.7102477226540458
 30
0.0
 11
535.2095833430686298
 21
78.6573681353192597
 31
0.0
  0
ARC
  5
93DA
  8
0
 10
532.9071886915137384
 20
73.0930706688482843
 30
0.0
 40
6.0318444768405213
 50
30.7424645556950402
 51
53.3715198550308969
  0
ARC
  5
93DB
  8
0
 10
531.3154467603678768
 20
72.3347676011617153
 30
0.0
 40
7.7892173884152642
 50
359.3684973635220103
 51
29.551292231314541
  0
ARC
  5
93DC
  8
0
 10
533.4275886338660939
 20
73.3782089627814571
 30
0.0
 40
5.5338013466986391
 50
42.0586327481214681
 51
44.523413754833399
  0
LINE
  5
93DD
  8
0
 10
537.5971676769029273
 20
77.1073657643793808
 30
0.0
 11
537.4901932211355415
 21
77.068346942818124
 31
0.0
  0
LINE
  5
93DE
  8
0
 10
538.298819152259739
 20
76.1268516140312812
 30
0.0
 11
538.1682943850704532
 21
76.0791975241020992
 31
0.0
  0
ARC
  5
93DF
  8
0
 10
533.8797426139840354
 20
73.7058868824143474
 30
0.0
 40
5.0387803765267591
 50
28.7158685882567006
 51
42.4588066546256968
  0
ARC
  5
93E0
  8
0
 10
533.7039627579622447
 20
73.7457284360929606
 30
0.0
 40
5.0373936575866232
 50
27.5956950826502201
 51
41.2686722505072368
  0
LINE
  5
93E1
  8
0
 10
537.4124654190809451
 20
77.2979900183944153
 30
0.0
 11
537.3729895838723678
 21
77.2585141941277271
 31
0.0
  0
LINE
  5
93E2
  8
0
 10
537.0705948858684451
 20
77.6398605517238565
 30
0.0
 11
537.4124654190809451
 21
77.2979900183944153
 31
0.0
  0
LINE
  5
93E3
  8
0
 10
537.0705948858684451
 20
77.6398605517238565
 30
0.0
 11
537.0214073554685683
 21
77.5906729707238583
 31
0.0
  0
LINE
  5
93E4
  8
0
 10
537.3729895838723678
 20
77.2585141941277271
 30
0.0
 11
537.3496984076933813
 21
77.2746369698074034
 31
0.0
  0
ARC
  5
93E5
  8
0
 10
533.7386301710964744
 20
73.7665597028777569
 30
0.0
 40
5.0559161960572983
 50
27.4801558941695987
 51
41.0937356964834706
  0
ARC
  5
93E6
  8
0
 10
529.5334697579930889
 20
71.6909553995677129
 30
0.0
 40
9.7109024044521064
 50
14.2668599884159608
 51
26.4854542994496995
  0
LINE
  5
93E7
  8
0
 10
538.2251897379217098
 20
76.021732385202597
 30
0.0
 11
538.2743287467194477
 21
76.0396175217190802
 31
0.0
  0
LINE
  5
93E8
  8
0
 10
539.0424158807045387
 20
74.1195983343180984
 30
0.0
 11
538.9448727260700025
 21
74.084095529453208
 31
0.0
  0
ARC
  5
93E9
  8
0
 10
531.7960349033760394
 20
68.8277316212860484
 30
0.0
 40
10.4540702608664002
 50
75.0046845073199222
 51
91.3586260201312257
  0
LINE
  5
93EA
  8
0
 10
531.7898941926650878
 20
79.2818000786285495
 30
0.0
 11
531.7898942004685523
 21
79.3389327156238693
 31
0.0
  0
LINE
  5
93EB
  8
0
 10
531.7898942004685523
 20
79.3389327156238693
 30
0.0
 11
531.3064378399684529
 21
79.3389327156238693
 31
0.0
  0
ARC
  5
93EC
  8
0
 10
531.4779788611374443
 20
62.5401257403451822
 30
0.0
 40
16.4162940799377992
 50
89.755033613341709
 51
93.7448285446616723
  0
ARC
  5
93ED
  8
0
 10
530.7808404604030557
 20
71.2077766083775003
 30
0.0
 40
7.7227044486624212
 50
92.7837158452996249
 51
115.0257199082485045
  0
ARC
  5
93EE
  8
0
 10
530.1346243252326076
 20
72.8895299371688026
 30
0.0
 40
5.926808743640481
 50
116.2426801912749994
 51
158.8501272148174053
  0
ARC
  5
93EF
  8
0
 10
531.1488831326250875
 20
72.1229442600350268
 30
0.0
 40
7.157850746621917
 50
156.0554525278012932
 51
179.6991065870165869
  0
ARC
  5
93F0
  8
0
 10
550.8091847597685273
 20
73.5484989231287187
 30
0.0
 40
26.8539466181433291
 50
182.9626920874727887
 51
194.8814224324289057
  0
ARC
  5
93F1
  8
0
 10
541.7679045691388637
 20
71.0705821576721632
 30
0.0
 40
17.4796909009298282
 50
194.6426979373833888
 51
211.0198406530971909
  0
ARC
  5
93F2
  8
0
 10
532.8055113089618544
 20
65.564638978226796
 30
0.0
 40
6.962331591768705
 50
210.1977086910889909
 51
241.6520193914151946
  0
ARC
  5
93F3
  8
0
 10
531.3644684340995354
 20
63.3595203502795101
 30
0.0
 40
4.3430430626073546
 50
244.5712984019995986
 51
265.270756872425693
  0
ARC
  5
93F4
  8
0
 10
531.4745533848307559
 20
65.7840322759440284
 30
0.0
 40
6.7689775694932788
 50
266.034138750927184
 51
270.6231039211388065
  0
ARC
  5
93F5
  8
0
 10
531.2210601735138198
 20
69.1847733900718964
 30
0.0
 40
10.1175925243807594
 50
89.5165017480259166
 51
105.4124502926505045
  0
ARC
  5
93F6
  8
0
 10
528.437590400809313
 20
76.3202606129685677
 30
0.0
 40
2.4526444843703099
 50
102.9788244950777027
 51
138.8632789254577062
  0
ARC
  5
93F7
  8
0
 10
530.5568442355372554
 20
72.4630906273898319
 30
0.0
 40
6.8102645723526081
 50
123.5947584333217009
 51
131.1560719501896983
  0
ARC
  5
93F8
  8
0
 10
530.2008222673221098
 20
72.9762551864308904
 30
0.0
 40
6.1899824190436661
 50
131.8009102581958985
 51
136.0198298092572884
  0
ARC
  5
93F9
  8
0
 10
530.9721742050895728
 20
72.4203863783354933
 30
0.0
 40
7.1238764485005079
 50
154.2924173909148067
 51
165.3060075676775114
  0
ARC
  5
93FA
  8
0
 10
542.2596553292271437
 20
71.3903636524238721
 30
0.0
 40
18.1182751851485797
 50
201.4994019594300028
 51
212.1985235092016921
  0
ARC
  5
93FB
  8
0
 10
532.9643530545538397
 20
65.6458554641189238
 30
0.0
 40
7.1921278743931483
 50
212.9314648308653943
 51
236.7276544805513936
  0
ARC
  5
93FC
  8
0
 10
531.277388547823648
 20
63.0961851432710503
 30
0.0
 40
4.134934242543272
 50
236.8887473268437134
 51
263.8985486697089868
  0
ARC
  5
93FD
  8
0
 10
530.1569913303025032
 20
25.1646856268901189
 30
0.0
 40
53.8228501225677576
 50
88.5188945571539705
 51
90.2539542780229027
  0
ARC
  5
93FE
  8
0
 10
529.9256063456314223
 20
65.1755927907418737
 30
0.0
 40
13.8114161317370794
 50
90.0297663353074853
 51
95.5268005380336831
  0
LINE
  5
93FF
  8
0
 10
528.5954102652684696
 20
78.9557324550121251
 30
0.0
 11
528.5954102652684696
 21
78.6148042756395
 31
0.0
  0
LINE
  5
9400
  8
0
 10
528.575723970531044
 20
78.8777099215564732
 30
0.0
 11
528.5757243365170552
 21
78.6089675180601404
 31
0.0
  0
LINE
  5
9401
  8
0
 10
528.575723970531044
 20
78.8777099215564732
 30
0.0
 11
528.1642234315686437
 21
78.747890781923843
 31
0.0
  0
ARC
  5
9402
  8
0
 10
530.1891433489234942
 20
73.0930706688482843
 30
0.0
 40
6.0318444768405213
 50
126.6284801449691031
 51
149.257535444305006
  0
ARC
  5
9403
  8
0
 10
531.7808852800693558
 20
72.3347676011617153
 30
0.0
 40
7.7892173884152642
 50
150.4487077686854093
 51
180.6315026364779897
  0
ARC
  5
9404
  8
0
 10
529.6687434065709112
 20
73.3782089627814571
 30
0.0
 40
5.5338013466986391
 50
135.476586245166601
 51
137.9413672518784892
  0
LINE
  5
9405
  8
0
 10
525.68386662135606
 20
77.2979900183944153
 30
0.0
 11
525.723342456564751
 21
77.2585141941277271
 31
0.0
  0
LINE
  5
9406
  8
0
 10
526.0257371545684464
 20
77.6398605517238565
 30
0.0
 11
525.68386662135606
 21
77.2979900183944153
 31
0.0
  0
LINE
  5
9407
  8
0
 10
526.0257371545684464
 20
77.6398605517238565
 30
0.0
 11
526.0749246849686642
 21
77.5906729707238583
 31
0.0
  0
LINE
  5
9408
  8
0
 10
525.723342456564751
 20
77.2585141941277271
 30
0.0
 11
525.7466336327438512
 21
77.2746369698074318
 31
0.0
  0
ARC
  5
9409
  8
0
 10
531.3002971370613068
 20
68.8277316212860484
 30
0.0
 40
10.4540702608664002
 50
88.6413739798688027
 51
104.9953154926801062
  0
LINE
  5
940A
  8
0
 10
531.3064378477720311
 20
79.2818000786285495
 30
0.0
 11
531.3064378399684529
 21
79.3389327156238693
 31
0.0
  0
ARC
  5
940B
  8
0
 10
530.4887492888047973
 20
72.2966797578244353
 30
0.0
 40
6.9240329240164966
 50
106.414282362566496
 51
112.2263150985399989
  0
ARC
  5
940C
  8
0
 10
528.2116374231811733
 20
77.3569092902230153
 30
0.0
 40
1.391789350747777
 50
91.9522691042126041
 51
103.4992360097032957
  0
ARC
  5
940D
  8
0
 10
527.8450635043734565
 20
77.4254822422150539
 30
0.0
 40
1.36037766999538
 50
59.4585575908779731
 51
76.4312906581177884
  0
LINE
  5
940E
  8
0
 10
528.5363549965685479
 20
78.747890781923843
 30
0.0
 11
528.5363549965685479
 21
78.5971236028030518
 31
0.0
  0
LINE
  5
940F
  8
0
 10
528.5363549965685479
 20
78.747890781923843
 30
0.0
 11
528.1642234315686437
 21
78.747890781923843
 31
0.0
  0
ARC
  5
9410
  8
0
 10
528.5783288119569079
 20
78.9396074012126832
 30
0.0
 40
0.061952265387531
 50
267.5902345363692234
 51
286.0049017052775184
  0
ARC
  5
9411
  8
0
 10
529.9205717330463585
 20
73.1884721587262845
 30
0.0
 40
5.8479428565573093
 50
138.2139916240307116
 51
156.6042778283899963
  0
LINE
  5
9412
  8
0
 10
524.0545259184926863
 20
74.8074866535120435
 30
0.0
 11
523.9468030391634557
 21
74.5115204732388889
 31
0.0
  0
LINE
  5
9413
  8
0
 10
524.0545259184926863
 20
74.8074866535120435
 30
0.0
 11
524.2624721675165347
 21
74.8140267482505692
 31
0.0
  0
LINE
  5
9414
  8
0
 10
523.9468030391634557
 20
74.5115204732388889
 30
0.0
 11
524.1171942163289259
 21
74.3591656352884343
 31
0.0
  0
LINE
  5
9415
  8
0
 10
523.2122737336347882
 20
74.7956259817997449
 30
0.0
 11
523.9521891831458333
 21
74.5263187822957605
 31
0.0
  0
LINE
  5
9416
  8
0
 10
523.3092243247049282
 20
75.0619955425722623
 30
0.0
 11
524.0491397748614872
 21
74.7926883454195632
 31
0.0
  0
LINE
  5
9417
  8
0
 10
523.3092243247049282
 20
75.0619955425722623
 30
0.0
 11
523.2122737336347882
 21
74.7956259817997449
 31
0.0
  0
ARC
  5
9418
  8
0
 10
524.144877630928363
 20
74.400543348807858
 30
0.0
 40
0.04978440137216
 50
236.2158280521935012
 51
243.484601853298102
  0
ARC
  5
9419
  8
0
 10
525.7997697665277883
 20
73.8308908888661364
 30
0.0
 40
1.757401211325528
 50
162.6146904610249919
 51
166.7730634702166981
  0
LINE
  5
941A
  8
0
 10
523.8324854629686342
 20
73.408805889323844
 30
0.0
 11
523.9296988823589345
 21
73.3934087963254029
 31
0.0
  0
LINE
  5
941B
  8
0
 10
523.8324854629686342
 20
73.408805889323844
 30
0.0
 11
523.9248680210685052
 21
73.9920864054238479
 31
0.0
  0
LINE
  5
941C
  8
0
 10
523.8161221977507012
 20
73.4313279917108588
 30
0.0
 11
523.8324854629686342
 21
73.408805889323844
 31
0.0
  0
LINE
  5
941D
  8
0
 10
523.9023459185686988
 20
73.9757231401238613
 30
0.0
 11
523.8161221977507012
 21
73.4313279917108588
 31
0.0
  0
LINE
  5
941E
  8
0
 10
523.9248680210685052
 20
73.9920864054238479
 30
0.0
 11
524.0220814403784289
 21
73.9766893123222928
 31
0.0
  0
LINE
  5
941F
  8
0
 10
523.9248680210685052
 20
73.9920864054238479
 30
0.0
 11
523.9023459185686988
 21
73.9757231401238613
 31
0.0
  0
LINE
  5
9420
  8
0
 10
524.0357419791153006
 20
74.1943124577503568
 30
0.0
 11
524.0017830567601322
 21
73.9799042604704056
 31
0.0
  0
LINE
  5
9421
  8
0
 10
523.9094004986050095
 20
73.3966237444707872
 30
0.0
 11
523.8768439801953036
 21
73.1910699772180493
 31
0.0
  0
LINE
  5
9422
  8
0
 10
524.0357419791153006
 20
74.1943124577503568
 30
0.0
 11
524.149710467825571
 21
74.2771154082383447
 31
0.0
  0
ARC
  5
9423
  8
0
 10
511.4303377256950967
 20
75.6648800913672943
 30
0.0
 40
12.7948557541299301
 50
348.2459292781824161
 51
353.7732950895580188
  0
LINE
  5
9424
  8
0
 10
524.149710467825571
 20
74.2771154082383447
 30
0.0
 11
524.1078893868123032
 21
74.3062852496891821
 31
0.0
  0
ARC
  5
9425
  8
0
 10
523.9022770633032451
 20
73.0658200852290065
 30
0.0
 40
0.0447508924458051
 50
357.2223383512543933
 51
32.1772416389282228
  0
ARC
  5
9426
  8
0
 10
523.9542058475533395
 20
73.0653439390506918
 30
0.0
 40
0.0074259164916154
 50
193.1745097202444015
 51
291.2573688056708079
  0
LINE
  5
9427
  8
0
 10
523.9401544317850039
 20
73.0896517308203642
 30
0.0
 11
523.8862974096150538
 21
73.1637803960808952
 31
0.0
  0
ARC
  5
9428
  8
0
 10
523.7779415004274597
 20
73.497221212071608
 30
0.0
 40
0.2752459174206763
 50
79.1994089662934613
 51
95.7529036545306553
  0
ARC
  5
9429
  8
0
 10
523.7701405799582517
 20
73.4688275831614277
 30
0.0
 40
0.2265183287866283
 50
77.9856628265639102
 51
98.1552886500341231
  0
ARC
  5
942A
  8
0
 10
523.8975600218732325
 20
74.0946830987416973
 30
0.0
 40
0.4515692826020513
 50
248.8848793868255029
 51
263.9622780525567123
  0
LINE
  5
942B
  8
0
 10
523.817291830467866
 20
73.6903841512239666
 30
0.0
 11
523.8561771985682753
 21
73.6842253140239336
 31
0.0
  0
LINE
  5
942C
  8
0
 10
523.8295202312690435
 20
73.7675912355237955
 30
0.0
 11
523.8684055993769562
 21
73.7614323982225528
 31
0.0
  0
LINE
  5
942D
  8
0
 10
523.7348853459997144
 20
73.6734328562264551
 30
0.0
 11
523.7503512667101404
 21
73.7710808368069308
 31
0.0
  0
LINE
  5
942E
  8
0
 10
523.815344722061127
 20
73.6780905905763603
 30
0.0
 11
523.8131242578685942
 21
73.6640711314239667
 31
0.0
  0
ARC
  5
942F
  8
0
 10
523.8303459233522972
 20
73.5527371004837249
 30
0.0
 40
0.1262479050066898
 50
78.7556811611331966
 51
96.8242006847226406
  0
ARC
  5
9430
  8
0
 10
523.8602881358244758
 20
73.7583982522041879
 30
0.0
 40
0.1054610691133776
 50
243.4347945076260942
 51
265.1014609452161039
  0
ARC
  5
9431
  8
0
 10
519.5481413911104482
 20
74.1965248123167669
 30
0.0
 40
4.4920819638963234
 50
357.2547204139684141
 51
0.0133092583839677
  0
ARC
  5
9432
  8
0
 10
517.0888051948390967
 20
74.7348756987293541
 30
0.0
 40
6.987011732397475
 50
347.8593277369438965
 51
353.8089896788878264
  0
ARC
  5
9433
  8
0
 10
528.6994114702030174
 20
71.9320795236787802
 30
0.0
 40
4.962348346017678
 50
164.4135970018635931
 51
165.4327282889834976
  0
ARC
  5
9434
  8
0
 10
523.8654494836871436
 20
73.1882841569711076
 30
0.0
 40
0.0321725086575307
 50
310.3913077182269262
 51
345.4327282889869934
  0
LINE
  5
9435
  8
0
 10
523.9245870474685489
 20
73.3611339410238656
 30
0.0
 11
524.0271932752687007
 21
74.0089641676238443
 31
0.0
  0
LINE
  5
9436
  8
0
 10
523.9245870474685489
 20
73.3611339410238656
 30
0.0
 11
523.9295029475324554
 21
73.3603553389572625
 31
0.0
  0
LINE
  5
9437
  8
0
 10
523.8862974096156222
 20
73.1637803960801989
 30
0.0
 11
523.894629939168567
 21
73.2441230861238637
 31
0.0
  0
LINE
  5
9438
  8
0
 10
523.8875932417546437
 20
73.1762748780062537
 30
0.0
 11
523.8768439801953036
 21
73.1910699772180493
 31
0.0
  0
ARC
  5
9439
  8
0
 10
523.0853959586520432
 20
73.5502640595539958
 30
0.0
 40
0.8652062938023755
 50
339.2778890127993918
 51
350.1156168651612006
  0
ARC
  5
943A
  8
0
 10
507.2457761982751094
 20
76.3102716173157916
 30
0.0
 40
16.9434896559100494
 50
350.1156168651612006
 51
352.1911376261061832
  0
ARC
  5
943B
  8
0
 10
523.3389516621191433
 20
74.1032447794390805
 30
0.0
 40
0.6996827137804114
 50
352.1911376261061832
 51
357.9666136811861747
  0
LINE
  5
943C
  8
0
 10
524.0271932752687007
 20
74.0089641676238443
 30
0.0
 11
524.0321461036685378
 21
74.0081797166238715
 31
0.0
  0
ARC
  5
943D
  8
0
 10
532.5714403487673962
 20
72.2981341642206559
 30
0.0
 40
8.7192311922539467
 50
174.9762314215828098
 51
177.0358628130171041
  0
LINE
  5
943E
  8
0
 10
523.8857044607685793
 20
73.0616684908238625
 30
0.0
 11
523.9459809249237878
 21
73.0754437463903201
 31
0.0
  0
LINE
  5
943F
  8
0
 10
523.903056259681648
 20
73.1407135584300789
 30
0.0
 11
523.8965768305323536
 21
73.0641532031275318
 31
0.0
  0
ARC
  5
9440
  8
0
 10
534.5359545973826698
 20
56.2172820968086597
 30
0.0
 40
19.6771803505494489
 50
122.3456696266677
 51
126.5378539251140069
  0
ARC
  5
9441
  8
0
 10
523.8361268711124694
 20
70.6573074463297104
 30
0.0
 40
1.7049616375839101
 50
126.5378539251140069
 51
160.8339922622257063
  0
ARC
  5
9442
  8
0
 10
526.2821326059645344
 20
68.9413217101347726
 30
0.0
 40
3.90809862061956
 50
215.1627556183701131
 51
224.0652955999154017
  0
ARC
  5
9443
  8
0
 10
532.5301736704661835
 20
76.0776711142784166
 30
0.0
 40
13.3836767375807302
 50
227.4168223019188133
 51
237.8186897999376868
  0
ARC
  5
9444
  8
0
 10
525.0329247193859601
 20
70.4220073104418134
 30
0.0
 40
2.9176683774065739
 50
164.1872169344989061
 51
179.0100702000108015
  0
ARC
  5
9445
  8
0
 10
532.4895098647471059
 20
70.7749035587065549
 30
0.0
 40
10.3782272263077395
 50
181.6702059888679059
 51
196.2612767688079032
  0
ARC
  5
9446
  8
0
 10
526.4739619424950661
 20
69.0250086987884259
 30
0.0
 40
4.1133332850450257
 50
196.324955540875095
 51
214.5768941328782091
  0
ARC
  5
9447
  8
0
 10
522.6484017854686499
 20
71.3276136422238523
 30
0.0
 40
0.2807797168000029
 50
66.5414788186904218
 51
142.9504392893591103
  0
ARC
  5
9448
  8
0
 10
523.342184295295624
 20
66.9649334273420322
 30
0.0
 40
0.299452754272493
 50
224.4861071393135887
 51
320.3826521261889866
  0
ARC
  5
9449
  8
0
 10
523.5788711749152071
 20
68.1747486220828307
 30
0.0
 40
0.8554335226143001
 50
330.0518558868064929
 51
8.2975671321905207
  0
ARC
  5
944A
  8
0
 10
523.147586563800246
 20
70.5373407763233047
 30
0.0
 40
0.816802504568356
 50
9.0411147520403823
 51
58.7130390786549228
  0
LINE
  5
944B
  8
0
 10
523.571772234589389
 20
71.2353614408929445
 30
0.0
 11
522.7601759976265612
 21
71.5851864957289621
 31
0.0
  0
LINE
  5
944C
  8
0
 10
523.5728588037945883
 20
66.7739852061662305
 30
0.0
 11
524.320085140884089
 21
67.7477025259002943
 31
0.0
  0
ARC
  5
944D
  8
0
 10
554.5805540243200085
 20
75.5294171747680991
 30
0.0
 40
31.0101086317720416
 50
189.0237054733258049
 51
193.4848966986751861
  0
LINE
  5
944E
  8
0
 10
539.224963195037617
 20
71.903349745511477
 30
0.0
 11
539.0816304472340335
 21
72.9333479765860773
 31
0.0
  0
LINE
  5
944F
  8
0
 10
539.2412884535400508
 20
72.110438935875294
 30
0.0
 11
539.0744493072148771
 21
73.0201776988486841
 31
0.0
  0
LINE
  5
9450
  8
0
 10
539.2412884535400508
 20
72.110438935875294
 30
0.0
 11
539.1932858606835453
 21
72.1309850825149113
 31
0.0
  0
LINE
  5
9451
  8
0
 10
541.3329765039978838
 20
81.5435410676011543
 30
0.0
 11
546.8538499098976899
 21
81.5435410676011543
 31
0.0
  0
LINE
  5
9452
  8
0
 10
542.2219753699894227
 20
80.1895176876650453
 30
0.0
 11
545.9648510439053553
 21
80.1895176876650453
 31
0.0
  0
LINE
  5
9453
  8
0
 10
542.3157802941641421
 20
80.5869689812427339
 30
0.0
 11
545.8710461197282484
 21
80.5869689812427339
 31
0.0
  0
LINE
  5
9454
  8
0
 10
542.3976691695039563
 20
80.8511603574606994
 30
0.0
 11
545.7891572443912764
 21
80.8511603574606994
 31
0.0
  0
LINE
  5
9455
  8
0
 10
544.3023495883891201
 20
80.7100701155094953
 30
0.0
 11
543.8844768255064537
 21
80.7100701155094953
 31
0.0
  0
LINE
  5
9456
  8
0
 10
544.3062865961884427
 20
80.7094918594731752
 30
0.0
 11
543.8805398177071311
 21
80.7094918594731752
 31
0.0
  0
LINE
  5
9457
  8
0
 10
544.4162865961884563
 20
80.8194918594731888
 30
0.0
 11
544.4162865961884563
 21
80.8511603574606994
 31
0.0
  0
LINE
  5
9458
  8
0
 10
544.4123495883891337
 20
80.8200701155094947
 30
0.0
 11
544.4123495883891337
 21
80.8511603574606994
 31
0.0
  0
ARC
  5
9459
  8
0
 10
544.3062865961884427
 20
80.8194918594731888
 30
0.0
 40
0.11
 50
269.9999999999935199
 51
0.0
  0
ARC
  5
945A
  8
0
 10
544.3023495883891201
 20
80.8200701155094947
 30
0.0
 40
0.11
 50
270.0
 51
0.0000000000040711
  0
LINE
  5
945B
  8
0
 10
543.7705398177071174
 20
80.8194918594731888
 30
0.0
 11
543.7705398177071174
 21
80.8511603574606994
 31
0.0
  0
LINE
  5
945C
  8
0
 10
543.7744768255065537
 20
80.8200701155094947
 30
0.0
 11
543.7744768255065537
 21
80.8511603574606994
 31
0.0
  0
ARC
  5
945D
  8
0
 10
543.8844768255064537
 20
80.8200701155094947
 30
0.0
 40
0.11
 50
180.0
 51
270.0
  0
ARC
  5
945E
  8
0
 10
543.8805398177071311
 20
80.8194918594731888
 30
0.0
 40
0.11
 50
179.9999999999959073
 51
270.0
  0
ARC
  5
945F
  8
0
 10
546.7487119614128233
 20
80.4005751736246737
 30
0.0
 40
0.1070301583163572
 50
306.8597836965565762
 51
355.2921432332115046
  0
ARC
  5
9460
  8
0
 10
546.5297376551668549
 20
80.7505702591016217
 30
0.0
 40
0.5195799730077818
 50
279.6879821046027814
 51
303.0254791317092895
  0
ARC
  5
9461
  8
0
 10
546.2606215928019537
 20
81.8767488358357838
 30
0.0
 40
1.676697965679286
 50
275.0128592438401824
 51
282.2777825312542177
  0
ARC
  5
9462
  8
0
 10
546.0555908680819357
 20
84.4136961892177453
 30
0.0
 40
4.2218932065102628
 50
271.2561742917694119
 51
274.7763109098443124
  0
ARC
  5
9463
  8
0
 10
545.7579069603191328
 20
96.7763936762495547
 30
0.0
 40
16.5881668943380589
 50
270.7148065391672844
 51
271.3480153299983044
  0
ARC
  5
9464
  8
0
 10
546.7723087864026184
 20
80.3894402055420016
 30
0.0
 40
0.0831054739240083
 50
1.6206969185387641
 51
43.4067175465709383
  0
ARC
  5
9465
  8
0
 10
546.5554441198712539
 20
80.0958866195440748
 30
0.0
 40
0.4470185703904459
 50
51.6693592452117869
 51
81.6046953447021366
  0
ARC
  5
9466
  8
0
 10
546.1967426257699572
 20
78.4570764646516068
 30
0.0
 40
2.1237866599492712
 50
78.4847992470535729
 51
88.4928638900004643
  0
ARC
  5
9467
  8
0
 10
545.900201783029047
 20
71.5685512532674721
 30
0.0
 40
9.0184648565574062
 50
87.7605781844060857
 51
90.1852310113215054
  0
ARC
  5
9468
  8
0
 10
546.7658100060473316
 20
80.6304011340577063
 30
0.0
 40
0.0850249447368476
 50
0.5359747834983838
 51
30.9590255522687912
  0
ARC
  5
9469
  8
0
 10
546.7307486291018677
 20
80.6093682449757694
 30
0.0
 40
0.1259111597296697
 50
30.9590255522687912
 51
40.3645442059168715
  0
ARC
  5
946A
  8
0
 10
546.7749933717294653
 20
80.6824078974668311
 30
0.0
 40
0.052443272986597
 50
9.2430530487368472
 51
44.2585157912082821
  0
ARC
  5
946B
  8
0
 10
546.6408946656416674
 20
80.5253246855988465
 30
0.0
 40
0.2588046008956582
 50
48.4499166117286322
 51
70.8430344169125732
  0
ARC
  5
946C
  8
0
 10
546.3996960967392624
 20
79.8842767847918935
 30
0.0
 40
0.9436661792973453
 50
69.7818234005916764
 51
81.7567615146697477
  0
ARC
  5
946D
  8
0
 10
546.1625469346038244
 20
78.3256320612392329
 30
0.0
 40
2.520233939627806
 50
81.5015219353470854
 51
88.4830056723597238
  0
ARC
  5
946E
  8
0
 10
545.8414339972945299
 20
68.8952393716511864
 30
0.0
 40
11.9560352741958091
 50
88.141102104252667
 51
90.2505217476579276
  0
LINE
  5
946F
  8
0
 10
546.8414742327353224
 20
80.669184713407887
 30
0.0
 11
546.8552241364853899
 21
81.456926894401164
 31
0.0
  0
LINE
  5
9470
  8
0
 10
546.8553810151208836
 20
80.3917906548447974
 30
0.0
 11
546.8508312306672678
 21
80.6311964904016349
 31
0.0
  0
LINE
  5
9471
  8
0
 10
546.8538499098976899
 20
81.5435410676011543
 30
0.0
 11
546.8552239991978468
 21
81.4648009101011468
 31
0.0
  0
LINE
  5
9472
  8
0
 10
546.8266852813814012
 20
80.6909144214277063
 30
0.0
 11
546.7844127270475383
 21
80.7406903920032875
 31
0.0
  0
LINE
  5
9473
  8
0
 10
546.8552241364853899
 20
81.456926894401164
 30
0.0
 11
541.3316022774104113
 21
81.456926894401164
 31
0.0
  0
LINE
  5
9474
  8
0
 10
546.8552239991978468
 20
81.4648009101011468
 30
0.0
 11
541.3316024146979544
 21
81.4648009101011468
 31
0.0
  0
LINE
  5
9475
  8
0
 10
546.8492499040478378
 20
81.456926894401164
 30
0.0
 11
546.8492499040478378
 21
81.4648009101011468
 31
0.0
  0
ARC
  5
9476
  8
0
 10
523.8668092263330891
 20
70.6563988788550716
 30
0.0
 40
1.669449130857166
 50
149.7753805514460055
 51
174.6524503216018047
  0
ARC
  5
9477
  8
0
 10
531.1200618547411523
 20
70.5337625136754127
 30
0.0
 40
8.9197760182042956
 50
178.2125516510537864
 51
200.4873682295798005
  0
ARC
  5
9478
  8
0
 10
526.5722127309859388
 20
69.1109321479677163
 30
0.0
 40
4.1696358445175017
 50
204.0474695590320948
 51
210.7896016963206876
  0
ARC
  5
9479
  8
0
 10
528.3872974754848428
 20
70.1924933927569299
 30
0.0
 40
6.282526602683336
 50
210.7896016963206876
 51
213.1707614552049108
  0
ARC
  5
947A
  8
0
 10
531.760996979235756
 20
70.1703013102742545
 30
0.0
 40
11.2236527027955795
 50
265.2822865950773235
 51
268.913451176950673
  0
ARC
  5
947B
  8
0
 10
541.4381144524779756
 20
80.4005751736219736
 30
0.0
 40
0.1070301583112139
 50
184.7078567655642871
 51
233.1402163046973044
  0
ARC
  5
947C
  8
0
 10
541.6570887587289462
 20
80.7505702591016217
 30
0.0
 40
0.5195799730077818
 50
236.9745208682905968
 51
260.3120178953972186
  0
ARC
  5
947D
  8
0
 10
541.9262048210937337
 20
81.8767488358357838
 30
0.0
 40
1.676697965679286
 50
257.722217468745896
 51
264.9871407561598176
  0
ARC
  5
947E
  8
0
 10
542.1312355458137517
 20
84.4136961892177453
 30
0.0
 40
4.2218932065102628
 50
265.2236890901558013
 51
268.7438257082304744
  0
ARC
  5
947F
  8
0
 10
542.4289194535765546
 20
96.7763936762495547
 30
0.0
 40
16.5881668943380589
 50
268.6519846700015819
 51
269.2851934608261217
  0
ARC
  5
9480
  8
0
 10
541.4145176274855658
 20
80.3894402055450854
 30
0.0
 40
0.0831054739164698
 50
136.5932824514216009
 51
178.3793030834312958
  0
ARC
  5
9481
  8
0
 10
541.6313822940245473
 20
80.0958866195440748
 30
0.0
 40
0.4470185703904459
 50
98.3953046552978634
 51
128.3306407547881918
  0
ARC
  5
9482
  8
0
 10
541.9900837881256166
 20
78.4570764646516068
 30
0.0
 40
2.1237866599492712
 50
91.507136109986476
 51
101.5152007529463987
  0
ARC
  5
9483
  8
0
 10
542.2866246308666405
 20
71.5685512532674721
 30
0.0
 40
9.0184648565574062
 50
89.8147689886980203
 51
92.2394218155874199
  0
ARC
  5
9484
  8
0
 10
541.4210164078483558
 20
80.6304011340577063
 30
0.0
 40
0.0850249447368476
 50
149.0409744477312017
 51
179.4640252165015966
  0
ARC
  5
9485
  8
0
 10
541.4560777847937061
 20
80.6093682449757694
 30
0.0
 40
0.1259111597296697
 50
139.6354557940831
 51
149.0409744477312017
  0
ARC
  5
9486
  8
0
 10
541.4118330421663359
 20
80.6824078974668311
 30
0.0
 40
0.052443272986597
 50
135.7414842087916895
 51
170.7569469512631031
  0
ARC
  5
9487
  8
0
 10
541.54593174825402
 20
80.5253246855988465
 30
0.0
 40
0.2588046008956582
 50
109.1569655830873984
 51
131.5500833882713891
  0
ARC
  5
9488
  8
0
 10
541.787130317156425
 20
79.8842767847918935
 30
0.0
 40
0.9436661792973453
 50
99.0592651336669689
 51
110.2181765994082951
  0
ARC
  5
9489
  8
0
 10
542.024279479291863
 20
78.3256320612392329
 30
0.0
 40
2.520233939627806
 50
91.5169943276402904
 51
98.8040255542848058
  0
ARC
  5
948A
  8
0
 10
542.3453924166011575
 20
68.8952393716511864
 30
0.0
 40
11.9560352741958091
 50
89.749478252348581
 51
91.8588978957473472
  0
LINE
  5
948B
  8
0
 10
541.3453521811604787
 20
80.669184713407887
 30
0.0
 11
541.3316022774104113
 21
81.456926894401164
 31
0.0
  0
LINE
  5
948C
  8
0
 10
541.3314453987748038
 20
80.3917906548447974
 30
0.0
 11
541.3359951832283059
 21
80.6311964904016349
 31
0.0
  0
LINE
  5
948D
  8
0
 10
541.3329765039978838
 20
81.5435410676011543
 30
0.0
 11
541.3316024146979544
 21
81.4648009101011468
 31
0.0
  0
LINE
  5
948E
  8
0
 10
541.3601411325141726
 20
80.6909144214277063
 30
0.0
 11
541.4024136868482628
 21
80.7406903920032875
 31
0.0
  0
LINE
  5
948F
  8
0
 10
541.3375765098478496
 20
81.456926894401164
 30
0.0
 11
541.3375765098478496
 21
81.4648009101011468
 31
0.0
  0
ENDSEC
  0
EOF
