  0
SECTION
  2
HEADER
  9
$ACADVER
  1
AC1009
  9
$INSBASE
 10
573.1694480752685195
 20
107.0793651094711976
 30
0.0
  9
$EXTMIN
 10
563.7150235197789243
 20
105.7702044626228002
 30
-0.0000000000112498
  9
$EXTMAX
 10
588.4984415663061554
 20
113.4014822540614063
 30
0.0000000000002956
  9
$LIMMIN
 10
0.0
 20
0.0
  9
$LIMMAX
 10
11.6929133858000007
 20
8.2677165353999982
  9
$ORTHOMODE
 70
     0
  9
$REGENMODE
 70
     1
  9
$FILLMODE
 70
     1
  9
$QTEXTMODE
 70
     0
  9
$MIRRTEXT
 70
     0
  9
$DRAGMODE
 70
     2
  9
$LTSCALE
 40
0.6431102362
  9
$OSMODE
 70
  4095
  9
$ATTMODE
 70
     1
  9
$TEXTSIZE
 40
0.2
  9
$TRACEWID
 40
0.05
  9
$TEXTSTYLE
  7
STANDARD
  9
$CLAYER
  8
0
  9
$CELTYPE
  6
BYLAYER
  9
$CECOLOR
 62
   256
  9
$DIMSCALE
 40
1.0
  9
$DIMASZ
 40
0.1875
  9
$DIMEXO
 40
0.0625
  9
$DIMDLI
 40
0.4443307087
  9
$DIMRND
 40
0.0
  9
$DIMDLE
 40
0.0
  9
$DIMEXE
 40
0.125
  9
$DIMTP
 40
0.01
  9
$DIMTM
 40
0.01
  9
$DIMTXT
 40
1.0
  9
$DIMCEN
 40
0.1052362205
  9
$DIMTSZ
 40
0.0
  9
$DIMTOL
 70
     1
  9
$DIMLIM
 70
     0
  9
$DIMTIH
 70
     0
  9
$DIMTOH
 70
     1
  9
$DIMSE1
 70
     0
  9
$DIMSE2
 70
     0
  9
$DIMTAD
 70
     0
  9
$DIMZIN
 70
     0
  9
$DIMBLK
  1

  9
$DIMASO
 70
     1
  9
$DIMSHO
 70
     1
  9
$DIMPOST
  1
\X
  9
$DIMAPOST
  1

  9
$DIMALT
 70
     1
  9
$DIMALTD
 70
     2
  9
$DIMALTF
 40
25.3999999999999986
  9
$DIMLFAC
 40
1.0
  9
$DIMTOFL
 70
     0
  9
$DIMTVP
 40
0.0
  9
$DIMTIX
 70
     0
  9
$DIMSOXD
 70
     0
  9
$DIMSAH
 70
     0
  9
$DIMBLK1
  1

  9
$DIMBLK2
  1

  9
$DIMSTYLE
  2
STANDARD
  9
$DIMCLRD
 70
     0
  9
$DIMCLRE
 70
     0
  9
$DIMCLRT
 70
     0
  9
$DIMTFAC
 40
1.0
  9
$DIMGAP
 40
0.09
  9
$LUNITS
 70
     2
  9
$LUPREC
 70
     4
  9
$SKETCHINC
 40
0.1
  9
$FILLETRAD
 40
0.0
  9
$AUNITS
 70
     0
  9
$AUPREC
 70
     0
  9
$MENU
  1
.
  9
$ELEVATION
 40
0.0
  9
$PELEVATION
 40
0.0
  9
$THICKNESS
 40
0.0
  9
$LIMCHECK
 70
     0
  9
$BLIPMODE
 70
     0
  9
$CHAMFERA
 40
0.0
  9
$CHAMFERB
 40
0.0
  9
$SKPOLY
 70
     0
  9
$TDCREATE
 40
2458172.5207638889551163
  9
$TDUPDATE
 40
2459235.4296643519774079
  9
$TDINDWG
 40
0.3414359028
  9
$TDUSRTIMER
 40
0.3414359028
  9
$USRTIMER
 70
     1
  9
$ANGBASE
 50
0.0
  9
$ANGDIR
 70
     0
  9
$PDMODE
 70
     0
  9
$PDSIZE
 40
0.3125
  9
$PLINEWID
 40
0.0
  9
$COORDS
 70
     1
  9
$SPLFRAME
 70
     0
  9
$SPLINETYPE
 70
     6
  9
$SPLINESEGS
 70
     8
  9
$ATTDIA
 70
     1
  9
$ATTREQ
 70
     1
  9
$HANDLING
 70
     1
  9
$HANDSEED
  5
92CA
  9
$SURFTAB1
 70
     6
  9
$SURFTAB2
 70
     6
  9
$SURFTYPE
 70
     6
  9
$SURFU
 70
     6
  9
$SURFV
 70
     6
  9
$UCSNAME
  2

  9
$UCSORG
 10
0.0
 20
0.0
 30
0.0
  9
$UCSXDIR
 10
1.0
 20
0.0
 30
0.0
  9
$UCSYDIR
 10
0.0
 20
1.0
 30
0.0
  9
$PUCSNAME
  2

  9
$PUCSORG
 10
0.0
 20
0.0
 30
0.0
  9
$PUCSXDIR
 10
1.0
 20
0.0
 30
0.0
  9
$PUCSYDIR
 10
0.0
 20
1.0
 30
0.0
  9
$USERI1
 70
     0
  9
$USERI2
 70
     0
  9
$USERI3
 70
     0
  9
$USERI4
 70
     0
  9
$USERI5
 70
     0
  9
$USERR1
 40
0.0
  9
$USERR2
 40
0.0
  9
$USERR3
 40
0.0
  9
$USERR4
 40
0.0
  9
$USERR5
 40
0.0
  9
$WORLDVIEW
 70
     1
  9
$SHADEDGE
 70
     3
  9
$SHADEDIF
 70
    70
  9
$TILEMODE
 70
     1
  9
$MAXACTVP
 70
    64
  9
$PLIMCHECK
 70
     0
  9
$PEXTMIN
 10
1.0000000000000000E+20
 20
1.0000000000000000E+20
 30
1.0000000000000000E+20
  9
$PEXTMAX
 10
-1.0000000000000000E+20
 20
-1.0000000000000000E+20
 30
-1.0000000000000000E+20
  9
$PLIMMIN
 10
0.0
 20
0.0
  9
$PLIMMAX
 10
12.0
 20
9.0
  9
$UNITMODE
 70
     0
  9
$VISRETAIN
 70
     1
  9
$PLINEGEN
 70
     0
  9
$PSLTSCALE
 70
     1
  0
ENDSEC
  0
SECTION
  2
TABLES
  0
TABLE
  2
VPORT
 70
     1
  0
VPORT
  2
*ACTIVE
 70
     0
 10
0.0
 20
0.0
 11
1.0
 21
1.0
 12
109.3645308352124061
 22
20.4526962384123614
 13
0.0
 23
0.0
 14
1.0
 24
1.0
 15
0.0
 25
0.0
 16
0.0
 26
0.0
 36
24.1179433675886514
 17
466.74220170783002
 27
89.133147119929788
 37
0.0
 40
8.6487074144297083
 41
2.8789237668161429
 42
50.0
 43
0.0
 44
0.0
 50
0.0
 51
0.0
 71
     0
 72
   100
 73
     1
 74
     1
 75
     0
 76
     0
 77
     0
 78
     0
  0
ENDTAB
  0
TABLE
  2
LTYPE
 70
     2
  0
LTYPE
  2
CONTINUOUS
 70
     0
  3
Solid line
 72
    65
 73
     0
 40
0.0
  0
LTYPE
  2
PHANTOM2
 70
     0
  3
___ _ _ ___ _ _ ___ _ _ ___ _ _
 72
    65
 73
     6
 40
1.25
 49
0.625
 49
-0.125
 49
0.125
 49
-0.125
 49
0.125
 49
-0.125
  0
ENDTAB
  0
TABLE
  2
LAYER
 70
     2
  0
LAYER
  2
0
 70
     0
 62
   255
  6
CONTINUOUS
  0
LAYER
  2
DEFPOINTS
 70
     0
 62
     7
  6
CONTINUOUS
  0
ENDTAB
  0
TABLE
  2
STYLE
 70
     1
  0
STYLE
  2
STANDARD
 70
     0
 40
0.0
 41
0.8
 50
0.0
 71
     0
 42
0.2
  3
txt
  4

  0
ENDTAB
  0
TABLE
  2
VIEW
 70
     0
  0
ENDTAB
  0
TABLE
  2
UCS
 70
     0
  0
ENDTAB
  0
TABLE
  2
APPID
 70
    11
  0
APPID
  2
ACAD
 70
     0
  0
APPID
  2
ACAD_MLEADERVER
 70
     0
  0
APPID
  2
ACAD_EXEMPT_FROM_CAD_STANDARDS
 70
     0
  0
APPID
  2
ACAD_DSTYLE_DIMJAG
 70
     0
  0
APPID
  2
ACAD_DSTYLE_DIMTALN
 70
     0
  0
APPID
  2
ACAD_NAV_VCDISPLAY
 70
     0
  0
APPID
  2
ACAECLAYERSTANDARD
 70
     0
  0
APPID
  2
ACCMTRANSPARENCY
 70
     0
  0
APPID
  2
DCO15
 70
     0
  0
APPID
  2
ACDBATTR
 70
     0
  0
APPID
  2
ACADANNOTATIVE
 70
     0
  0
ENDTAB
  0
TABLE
  2
DIMSTYLE
 70
     1
  0
DIMSTYLE
  2
STANDARD
 70
     0
  3

  4

  5

  6

  7

 40
1.0
 41
0.1875
 42
0.0625
 43
0.38
 44
0.125
 45
0.0
 46
0.0
 47
0.01
 48
0.01
140
0.15625
141
0.09
142
0.0
143
25.3999999999999986
144
1.0
145
0.0
146
1.0
147
0.09
 71
     1
 72
     0
 73
     1
 74
     1
 75
     0
 76
     0
 77
     0
 78
     4
170
     0
171
     2
172
     0
173
     0
174
     0
175
     0
176
     0
177
     0
178
     0
  0
ENDTAB
  0
ENDSEC
  0
SECTION
  2
BLOCKS
  0
BLOCK
  8
0
  2
$MODEL_SPACE
 70
     0
 10
0.0
 20
0.0
 30
0.0
  3
$MODEL_SPACE
  1

  0
ENDBLK
  5
21
  8
0
  0
BLOCK
 67
     1
  8
0
  2
$PAPER_SPACE
 70
     0
 10
0.0
 20
0.0
 30
0.0
  3
$PAPER_SPACE
  1

  0
ENDBLK
  5
1D
 67
     1
  8
0
  0
ENDSEC
  0
SECTION
  2
ENTITIES
  0
ATTDEF
  5
829
  8
DEFPOINTS
 10
573.1653452969235332
 20
107.0869951318849047
 30
0.0
 40
0.001
  1
K-4108BR
  3

  2
MODELNUMBER
 70
     0
1001
ACDBATTR
1070
     0
1070
     1
  0
ATTDEF
  5
82A
  8
DEFPOINTS
 10
573.1653452969235332
 20
107.0853284652181969
 30
0.0
 40
0.001
  1
BIDET
  3

  2
TRADENAME
 70
     0
1001
ACDBATTR
1070
     0
1070
     1
  0
ATTDEF
  5
82B
  8
DEFPOINTS
 10
573.1653452969235332
 20
107.0836617985516028
 30
0.0
 40
0.001
  1
TOILET SEAT
  3

  2
PRODUCT
 70
     0
1001
ACDBATTR
1070
     0
1070
     1
  0
LINE
  5
8FE1
  8
0
 10
565.880574611673751
 20
107.1069150745452987
 30
0.0
 11
580.4583546274399168
 21
107.1069282261646975
 31
0.0
  0
ARC
  5
8FE2
  8
0
 10
573.3239044924130212
 20
94.8057747664148565
 30
0.0
 40
18.5951247229015699
 50
90.4759205823764745
 51
100.0910220923445024
  0
ARC
  5
8FE3
  8
0
 10
571.3857429986344414
 20
106.5884661658167971
 30
0.0
 40
6.6569489340671373
 50
101.4363625978859034
 51
132.2188696463470023
  0
ARC
  5
8FE4
  8
0
 10
570.7755975269220698
 20
107.260917684793796
 30
0.0
 40
5.7489464329551963
 50
132.2188696463470023
 51
152.19578127403949
  0
ARC
  5
8FE5
  8
0
 10
566.6001460304888724
 20
109.5580844497706039
 30
0.0
 40
0.987651986902043
 50
157.0924150439761036
 51
178.2590414818035072
  0
ARC
  5
8FE6
  8
0
 10
566.919039270256917
 20
110.7805547610280001
 30
0.0
 40
1.918352635592357
 50
234.65975684362121
 51
265.8828358813935893
  0
ARC
  5
8FE7
  8
0
 10
568.2860636119388573
 20
120.0217365343306994
 30
0.0
 40
11.2556219687913401
 50
262.3171717187199192
 51
268.2734755748736006
  0
ARC
  5
8FE8
  8
0
 10
571.879827662038565
 20
205.2535078792485876
 30
0.0
 40
96.5624078260453018
 50
267.6657580338567186
 51
269.8271761561745166
  0
ARC
  5
8FE9
  8
0
 10
572.1436819740018791
 20
292.7280848715673756
 30
0.0
 40
184.0373827564964984
 50
269.8271761561679227
 51
270.319350187276882
  0
ARC
  5
8FEA
  8
0
 10
593.6099567261385346
 20
12.5534393188701205
 30
0.0
 40
100.2231013445705941
 50
106.2212260304658997
 51
107.0812736046018045
  0
ARC
  5
8FEB
  8
0
 10
564.7121630251461966
 20
106.5965421654989029
 30
0.0
 40
1.840238640709865
 50
107.0812736046018045
 51
117.7291932487730008
  0
ARC
  5
8FEC
  8
0
 10
564.0115028054642607
 20
107.9294526486482937
 30
0.0
 40
0.3343916698876463
 50
117.7291932487730008
 51
138.9868070972052863
  0
ARC
  5
8FED
  8
0
 10
563.8421689385717173
 20
108.0805098794007932
 30
0.0
 40
0.1075286705970791
 50
140.5104246957479859
 51
168.0414858794138127
  0
ARC
  5
8FEE
  8
0
 10
563.813123567299499
 20
108.1082974377216033
 30
0.0
 40
0.0763485862420511
 50
184.1365091335283068
 51
216.4240655016853907
  0
ARC
  5
8FEF
  8
0
 10
564.0262896080899964
 20
108.3908853539166017
 30
0.0
 40
0.427710988909469
 50
230.0573013895117924
 51
259.009173383848804
  0
ARC
  5
8FF0
  8
0
 10
564.3693675645338317
 20
110.4676358506724938
 30
0.0
 40
2.5324684817645942
 50
260.3475591595852165
 51
274.5277266368320852
  0
ARC
  5
8FF1
  8
0
 10
562.7421066399748497
 20
146.106263202000207
 30
0.0
 40
38.2069084130615266
 50
272.7411148543314994
 51
274.4380963938273226
  0
ARC
  5
8FF2
  8
0
 10
563.1044541323809653
 20
147.1318264492568915
 30
0.0
 40
39.2038335716214377
 50
273.7941221113323991
 51
276.5258990507541057
  0
ARC
  5
8FF3
  8
0
 10
563.9752771100097561
 20
108.0809215358962945
 30
0.0
 40
0.2044739313872617
 50
220.4450372736388033
 51
243.9463268517307029
  0
ARC
  5
8FF4
  8
0
 10
564.201099407453853
 20
108.5428271472052018
 30
0.0
 40
0.7186261498805682
 50
243.9463268517307029
 51
264.2145750356613121
  0
ARC
  5
8FF5
  8
0
 10
564.6102066291069832
 20
118.4078751731793062
 30
0.0
 40
10.5909668552859006
 50
267.393993478348591
 51
272.606006521644872
  0
ARC
  5
8FF6
  8
0
 10
547.4319089685191102
 20
350.9210192603749761
 30
0.0
 40
243.73377589499691
 50
274.1550334317659008
 51
274.6397141717727095
  0
ARC
  5
8FF7
  8
0
 10
564.2348452578588649
 20
108.4085513220908012
 30
0.0
 40
0.6182826771848552
 50
236.2981995986604034
 51
269.9144077743549133
  0
ARC
  5
8FF8
  8
0
 10
564.2589383449553679
 20
124.5365485655167959
 30
0.0
 40
16.7462979165378307
 50
269.9144077743549133
 51
274.8043411048593043
  0
ARC
  5
8FF9
  8
0
 10
544.8011768605231282
 20
393.3778759922208792
 30
0.0
 40
286.289785774997199
 50
274.178522910886727
 51
274.473402427342819
  0
ARC
  5
8FFA
  8
0
 10
509.1791561838588791
 20
594.8858103730805169
 30
0.0
 40
490.5131395452226002
 50
276.4677435122881093
 51
276.7785824901313845
  0
LINE
  5
8FFB
  8
0
 10
564.3356865284457626
 20
107.4898361931712003
 30
0.0
 11
566.472668099956195
 21
107.4898361931712003
 31
0.0
  0
ARC
  5
8FFC
  8
0
 10
565.0586267896652544
 20
107.478078599906695
 30
0.0
 40
0.2246465671176268
 50
176.999872209381607
 51
205.757361695881599
  0
ARC
  5
8FFD
  8
0
 10
564.9009998719334362
 20
107.4020234340968045
 30
0.0
 40
0.049630472314708
 50
205.757361695881599
 51
230.7810499217584947
  0
ARC
  5
8FFE
  8
0
 10
564.8827954864591447
 20
107.3797177187905021
 30
0.0
 40
0.0208390745400515
 50
230.7810499217584947
 51
272.1021499523620832
  0
LINE
  5
8FFF
  8
0
 10
564.8835598888707636
 20
107.3588926685711016
 30
0.0
 11
565.5258116808098521
 21
107.3588926685711016
 31
0.0
  0
ARC
  5
9000
  8
0
 10
567.4811532912410712
 20
107.7500769581224063
 30
0.0
 40
0.408615214933425
 50
143.5376649963598084
 51
172.7695605291742993
  0
ARC
  5
9001
  8
0
 10
567.499926161343069
 20
107.7362048537255959
 30
0.0
 40
0.4319573641974635
 50
110.339499648858606
 51
143.5376649963598084
  0
ARC
  5
9002
  8
0
 10
567.5785799430163934
 20
107.5240257125849013
 30
0.0
 40
0.658245687596455
 50
101.2775268259165955
 51
110.339499648858606
  0
ARC
  5
9003
  8
0
 10
565.9172103668621503
 20
108.6880358032949943
 30
0.0
 40
0.3042763142394589
 50
179.4143788822158001
 51
263.9426651510170245
  0
ARC
  5
9004
  8
0
 10
567.4117690485164758
 20
113.9577337526418006
 30
0.0
 40
5.7776262962683882
 50
254.678334838784707
 51
271.4707464680021758
  0
ARC
  5
9005
  8
0
 10
568.1855991923326883
 20
-109.1225637919133931
 30
0.0
 40
217.3054749737698899
 50
89.4897293805658336
 51
90.1649326161073645
  0
ARC
  5
9006
  8
0
 10
564.2627409950632682
 20
-615.6651496023946493
 30
0.0
 40
723.8631479998064151
 50
89.2949915958910623
 51
89.5363073576421016
  0
LINE
  5
9007
  8
0
 10
563.819666596484808
 20
107.9482755533053933
 30
0.0
 11
563.7516900990352724
 21
108.0629649372590961
 31
0.0
  0
LINE
  5
9008
  8
0
 10
564.0752083712660578
 20
107.5491947098993961
 30
0.0
 11
563.88612243290072
 21
107.8969068357166066
 31
0.0
  0
ARC
  5
9009
  8
0
 10
564.1293365018635768
 20
107.5765190325449936
 30
0.0
 40
0.06063392721917
 50
206.7850173975868984
 51
239.2401935919731955
  0
ARC
  5
900A
  8
0
 10
564.2360488285288511
 20
107.8446128995813069
 30
0.0
 40
0.3485601931448997
 50
246.7265686268877118
 51
260.8907833955004207
  0
ARC
  5
900B
  8
0
 10
564.3106131110996557
 20
108.2586655071685016
 30
0.0
 40
0.7692380582882032
 50
260.2895108665480279
 51
272.2639847616566726
  0
ARC
  5
900C
  8
0
 10
564.2952054852370338
 20
109.3319892908645983
 30
0.0
 40
1.8425305942602079
 50
271.4242109474885751
 51
274.2713178639157832
  0
LINE
  5
900D
  8
0
 10
567.0757873944478433
 20
107.801505389871096
 30
0.0
 11
566.472668099956195
 21
107.4898361931712003
 31
0.0
  0
LINE
  5
900E
  8
0
 10
565.6891328790477473
 20
107.1266092039710998
 30
0.0
 11
568.7672366394746177
 21
107.1266092039710998
 31
0.0
  0
LINE
  5
900F
  8
0
 10
565.880574611673751
 20
107.1069150745452987
 30
0.0
 11
565.8310241167476988
 21
107.1266092039710998
 31
0.0
  0
LINE
  5
9010
  8
0
 10
565.6891328790477473
 20
107.1266092039710998
 30
0.0
 11
565.6891328790477473
 21
107.3431446370711058
 31
0.0
  0
LINE
  5
9011
  8
0
 10
565.5258111189416468
 20
107.2484971059714951
 30
0.0
 11
565.5258117008660292
 21
107.3628332775506067
 31
0.0
  0
LINE
  5
9012
  8
0
 10
565.6891328790477473
 20
107.1828967794065051
 30
0.0
 11
565.5258111189416468
 21
107.2484971059714951
 31
0.0
  0
LINE
  5
9013
  8
0
 10
565.5095816231323624
 20
107.4218847945710991
 30
0.0
 11
580.8233031497380807
 21
107.4218847945710991
 31
0.0
  0
LINE
  5
9014
  8
0
 10
565.5469094225137496
 20
107.3617752207288021
 30
0.0
 11
565.5463080733803736
 21
107.4218847945710991
 31
0.0
  0
LINE
  5
9015
  8
0
 10
565.5670608946470566
 20
107.3431446370711058
 30
0.0
 11
580.771835254935354
 21
107.3431446370711058
 31
0.0
  0
ARC
  5
9016
  8
0
 10
565.5665957374776553
 20
107.3628550574902931
 30
0.0
 40
0.0197159084064156
 50
183.1396505725890904
 51
271.3519040156930942
  0
LINE
  5
9017
  8
0
 10
565.4741650764528913
 20
107.362831821356707
 30
0.0
 11
565.4863039833027187
 21
107.4898361931712003
 31
0.0
  0
LINE
  5
9018
  8
0
 10
565.5468988315369643
 20
107.3628338721093058
 30
0.0
 11
565.4741650764528913
 21
107.362831821356707
 31
0.0
  0
LINE
  5
9019
  8
0
 10
565.4935863007368653
 20
107.4898361931712003
 30
0.0
 11
565.4894543937318758
 21
107.4435081583595064
 31
0.0
  0
ARC
  5
901A
  8
0
 10
565.5090851233599096
 20
107.4416016365844939
 30
0.0
 40
0.0197230923286626
 50
174.4528735487718905
 51
271.4424891605622747
  0
LINE
  5
901B
  8
0
 10
566.33704345295655
 20
107.1745000590874071
 30
0.0
 11
566.2187216312058808
 21
107.3431446370711058
 31
0.0
  0
LINE
  5
901C
  8
0
 10
568.0939014377969443
 20
107.1659792827712039
 30
0.0
 11
566.3534739432157039
 21
107.1659792827712039
 31
0.0
  0
LINE
  5
901D
  8
0
 10
568.1095748837277597
 20
107.1744063569504988
 30
0.0
 11
568.19502920058585
 21
107.3173607309359028
 31
0.0
  0
ARC
  5
901E
  8
0
 10
568.0924884976491285
 20
107.1873961921817937
 30
0.0
 40
0.0214634668347508
 50
273.7745110542952034
 51
322.7562783309439283
  0
ARC
  5
901F
  8
0
 10
566.3533176349421865
 20
107.1857796028085943
 30
0.0
 40
0.0198009369945196
 50
214.7256114225205863
 51
270.452296646019704
  0
LINE
  5
9020
  8
0
 10
568.1176838543705117
 20
107.3431446370711058
 30
0.0
 11
568.8263061885935485
 21
107.1069177320925974
 31
0.0
  0
LINE
  5
9021
  8
0
 10
568.8491487928477
 20
107.0833021173712041
 30
0.0
 11
568.2979676905476936
 21
107.0833021173712041
 31
0.0
  0
LINE
  5
9022
  8
0
 10
568.8688338322475602
 20
107.1029871567712064
 30
0.0
 11
568.8491487928477
 21
107.0833021173712041
 31
0.0
  0
LINE
  5
9023
  8
0
 10
568.8688338322475602
 20
107.1029871567712064
 30
0.0
 11
568.8688338322475602
 21
107.1069177704597024
 31
0.0
  0
LINE
  5
9024
  8
0
 10
568.2782826511477197
 20
107.1029871567711069
 30
0.0
 11
568.2979676905476936
 21
107.0833021173712041
 31
0.0
  0
LINE
  5
9025
  8
0
 10
568.2782826511477197
 20
107.1029871567711069
 30
0.0
 11
568.2782826511477197
 21
107.1069172376827936
 31
0.0
  0
LINE
  5
9026
  8
0
 10
568.8688338322475602
 20
107.1029871567709932
 30
0.0
 11
568.2782826511477197
 21
107.1029871567712064
 31
0.0
  0
LINE
  5
9027
  8
0
 10
568.4129465183476668
 20
107.0458430903806004
 30
0.0
 11
568.4129465183476668
 21
107.0833021173712041
 31
0.0
  0
LINE
  5
9028
  8
0
 10
568.6949292011477155
 20
107.0437045774217069
 30
0.0
 11
568.6949292011477155
 21
107.0833021173712041
 31
0.0
  0
LINE
  5
9029
  8
0
 10
568.6654246206568359
 20
106.9651918811710942
 30
0.0
 11
568.4835114830292468
 21
106.9651918811710942
 31
0.0
  0
ARC
  5
902A
  8
0
 10
568.6199761470315934
 20
107.0400801923559015
 30
0.0
 40
0.0750406322497921
 50
273.6512608609057793
 51
2.7684040616695249
  0
LINE
  5
902B
  8
0
 10
568.7341699650477267
 20
107.0446547380401938
 30
0.0
 11
568.7341699650477267
 21
107.0833021173712041
 31
0.0
  0
ARC
  5
902C
  8
0
 10
568.658405404336122
 20
107.0407324881721962
 30
0.0
 40
0.0758660181098573
 50
275.3086675518143238
 51
2.963495396407247
  0
ARC
  5
902D
  8
0
 10
568.4932689746641472
 20
107.0449247582024981
 30
0.0
 40
0.0803277058224356
 50
179.3449619446454051
 51
263.0229907222592942
  0
ARC
  5
902E
  8
0
 10
565.0798397075486719
 20
111.6550089156127967
 30
0.0
 40
3.58183065411699
 50
278.2237730957015174
 51
285.5952960271487768
  0
ARC
  5
902F
  8
0
 10
564.1615899079943119
 20
114.6690446099483012
 30
0.0
 40
6.713235284803968
 50
275.1062112728508282
 51
282.3041083235319775
  0
ARC
  5
9030
  8
0
 10
564.4342439026240754
 20
113.0300664188763022
 30
0.0
 40
5.0580568130203956
 50
267.0603081299457244
 51
273.6821915121292932
  0
ARC
  5
9031
  8
0
 10
564.2092115272907904
 20
108.736217255727297
 30
0.0
 40
0.7583308325540443
 50
240.1681615357854866
 51
267.4023539618316931
  0
ARC
  5
9032
  8
0
 10
564.3096540120503732
 20
107.5568200399980014
 30
0.0
 40
0.782804123231878
 50
108.6648566228682
 51
125.7551233469458936
  0
ARC
  5
9033
  8
0
 10
564.4150246201204482
 20
107.1027235604622945
 30
0.0
 40
1.247570018122923
 50
91.6408715487433767
 51
106.5749229483278953
  0
ARC
  5
9034
  8
0
 10
566.3256082153343414
 20
72.8578684828983114
 30
0.0
 40
35.5452393128315904
 50
91.5276127670180841
 51
93.1388450403356956
  0
ARC
  5
9035
  8
0
 10
565.3795734816412732
 20
107.5048991231734021
 30
0.0
 40
0.8855770238277981
 50
79.5204854121031843
 51
90.1006473445397091
  0
ARC
  5
9036
  8
0
 10
565.4826731281498269
 20
108.1574615830657962
 30
0.0
 40
0.2258116291717247
 50
57.5321782777372803
 51
75.1238819666922524
  0
ARC
  5
9037
  8
0
 10
566.3446575797478317
 20
110.1117102588164016
 30
0.0
 40
1.912977706188981
 50
247.2177300682579926
 51
260.846894682516222
  0
ARC
  5
9038
  8
0
 10
566.0335976862722873
 20
108.1837470031906037
 30
0.0
 40
0.0399198077470303
 50
62.3126471006650107
 51
80.2558019632831474
  0
ARC
  5
9039
  8
0
 10
566.0499482375826119
 20
108.2148556311069001
 30
0.0
 40
0.0047760670337983
 50
288.903079541339423
 51
62.5985603354323601
  0
ARC
  5
903A
  8
0
 10
566.0194403333189257
 20
108.2532945271179017
 30
0.0
 40
0.0535991813202522
 50
295.8158665417417978
 51
306.7306439490832872
  0
ARC
  5
903B
  8
0
 10
567.6561539209648117
 20
107.7650105152774955
 30
0.0
 40
0.554574395446446
 50
156.5224959944432044
 51
174.2543302403512939
  0
ARC
  5
903C
  8
0
 10
578.598357560058389
 20
105.9063853209160015
 30
0.0
 40
11.6522874050603704
 50
170.5450505750563934
 51
172.4167234647748899
  0
ARC
  5
903D
  8
0
 10
567.0674148509053794
 20
107.4414487166714025
 30
0.0
 40
0.0196154532745547
 50
172.221524363173387
 51
265.8459798515576722
  0
ARC
  5
903E
  8
0
 10
572.8478004056528334
 20
92.9978373983033748
 30
0.0
 40
20.4049558582851915
 50
80.3362603173654151
 51
89.0967970047212958
  0
ARC
  5
903F
  8
0
 10
574.9531531509609295
 20
106.5884661658167971
 30
0.0
 40
6.6569489340671373
 50
47.7811303536523866
 51
78.5636374021140398
  0
ARC
  5
9040
  8
0
 10
575.563298622673301
 20
107.260917684793796
 30
0.0
 40
5.7489464329551963
 50
27.8042187259597817
 51
47.7811303536523866
  0
ARC
  5
9041
  8
0
 10
579.7419145218309495
 20
109.5590892379730974
 30
0.0
 40
0.984346086265654
 50
1.6882953480096929
 51
22.9254071264699384
  0
ARC
  5
9042
  8
0
 10
580.2572892947541732
 20
109.597167699106194
 30
0.0
 40
0.4686319352421114
 50
305.509871010960012
 51
358.8900858732677079
  0
ARC
  5
9043
  8
0
 10
579.4198568793384538
 20
110.7805547610280001
 30
0.0
 40
1.918352635592357
 50
274.1171641185998737
 51
305.3402431563782784
  0
ARC
  5
9044
  8
0
 10
578.0528325376565135
 20
120.0217365343306994
 30
0.0
 40
11.2556219687913401
 50
271.7265244251263994
 51
277.6828282812800808
  0
ARC
  5
9045
  8
0
 10
574.4590684875568058
 20
205.2535078792485876
 30
0.0
 40
96.5624078260453018
 50
270.1728238438254834
 51
272.3342419661432245
  0
ARC
  5
9046
  8
0
 10
574.1952141755932644
 20
292.7280848715673756
 30
0.0
 40
184.0373827564964984
 50
269.680649812723118
 51
270.1728238438254834
  0
ARC
  5
9047
  8
0
 10
580.4217920848315089
 20
108.6878288499176932
 30
0.0
 40
0.3040593105105928
 50
276.0415306816257726
 51
0.6250387693322093
  0
ARC
  5
9048
  8
0
 10
578.9271271010788951
 20
113.9577337526418006
 30
0.0
 40
5.7776262962683882
 50
268.5292535319911735
 51
285.3216651612153214
  0
ARC
  5
9049
  8
0
 10
578.1532969572625689
 20
-109.1225637919133931
 30
0.0
 40
217.3054749737698899
 50
89.8350673838926355
 51
90.510270619440675
  0
ARC
  5
904A
  8
0
 10
582.0761551545256225
 20
-615.6651496017257159
 30
0.0
 40
723.8631479991374817
 50
90.4636926423579268
 51
90.7050084041089093
  0
LINE
  5
904B
  8
0
 10
580.7258333030890753
 20
108.6911457624266006
 30
0.0
 11
580.7258333030890753
 21
109.5880900902710948
 31
0.0
  0
ARC
  5
904C
  8
0
 10
579.7705351010105232
 20
108.4696501581860986
 30
0.0
 40
0.9806400754571512
 50
5.6536126911770062
 51
13.0539484161891099
  0
ARC
  5
904D
  8
0
 10
519.558645661852097
 20
102.665436454518499
 30
0.0
 40
61.4716322942573328
 50
4.4580043851402573
 51
5.5084515698961543
  0
ARC
  5
904E
  8
0
 10
580.8242547123941222
 20
107.4419680792690031
 30
0.0
 40
0.0201058149732322
 50
267.287307264276194
 51
4.4451780685314963
  0
ARC
  5
904F
  8
0
 10
580.3013926349683516
 20
108.556357094313995
 30
0.0
 40
0.4451224748323316
 50
296.2374158327144187
 51
1.2744177168394579
  0
ARC
  5
9050
  8
0
 10
578.9475926858217463
 20
112.8114487269284041
 30
0.0
 40
4.9058450950739987
 50
271.5813894777072051
 51
288.4253523457942947
  0
ARC
  5
9051
  8
0
 10
572.9034372436251488
 20
331.7433825885850069
 30
0.0
 40
223.9211949667534896
 50
270.0680636040149807
 51
271.5813894777072051
  0
ARC
  5
9052
  8
0
 10
572.9540268314819969
 20
289.1572082332518789
 30
0.0
 40
181.3349905628716101
 50
268.1571253162671837
 51
270.0680636040149807
  0
LINE
  5
9053
  8
0
 10
580.6497632705477372
 20
107.1266092039710998
 30
0.0
 11
577.5716595101207531
 21
107.1266092039710998
 31
0.0
  0
LINE
  5
9054
  8
0
 10
580.4583546274399168
 20
107.1069282261646975
 30
0.0
 11
580.5078720328475583
 21
107.1266092039710998
 31
0.0
  0
LINE
  5
9055
  8
0
 10
580.6497632705477372
 20
107.1266092039710998
 30
0.0
 11
580.6497632705477372
 21
107.3431446370711058
 31
0.0
  0
LINE
  5
9056
  8
0
 10
580.8130850306537241
 20
107.2484971059714951
 30
0.0
 11
580.8130844487293416
 21
107.3628332775506067
 31
0.0
  0
LINE
  5
9057
  8
0
 10
580.6497632705477372
 20
107.1828967794065051
 30
0.0
 11
580.8130850306537241
 21
107.2484971059714951
 31
0.0
  0
LINE
  5
9058
  8
0
 10
580.0018526966389345
 20
107.1745000590874071
 30
0.0
 11
580.12017451838949
 21
107.3431446370711058
 31
0.0
  0
LINE
  5
9059
  8
0
 10
578.2449947117981992
 20
107.1659792827712039
 30
0.0
 11
579.9854222063797806
 21
107.1659792827712039
 31
0.0
  0
LINE
  5
905A
  8
0
 10
578.2293212658676111
 20
107.1744063569504988
 30
0.0
 11
578.1438669490094071
 21
107.3173607309359028
 31
0.0
  0
ARC
  5
905B
  8
0
 10
578.2464076519462424
 20
107.1873961921817937
 30
0.0
 40
0.0214634668347508
 50
217.2437216690553896
 51
266.2254889457047966
  0
ARC
  5
905C
  8
0
 10
579.9855785146531844
 20
107.1857796028085943
 30
0.0
 40
0.0198009369945196
 50
269.547703353980296
 51
325.2743885774793853
  0
LINE
  5
905D
  8
0
 10
578.2212122952248592
 20
107.3431446370711058
 30
0.0
 11
577.5125899610018223
 21
107.1069177320925974
 31
0.0
  0
LINE
  5
905E
  8
0
 10
580.7919867270817349
 20
107.3617752207288021
 30
0.0
 11
580.7925880762147699
 21
107.4218847945710991
 31
0.0
  0
ARC
  5
905F
  8
0
 10
580.7723004121178292
 20
107.3628550574902931
 30
0.0
 40
0.0197159084064156
 50
268.6480959843069058
 51
356.8603494274109948
  0
LINE
  5
9060
  8
0
 10
580.8693163388978746
 20
107.3628318677320976
 30
0.0
 11
580.7725455865413551
 21
108.2891264294027991
 31
0.0
  0
LINE
  5
9061
  8
0
 10
580.7919973180582929
 20
107.3628338721093058
 30
0.0
 11
580.8693163388978746
 21
107.3628318677320976
 31
0.0
  0
ARC
  5
9062
  8
0
 10
577.0442934096176941
 20
107.1268474508558057
 30
0.0
 40
0.0199227642357562
 50
270.3891858172167986
 51
323.1296667147609014
  0
LINE
  5
9063
  8
0
 10
577.1339667945554766
 20
107.2250344008710954
 30
0.0
 11
575.8725899370765546
 21
107.2250344008711949
 31
0.0
  0
LINE
  5
9064
  8
0
 10
575.9400237954467912
 20
107.1158429021393061
 30
0.0
 11
575.8563503905006655
 21
107.2342663548861026
 31
0.0
  0
LINE
  5
9065
  8
0
 10
577.1354014982531453
 20
107.2129502718430984
 30
0.0
 11
577.0602315301181306
 21
107.1148936711309005
 31
0.0
  0
ARC
  5
9066
  8
0
 10
577.1286980852393071
 20
107.2171338240202942
 30
0.0
 40
0.0079017627684218
 50
328.0320076315563256
 51
89.007322137412487
  0
ARC
  5
9067
  8
0
 10
577.1344496660535697
 20
107.2458048391200975
 30
0.0
 40
0.0207760503930052
 50
268.6682266463241717
 51
325.7060810016636196
  0
LINE
  5
9068
  8
0
 10
577.151613968349011
 20
107.2340988151728993
 30
0.0
 11
577.2352086889477505
 21
107.3431446370711058
 31
0.0
  0
ARC
  5
9069
  8
0
 10
575.9565049363038725
 20
107.1266113524087018
 30
0.0
 40
0.0196872427007041
 50
213.1598037566627966
 51
269.8645835233471075
  0
ARC
  5
906A
  8
0
 10
575.8782107508568515
 20
107.2171309915513007
 30
0.0
 40
0.0079723686221116
 50
97.5414337112829486
 51
217.6245076286805045
  0
ARC
  5
906B
  8
0
 10
575.8590969314162749
 20
107.2360404639789948
 30
0.0
 40
0.0032697018328561
 50
121.6976139539034989
 51
212.8601588894258896
  0
ARC
  5
906C
  8
0
 10
575.8733289835864753
 20
107.2452335595634025
 30
0.0
 40
0.0202126742815818
 50
212.8601588894244969
 51
267.9045975969787037
  0
ARC
  5
906D
  8
0
 10
575.8942234517439829
 20
107.1986661858321952
 30
0.0
 40
0.0544981138716017
 50
122.0316066738880068
 51
132.5372974246988917
  0
LINE
  5
906E
  8
0
 10
575.8653183605522372
 20
107.2448672693558933
 30
0.0
 11
576.0128151833841912
 21
107.3431446370711058
 31
0.0
  0
LINE
  5
906F
  8
0
 10
574.035589807047586
 20
106.2491359271711957
 30
0.0
 11
574.035589807047586
 21
107.1069224317461988
 31
0.0
  0
LINE
  5
9070
  8
0
 10
572.3033063425475575
 20
106.2491359271711957
 30
0.0
 11
572.3033063425475575
 21
107.1069208689339973
 31
0.0
  0
LINE
  5
9071
  8
0
 10
574.035589807047586
 20
106.2491359271711957
 30
0.0
 11
572.3033063425475575
 21
106.2491359271711957
 31
0.0
  0
LINE
  5
9072
  8
0
 10
572.5001567362477317
 20
106.2960782329711975
 30
0.0
 11
572.5001567362477317
 21
107.1069210465262955
 31
0.0
  0
LINE
  5
9073
  8
0
 10
573.8387394133476391
 20
106.2960782329711975
 30
0.0
 11
572.5001567362477317
 21
106.2960782329711975
 31
0.0
  0
LINE
  5
9074
  8
0
 10
572.5001567362477317
 20
106.3126339446712052
 30
0.0
 11
573.8387394133476391
 21
106.3126339446712052
 31
0.0
  0
LINE
  5
9075
  8
0
 10
573.8387394133476391
 20
106.2960782329711975
 30
0.0
 11
573.8387394133476391
 21
107.1069222541539006
 31
0.0
  0
LINE
  5
9076
  8
0
 10
572.5395268149477488
 20
106.3528494166712051
 30
0.0
 11
572.5395268149477488
 21
107.1069210820447068
 31
0.0
  0
LINE
  5
9077
  8
0
 10
573.7993693346477357
 20
106.3528494166712051
 30
0.0
 11
573.7993693346477357
 21
107.106922218635404
 31
0.0
  0
LINE
  5
9078
  8
0
 10
572.5395268149477488
 20
106.3528494166712051
 30
0.0
 11
573.7993693346477357
 21
106.3528494166712051
 31
0.0
  0
LINE
  5
9079
  8
0
 10
573.7206291771475435
 20
106.3528494166712051
 30
0.0
 11
573.7206291771475435
 21
106.3126339446712052
 31
0.0
  0
LINE
  5
907A
  8
0
 10
572.6182669724477137
 20
106.3126339446712052
 30
0.0
 11
572.6182669724477137
 21
106.3528494166712051
 31
0.0
  0
LINE
  5
907B
  8
0
 10
572.5296842952476482
 20
106.8704055004225069
 30
0.0
 11
572.5296842952476482
 21
107.1069210731650969
 31
0.0
  0
ARC
  5
907C
  8
0
 10
572.4436678467177444
 20
106.8784003721575004
 30
0.0
 40
0.0863871946052003
 50
310.8365602650267761
 51
354.6898514632625847
  0
LINE
  5
907D
  8
0
 10
570.532730863247707
 20
106.9005054757131035
 30
0.0
 11
570.532730863247707
 21
107.1069192715759044
 31
0.0
  0
LINE
  5
907E
  8
0
 10
571.0191512500032331
 20
106.457486998970694
 30
0.0
 11
572.2054751700452471
 21
106.4616049092327046
 31
0.0
  0
ARC
  5
907F
  8
0
 10
571.015212052845186
 20
106.9417082835220043
 30
0.0
 40
0.4842373072026346
 50
184.8810880588324039
 51
270.4660976299101094
  0
LINE
  5
9080
  8
0
 10
572.2650143312797582
 20
106.5247557357752015
 30
0.0
 11
572.2650142629346419
 21
107.1069208343880064
 31
0.0
  0
ARC
  5
9081
  8
0
 10
572.2018590233643636
 20
106.5246566832954045
 30
0.0
 40
0.063155385592065
 50
273.2824329923776077
 51
0.0898623500170457
  0
LINE
  5
9082
  8
0
 10
572.206688818787029
 20
106.6344848971005064
 30
0.0
 11
570.7996551635613969
 21
106.6344834637424981
 31
0.0
  0
LINE
  5
9083
  8
0
 10
570.749722142140854
 20
106.6880269716766065
 30
0.0
 11
570.7497221403220919
 21
107.1069194673385994
 31
0.0
  0
ARC
  5
9084
  8
0
 10
572.1958809786682423
 20
106.7201106978328937
 30
0.0
 40
0.086305197752565
 50
277.193931254600102
 51
323.2288870361621775
  0
ARC
  5
9085
  8
0
 10
570.7995324504413475
 20
106.6844237758617027
 30
0.0
 40
0.0499404628840506
 50
175.8625243733534091
 51
270.1407866594757934
  0
LINE
  5
9086
  8
0
 10
570.4922827204477471
 20
106.9888139283712007
 30
0.0
 11
570.1800205157477421
 21
106.9888139283712007
 31
0.0
  0
LINE
  5
9087
  8
0
 10
570.1800205157477421
 20
106.9888139283712007
 30
0.0
 11
570.1800205157477421
 21
107.1069189533716042
 31
0.0
  0
LINE
  5
9088
  8
0
 10
570.4922827204477471
 20
106.9888139283712007
 30
0.0
 11
570.4922827204477471
 21
107.1069192350848027
 31
0.0
  0
LINE
  5
9089
  8
0
 10
568.5027387551475613
 20
107.0439320386711017
 30
0.0
 11
568.6076694367385471
 21
107.0439320386711017
 31
0.0
  0
ARC
  5
908A
  8
0
 10
568.5050405028480327
 20
107.0799538386965963
 30
0.0
 40
0.0360952645031099
 50
174.6774614689437897
 51
266.3438424603634758
  0
ARC
  5
908B
  8
0
 10
568.6024406995943536
 20
107.0802864697296002
 30
0.0
 40
0.0367285222913777
 50
278.1845343617965796
 51
4.709653396451321
  0
ARC
  5
908C
  8
0
 10
568.5453154522193699
 20
107.0805324729855954
 30
0.0
 40
0.0370812600726246
 50
175.7165195098073127
 51
260.7631337478421756
  0
LINE
  5
908D
  8
0
 10
565.6129499462332433
 20
109.5880900902710948
 30
0.0
 11
565.6129499462332433
 21
108.6911457624267001
 31
0.0
  0
ARC
  5
908E
  8
0
 10
566.1311887421032907
 20
109.6371487301107948
 30
0.0
 40
0.5302534314626631
 50
192.2200968137933046
 51
232.638015305460101
  0
ARC
  5
908F
  8
0
 10
567.7377301271055785
 20
123.9144544300121993
 30
0.0
 40
15.6673278983433306
 50
263.9437226640080212
 51
269.1568572742912124
  0
ARC
  5
9090
  8
0
 10
575.5592826176904282
 20
1006.3793588246510353
 30
0.0
 40
898.1666303612671527
 50
269.4863342409778966
 51
269.8475476710174235
  0
ARC
  5
9091
  8
0
 10
570.5060303080661015
 20
969.8038882586010914
 30
0.0
 40
861.5920970510110237
 50
270.1771172700840111
 51
270.5665110441894967
  0
ARC
  5
9092
  8
0
 10
578.9137185509489427
 20
119.4946748782029005
 30
0.0
 40
11.2413179126721907
 50
270.5665294460046084
 51
276.8034763470109283
  0
LINE
  5
9093
  8
0
 10
584.0166625451550999
 20
105.7732456352631942
 30
0.0
 11
587.4127279788400529
 21
105.7732456352631942
 31
0.0
  0
LINE
  5
9094
  8
0
 10
587.5361580911132933
 20
108.8338083803621004
 30
0.0
 11
583.8932324328820869
 21
108.8338083803621004
 31
0.0
  0
ARC
  5
9095
  8
0
 10
583.8898986952982568
 20
107.5661518536311974
 30
0.0
 40
1.2676609103264771
 50
89.8493214453085756
 51
106.799585262667307
  0
ARC
  5
9096
  8
0
 10
583.6881081124003003
 20
108.2345319946649056
 30
0.0
 40
0.5694836747519318
 50
106.799585262667307
 51
139.8306940038553137
  0
ARC
  5
9097
  8
0
 10
584.2024833421135099
 20
107.8198275981394971
 30
0.0
 40
1.2301339423446409
 50
140.5248929151130142
 51
172.9604611636123934
  0
ARC
  5
9098
  8
0
 10
585.6813327073980417
 20
107.574541859461803
 30
0.0
 40
2.7286052535734409
 50
171.6543139906200111
 51
183.9065135705895955
  0
ARC
  5
9099
  8
0
 10
585.7409123776865272
 20
107.5774023132980943
 30
0.0
 40
2.7882416324269279
 50
183.881746216460698
 51
190.7784032795152882
  0
ARC
  5
909A
  8
0
 10
584.2847623662154319
 20
107.3080467905537034
 30
0.0
 40
1.3074315855981931
 50
191.1163971215680135
 51
208.0220691230368004
  0
ARC
  5
909B
  8
0
 10
583.9143238914431322
 20
107.1108026747708948
 30
0.0
 40
0.8877532631268753
 50
208.0166324909311868
 51
228.8369209020160895
  0
ARC
  5
909C
  8
0
 10
583.7401340289056861
 20
106.9657977949175063
 30
0.0
 40
0.6648941477472891
 50
231.9142599555339075
 51
261.7109043580641128
  0
ARC
  5
909D
  8
0
 10
583.9654951178489455
 20
108.3318912267351948
 30
0.0
 40
2.0493718623658519
 50
260.9823060747792169
 51
268.0522189155983028
  0
LINE
  5
909E
  8
0
 10
583.8958397440793533
 20
106.2837034523448949
 30
0.0
 11
587.5335507799162542
 21
106.2837034523448949
 31
0.0
  0
ARC
  5
909F
  8
0
 10
586.4186457545254143
 20
107.1440126690974068
 30
0.0
 40
3.4677694706762701
 50
181.8722118563489119
 51
191.8244713352848976
  0
ARC
  5
90A0
  8
0
 10
584.2016573362839154
 20
106.7776442531292957
 30
0.0
 40
1.2264907517806509
 50
196.2995797378416114
 51
217.2131199797665033
  0
ARC
  5
90A1
  8
0
 10
583.7519539266869515
 20
106.4617720430869952
 30
0.0
 40
0.6776247086753854
 50
218.939494974407495
 51
264.7310796421527925
  0
ARC
  5
90A2
  8
0
 10
583.9829832375876322
 20
108.8627785106873063
 30
0.0
 40
3.0897164407247222
 50
264.5536570541386254
 51
270.6245622968002067
  0
ARC
  5
90A3
  8
0
 10
583.7422376202005125
 20
106.0901666593214969
 30
0.0
 40
0.2291549334570563
 50
110.342085516991105
 51
142.8268891149286048
  0
ARC
  5
90A4
  8
0
 10
583.7434055676814069
 20
106.1009086806850945
 30
0.0
 40
0.2237868456935517
 50
145.1996935670404127
 51
271.2988762408078856
  0
LINE
  5
90A5
  8
0
 10
583.748478306429547
 20
105.8771793361031968
 30
0.0
 11
587.6809122175658331
 21
105.8771793361031968
 31
0.0
  0
LINE
  5
90A6
  8
0
 10
582.9527274538245365
 20
107.0307190919554046
 30
0.0
 11
582.9527274538245365
 21
107.574541859461803
 31
0.0
  0
ARC
  5
90A7
  8
0
 10
587.5394918286970096
 20
107.5661518536311974
 30
0.0
 40
1.2676609103264771
 50
73.2004147373326219
 51
90.1506785546849159
  0
ARC
  5
90A8
  8
0
 10
587.7412824115950798
 20
108.2345319946649056
 30
0.0
 40
0.5694836747519318
 50
40.1693059961446366
 51
73.2004147373326219
  0
ARC
  5
90A9
  8
0
 10
587.2269071818818702
 20
107.8198275981394971
 30
0.0
 40
1.2301339423446409
 50
7.0395388363875524
 51
39.4751070848870285
  0
ARC
  5
90AA
  8
0
 10
585.7480578165973384
 20
107.574541859461803
 30
0.0
 40
2.7286052535734409
 50
356.0934864294102908
 51
8.3456860093800067
  0
ARC
  5
90AB
  8
0
 10
585.688478146308853
 20
107.5774023132980943
 30
0.0
 40
2.7882416324269279
 50
349.2215967204837739
 51
356.1182537835392168
  0
ARC
  5
90AC
  8
0
 10
587.1446281577799482
 20
107.3080467905537034
 30
0.0
 40
1.3074315855981931
 50
331.977930876963228
 51
348.8836028784319865
  0
ARC
  5
90AD
  8
0
 10
587.5150666325522479
 20
107.1108026747708948
 30
0.0
 40
0.8877532631268753
 50
311.1630790979838821
 51
331.9833675090687848
  0
ARC
  5
90AE
  8
0
 10
587.689256495089694
 20
106.9657977949175063
 30
0.0
 40
0.6648941477472891
 50
278.2890956419358872
 51
308.0857400444659788
  0
ARC
  5
90AF
  8
0
 10
587.463895406146321
 20
108.3318912267351948
 30
0.0
 40
2.0493718623658519
 50
271.9477810843951033
 51
279.0176939252141892
  0
ARC
  5
90B0
  8
0
 10
585.0107447694698521
 20
107.1440126690974068
 30
0.0
 40
3.4677694706762701
 50
348.1755286647143066
 51
358.1277881436510029
  0
ARC
  5
90B1
  8
0
 10
587.2277331877113511
 20
106.7776442531292957
 30
0.0
 40
1.2264907517806509
 50
322.7868800202335251
 51
343.7004202621574791
  0
ARC
  5
90B2
  8
0
 10
587.677436597308315
 20
106.4617720430869952
 30
0.0
 40
0.6776247086753854
 50
275.2689203578406136
 51
321.0605050255919082
  0
ARC
  5
90B3
  8
0
 10
587.446407286407748
 20
108.8627785106873063
 30
0.0
 40
3.0897164407247222
 50
269.375437703199907
 51
275.4463429458613746
  0
ARC
  5
90B4
  8
0
 10
587.6871529037948676
 20
106.0901666593214969
 30
0.0
 40
0.2291549334570563
 50
37.1731108850713312
 51
69.6579144830088239
  0
ARC
  5
90B5
  8
0
 10
587.685984956314087
 20
106.1009086806850945
 30
0.0
 40
0.2237868456935517
 50
268.7011237591855206
 51
34.8003064329595375
  0
LINE
  5
90B6
  8
0
 10
588.4766630701708436
 20
107.0307190919554046
 30
0.0
 11
588.4766630701708436
 21
107.574541859461803
 31
0.0
  0
ARC
  5
90B7
  8
0
 10
563.9353613661178315
 20
108.080335309753707
 30
0.0
 40
0.1392692617611947
 50
126.6417295931894955
 51
152.3487177393282082
  0
ARC
  5
90B8
  8
0
 10
563.8560493665614786
 20
108.121889052626301
 30
0.0
 40
0.0497309636963813
 50
152.3487177393282082
 51
241.0473055856809879
  0
ENDSEC
  0
EOF
