  0
SECTION
  2
HEADER
  9
$ACADVER
  1
AC1009
  9
$INSBASE
 10
3803.9939994917281183
 20
118.1610237365160998
 30
0.0
  9
$EXTMIN
 10
3802.8920548797668744
 20
117.1708543120039963
 30
-0.0000000349181948
  9
$EXTMAX
 10
3809.285614745933799
 20
119.1525484213367037
 30
0.0000000814935746
  9
$LIMMIN
 10
0.0
 20
0.0
  9
$LIMMAX
 10
11.6929133858000007
 20
8.2677165353999982
  9
$ORTHOMODE
 70
     0
  9
$REGENMODE
 70
     1
  9
$FILLMODE
 70
     1
  9
$QTEXTMODE
 70
     0
  9
$MIRRTEXT
 70
     0
  9
$DRAGMODE
 70
     2
  9
$LTSCALE
 40
0.6431102362
  9
$OSMODE
 70
  4095
  9
$ATTMODE
 70
     1
  9
$TEXTSIZE
 40
0.2
  9
$TRACEWID
 40
0.05
  9
$TEXTSTYLE
  7
STANDARD
  9
$CLAYER
  8
0
  9
$CELTYPE
  6
BYLAYER
  9
$CECOLOR
 62
   256
  9
$DIMSCALE
 40
1.0
  9
$DIMASZ
 40
0.1875
  9
$DIMEXO
 40
0.0625
  9
$DIMDLI
 40
0.4443307087
  9
$DIMRND
 40
0.0
  9
$DIMDLE
 40
0.0
  9
$DIMEXE
 40
0.125
  9
$DIMTP
 40
0.01
  9
$DIMTM
 40
0.01
  9
$DIMTXT
 40
2.0
  9
$DIMCEN
 40
0.1052362205
  9
$DIMTSZ
 40
0.0
  9
$DIMTOL
 70
     1
  9
$DIMLIM
 70
     0
  9
$DIMTIH
 70
     1
  9
$DIMTOH
 70
     1
  9
$DIMSE1
 70
     0
  9
$DIMSE2
 70
     0
  9
$DIMTAD
 70
     0
  9
$DIMZIN
 70
     0
  9
$DIMBLK
  1

  9
$DIMASO
 70
     1
  9
$DIMSHO
 70
     1
  9
$DIMPOST
  1
\X
  9
$DIMAPOST
  1

  9
$DIMALT
 70
     1
  9
$DIMALTD
 70
     2
  9
$DIMALTF
 40
25.3999999999999986
  9
$DIMLFAC
 40
1.0
  9
$DIMTOFL
 70
     0
  9
$DIMTVP
 40
0.0
  9
$DIMTIX
 70
     0
  9
$DIMSOXD
 70
     0
  9
$DIMSAH
 70
     0
  9
$DIMBLK1
  1

  9
$DIMBLK2
  1

  9
$DIMSTYLE
  2
STANDARD
  9
$DIMCLRD
 70
     0
  9
$DIMCLRE
 70
     0
  9
$DIMCLRT
 70
     0
  9
$DIMTFAC
 40
1.0
  9
$DIMGAP
 40
0.09
  9
$LUNITS
 70
     2
  9
$LUPREC
 70
     4
  9
$SKETCHINC
 40
0.1
  9
$FILLETRAD
 40
0.0
  9
$AUNITS
 70
     0
  9
$AUPREC
 70
     0
  9
$MENU
  1
.
  9
$ELEVATION
 40
0.0
  9
$PELEVATION
 40
0.0
  9
$THICKNESS
 40
0.0
  9
$LIMCHECK
 70
     0
  9
$BLIPMODE
 70
     0
  9
$CHAMFERA
 40
0.0
  9
$CHAMFERB
 40
0.0
  9
$SKPOLY
 70
     0
  9
$TDCREATE
 40
2458060.468368056230247
  9
$TDUPDATE
 40
2459591.81167824100703
  9
$TDINDWG
 40
0.320296412
  9
$TDUSRTIMER
 40
0.320296412
  9
$USRTIMER
 70
     1
  9
$ANGBASE
 50
0.0
  9
$ANGDIR
 70
     0
  9
$PDMODE
 70
     0
  9
$PDSIZE
 40
0.3125
  9
$PLINEWID
 40
0.0
  9
$COORDS
 70
     1
  9
$SPLFRAME
 70
     0
  9
$SPLINETYPE
 70
     6
  9
$SPLINESEGS
 70
     8
  9
$ATTDIA
 70
     1
  9
$ATTREQ
 70
     1
  9
$HANDLING
 70
     1
  9
$HANDSEED
  5
6ABA
  9
$SURFTAB1
 70
     6
  9
$SURFTAB2
 70
     6
  9
$SURFTYPE
 70
     6
  9
$SURFU
 70
     6
  9
$SURFV
 70
     6
  9
$UCSNAME
  2

  9
$UCSORG
 10
0.0
 20
0.0
 30
0.0
  9
$UCSXDIR
 10
1.0
 20
0.0
 30
0.0
  9
$UCSYDIR
 10
0.0
 20
1.0
 30
0.0
  9
$PUCSNAME
  2

  9
$PUCSORG
 10
0.0
 20
0.0
 30
0.0
  9
$PUCSXDIR
 10
1.0
 20
0.0
 30
0.0
  9
$PUCSYDIR
 10
0.0
 20
1.0
 30
0.0
  9
$USERI1
 70
     0
  9
$USERI2
 70
     0
  9
$USERI3
 70
     0
  9
$USERI4
 70
     0
  9
$USERI5
 70
     0
  9
$USERR1
 40
0.0
  9
$USERR2
 40
0.0
  9
$USERR3
 40
0.0
  9
$USERR4
 40
0.0
  9
$USERR5
 40
0.0
  9
$WORLDVIEW
 70
     1
  9
$SHADEDGE
 70
     3
  9
$SHADEDIF
 70
    70
  9
$TILEMODE
 70
     1
  9
$MAXACTVP
 70
    64
  9
$PLIMCHECK
 70
     0
  9
$PEXTMIN
 10
1.0000000000000000E+20
 20
1.0000000000000000E+20
 30
1.0000000000000000E+20
  9
$PEXTMAX
 10
-1.0000000000000000E+20
 20
-1.0000000000000000E+20
 30
-1.0000000000000000E+20
  9
$PLIMMIN
 10
0.0
 20
0.0
  9
$PLIMMAX
 10
12.0
 20
9.0
  9
$UNITMODE
 70
     0
  9
$VISRETAIN
 70
     1
  9
$PLINEGEN
 70
     0
  9
$PSLTSCALE
 70
     1
  0
ENDSEC
  0
SECTION
  2
TABLES
  0
TABLE
  2
VPORT
 70
     1
  0
VPORT
  2
*ACTIVE
 70
     0
 10
0.0
 20
0.0
 11
1.0
 21
1.0
 12
0.0550213362876093
 22
0.0006791803910744
 13
0.0
 23
0.0
 14
1.0
 24
1.0
 15
0.0
 25
0.0
 16
0.0
 26
0.0
 36
17.2328995919326218
 17
3806.0338134765620453
 27
118.1610221862792969
 37
0.0
 40
3.845180577582211
 41
1.67063492063492
 42
50.0
 43
0.0
 44
0.0
 50
0.0
 51
0.0
 71
     0
 72
   100
 73
     1
 74
     1
 75
     0
 76
     0
 77
     0
 78
     0
  0
ENDTAB
  0
TABLE
  2
LTYPE
 70
     2
  0
LTYPE
  2
CONTINUOUS
 70
     0
  3
Solid line
 72
    65
 73
     0
 40
0.0
  0
LTYPE
  2
PHANTOM2
 70
     0
  3
___ _ _ ___ _ _ ___ _ _ ___ _ _
 72
    65
 73
     6
 40
1.25
 49
0.625
 49
-0.125
 49
0.125
 49
-0.125
 49
0.125
 49
-0.125
  0
ENDTAB
  0
TABLE
  2
LAYER
 70
     2
  0
LAYER
  2
0
 70
     0
 62
   255
  6
CONTINUOUS
  0
LAYER
  2
DEFPOINTS
 70
     0
 62
     7
  6
CONTINUOUS
  0
ENDTAB
  0
TABLE
  2
STYLE
 70
     1
  0
STYLE
  2
STANDARD
 70
     0
 40
0.0
 41
0.8
 50
0.0
 71
     0
 42
0.2
  3
txt
  4

  0
ENDTAB
  0
TABLE
  2
VIEW
 70
     0
  0
ENDTAB
  0
TABLE
  2
UCS
 70
     0
  0
ENDTAB
  0
TABLE
  2
APPID
 70
     9
  0
APPID
  2
ACAD
 70
     0
  0
APPID
  2
ACAD_MLEADERVER
 70
     0
  0
APPID
  2
ACAD_EXEMPT_FROM_CAD_STANDARDS
 70
     0
  0
APPID
  2
ACAD_NAV_VCDISPLAY
 70
     0
  0
APPID
  2
ACAECLAYERSTANDARD
 70
     0
  0
APPID
  2
ACCMTRANSPARENCY
 70
     0
  0
APPID
  2
ACAD_DSTYLE_DIMJAG
 70
     0
  0
APPID
  2
ACAD_DSTYLE_DIMTALN
 70
     0
  0
APPID
  2
ACDBATTR
 70
     0
  0
ENDTAB
  0
TABLE
  2
DIMSTYLE
 70
     1
  0
DIMSTYLE
  2
STANDARD
 70
     0
  3

  4

  5

  6

  7

 40
1.0
 41
0.1875
 42
0.0625
 43
0.38
 44
0.125
 45
0.0
 46
0.0
 47
0.01
 48
0.01
140
0.15625
141
0.09
142
0.0
143
25.3999999999999986
144
1.0
145
0.0
146
1.0
147
0.09
 71
     1
 72
     0
 73
     1
 74
     1
 75
     0
 76
     0
 77
     0
 78
     4
170
     0
171
     2
172
     0
173
     0
174
     0
175
     0
176
     0
177
     0
178
     0
  0
ENDTAB
  0
ENDSEC
  0
SECTION
  2
BLOCKS
  0
BLOCK
  8
0
  2
$MODEL_SPACE
 70
     0
 10
0.0
 20
0.0
 30
0.0
  3
$MODEL_SPACE
  1

  0
ENDBLK
  5
21
  8
0
  0
BLOCK
 67
     1
  8
0
  2
$PAPER_SPACE
 70
     0
 10
0.0
 20
0.0
 30
0.0
  3
$PAPER_SPACE
  1

  0
ENDBLK
  5
1D
 67
     1
  8
0
  0
BLOCK
  8
0
  2
_FILLED
 70
     0
 10
0.0
 20
0.0
 30
0.0
  3
_FILLED
  1

  0
SOLID
  5
6678
  8
0
  6
BYBLOCK
 62
     0
 10
0.0
 20
0.0
 30
0.0
 11
-1.0
 21
0.1666666667
 31
0.0
 12
-1.0
 22
-0.1666666667
 32
0.0
 13
-1.0
 23
-0.1666666667
 33
0.0
  0
ENDBLK
  5
6679
  8
0
  6
BYBLOCK
 62
     0
  0
BLOCK
  8
0
  2
A$C54487C95
 70
     0
 10
0.0
 20
0.0
 30
0.0
  3
A$C54487C95
  1

  0
LINE
  5
673D
  8
0
 10
5.8464566487041436
 20
6.0404153427668481
 30
0.0
 11
6.4763779085041442
 21
6.0404153427668481
 31
0.0
  0
LINE
  5
673E
  8
0
 10
5.7677164912041441
 20
7.2637795189668486
 30
0.0
 11
6.5551180660041437
 21
7.2637795189668486
 31
0.0
  0
LINE
  5
673F
  8
0
 10
4.9803149164041471
 20
7.3622047158668478
 30
0.0
 11
7.3425196408041451
 21
7.3622047158668478
 31
0.0
  0
LINE
  5
6740
  8
0
 10
5.7677164912041441
 20
7.2637795189668486
 30
0.0
 11
4.9803149164041471
 21
7.3622047158668478
 31
0.0
  0
LINE
  5
6741
  8
0
 10
7.3425196408041407
 20
7.4606299126668487
 30
0.0
 11
4.9803149164041471
 21
7.4606299126668487
 31
0.0
  0
LINE
  5
6742
  8
0
 10
4.9803149164041471
 20
7.4606299126668487
 30
0.0
 11
4.9803149164041471
 21
7.3622047158668478
 31
0.0
  0
LINE
  5
6743
  8
0
 10
5.6692912943041467
 20
12.1929133772668497
 30
0.0
 11
5.669291294304144
 21
12.2958769695668497
 31
0.0
  0
LINE
  5
6744
  8
0
 10
5.8464566487041436
 20
6.0404153427668481
 30
0.0
 11
5.8464566487041436
 21
7.2637795189668486
 31
0.0
  0
LINE
  5
6745
  8
0
 10
5.8464566487041436
 20
7.4606299126668487
 30
0.0
 11
5.8464566487041427
 21
12.1850393615668402
 31
0.0
  0
LINE
  5
6746
  8
0
 10
5.6771653101041428
 20
12.1850393615668402
 30
0.0
 11
6.6456692471041441
 21
12.1850393615668402
 31
0.0
  0
LINE
  5
6747
  8
0
 10
6.6462888913414631
 20
12.3037265660760902
 30
0.0
 11
5.6765486425041436
 21
12.3037268010668406
 31
0.0
  0
ARC
  5
6748
  8
0
 10
6.1614172784975141
 20
6.1614173115611566
 30
0.0
 40
6.1614173255056901
 50
85.4864522401916389
 51
89.9999999990084234
  0
ARC
  5
6749
  8
0
 10
6.1614172784975043
 20
6.1614173115608697
 30
0.0
 40
6.161417325505977
 50
89.9999999990083381
 51
94.513519991591906
  0
ARC
  5
674A
  8
0
 10
6.1614172785894379
 20
7.3818897552938179
 30
0.0
 40
1.3779527560269691
 50
256.787019642563223
 51
270.0000000006115215
  0
ARC
  5
674B
  8
0
 10
6.1614172785894388
 20
7.3818897552938143
 30
0.0
 40
1.377952756026964
 50
270.0000000006114078
 51
283.2129803594884265
  0
ARC
  5
674C
  8
0
 10
6.1614172786041443
 20
6.6732283378668491
 30
0.0
 40
0.9842519684999999
 50
108.6629248837136004
 51
126.8698976458440058
  0
ARC
  5
674D
  8
0
 10
6.1614172786041443
 20
6.6732283378668491
 30
0.0
 40
0.9842519684999999
 50
139.798859076447286
 51
40.2105649248999626
  0
ARC
  5
674E
  8
0
 10
5.6771653114183733
 20
12.2958769689052403
 30
0.0
 40
0.0078740171142314
 50
94.4918298517059725
 51
179.999995185757399
  0
ARC
  5
674F
  8
0
 10
5.6771653101748516
 20
12.1929133774375504
 30
0.0
 40
0.007874015870708
 50
180.0000012421733118
 51
269.9999994854831016
  0
LINE
  5
6750
  8
0
 10
6.5551180660041437
 20
7.2637795189668486
 30
0.0
 11
7.3425196408041407
 21
7.3622047158668478
 31
0.0
  0
LINE
  5
6751
  8
0
 10
7.3425196408041407
 20
7.4606299126668487
 30
0.0
 11
7.3425196408041407
 21
7.3622047158668478
 31
0.0
  0
LINE
  5
6752
  8
0
 10
6.6535432629041438
 20
12.1929133772668497
 30
0.0
 11
6.6535432629041411
 21
12.2958769695668497
 31
0.0
  0
LINE
  5
6753
  8
0
 10
6.4763779085041442
 20
6.0404153427668481
 30
0.0
 11
6.4763779085041442
 21
7.2637795189668486
 31
0.0
  0
LINE
  5
6754
  8
0
 10
6.4763779085041442
 20
7.4606299126668487
 30
0.0
 11
6.4763779085041442
 21
12.1850393615668402
 31
0.0
  0
ARC
  5
6755
  8
0
 10
6.1614172786041443
 20
6.6732283378668491
 30
0.0
 40
0.9842519684999999
 50
53.1301023541560227
 51
71.3370751162863286
  0
ARC
  5
6756
  8
0
 10
6.6456692468852259
 20
12.2958769693339605
 30
0.0
 40
0.0078740160189179
 50
0.0000016945883387
 51
85.4864507692484494
  0
ARC
  5
6757
  8
0
 10
6.6456692470334309
 20
12.1929133774375593
 30
0.0
 40
0.0078740158707138
 50
270.0000005145492992
 51
359.9999987577878073
  0
LINE
  5
6758
  8
0
 62
     1
 10
6.1614172786041443
 20
6.6732283378668491
 30
0.0
 11
8.8118241314789145
 21
3.9807551974761211
 31
0.0
  0
ENDBLK
  5
675C
  8
0
  0
ENDSEC
  0
SECTION
  2
ENTITIES
  0
ATTDEF
  5
3930
  8
DEFPOINTS
 10
3803.9946864140802063
 20
118.1581343997251992
 30
0.0
 40
0.001
  1
K-27292BR
  3

  2
MODELNUMBER
 70
     0
1001
ACDBATTR
1070
     0
1070
     1
  0
ATTDEF
  5
3931
  8
DEFPOINTS
 10
3803.9946864140802063
 20
118.1564677330585056
 30
0.0
 40
0.001
  1
ELATE
  3

  2
TRADENAME
 70
     0
1001
ACDBATTR
1070
     0
1070
     1
  0
ATTDEF
  5
3932
  8
DEFPOINTS
 10
3803.9946864140802063
 20
118.1548010663917978
 30
0.0
 40
0.001
  1
TOILET TISSUE HOLDER
  3

  2
PRODUCT
 70
     0
1001
ACDBATTR
1070
     0
1070
     1
  0
LINE
  5
6955
  8
0
 10
3803.3611864966278517
 20
118.4759843664160996
 30
0.0
 11
3803.3611864966278517
 21
117.8460631066161
 31
0.0
  0
LINE
  5
6956
  8
0
 10
3808.9231333499278662
 20
118.6531497208161028
 30
0.0
 11
3809.0260969422279231
 21
118.6531497208161028
 31
0.0
  0
LINE
  5
6957
  8
0
 10
3803.3611864966278517
 20
118.4759843664160996
 30
0.0
 11
3808.9152593342278124
 21
118.4759843664160996
 31
0.0
  0
LINE
  5
6958
  8
0
 10
3808.9152593342278124
 20
118.645275705016104
 30
0.0
 11
3808.9152593342278124
 21
117.6767717680160956
 31
0.0
  0
LINE
  5
6959
  8
0
 10
3809.0339465387360178
 20
117.6761521237787065
 30
0.0
 11
3809.0339467737280756
 21
118.6458923726161032
 31
0.0
  0
ARC
  5
695A
  8
0
 10
3802.8575295010059563
 20
118.1630412476205976
 30
0.0
 40
6.1955781362915294
 50
355.4926746709355143
 51
359.9813423588706769
  0
ARC
  5
695B
  8
0
 10
3802.8575290784319805
 20
118.1590062130706968
 30
0.0
 40
6.1955785588689283
 50
0.0186577539828448
 51
4.5072975225886296
  0
ARC
  5
695C
  8
0
 10
3804.7034056780271385
 20
118.1608936231504998
 30
0.0
 40
1.3787075496308121
 50
166.7888300569995863
 51
179.994592800540488
  0
ARC
  5
695D
  8
0
 10
3804.7034056780271385
 20
118.161153849911102
 30
0.0
 40
1.378707549630712
 50
180.0054072006815886
 51
193.2111699450518927
  0
ARC
  5
695E
  8
0
 10
3803.9939994917281183
 20
118.1610237365160998
 30
0.0
 40
0.9842519684999999
 50
18.6629248837138313
 51
341.3370751162862007
  0
ARC
  5
695F
  8
0
 10
3809.026096941565811
 20
118.6452757037017989
 30
0.0
 40
0.0078740171142314
 50
4.4918298517061617
 51
89.9999951857463145
  0
ARC
  5
6960
  8
0
 10
3808.9231333500988512
 20
118.645275704945405
 30
0.0
 40
0.007874015870708
 50
90.0000012421770776
 51
179.9999994854833005
  0
LINE
  5
6961
  8
0
 10
3808.9231333499278662
 20
117.6688977522160968
 30
0.0
 11
3809.0260969422279231
 21
117.6688977522160968
 31
0.0
  0
LINE
  5
6962
  8
0
 10
3803.3611864966278517
 20
117.8460631066161
 30
0.0
 11
3808.9152593342278124
 21
117.8460631066161
 31
0.0
  0
ARC
  5
6963
  8
0
 10
3809.0260969419950925
 20
117.6767717682349996
 30
0.0
 40
0.0078740160189179
 50
270.0000016945979269
 51
355.4864507692494158
  0
ARC
  5
6964
  8
0
 10
3808.9231333500988512
 20
117.6767717680867946
 30
0.0
 40
0.0078740158707138
 50
180.0000005145492139
 51
269.9999987577967886
  0
ENDSEC
  0
EOF
