  0
SECTION
  2
HEADER
  9
$ACADVER
  1
AC1009
  9
$INSBASE
 10
3823.7330882899232165
 20
103.0550160936966932
 30
0.0
  9
$EXTMIN
 10
3821.8000174233670805
 20
102.0707641251967033
 30
0.0
  9
$EXTMAX
 10
3823.7449647007488238
 20
104.0392680621966974
 30
0.0
  9
$LIMMIN
 10
0.0
 20
0.0
  9
$LIMMAX
 10
11.6929133858000007
 20
8.2677165353999982
  9
$ORTHOMODE
 70
     0
  9
$REGENMODE
 70
     1
  9
$FILLMODE
 70
     1
  9
$QTEXTMODE
 70
     0
  9
$MIRRTEXT
 70
     0
  9
$DRAGMODE
 70
     2
  9
$LTSCALE
 40
0.6431102362
  9
$OSMODE
 70
  4095
  9
$ATTMODE
 70
     1
  9
$TEXTSIZE
 40
0.2
  9
$TRACEWID
 40
0.05
  9
$TEXTSTYLE
  7
STANDARD
  9
$CLAYER
  8
0
  9
$CELTYPE
  6
BYLAYER
  9
$CECOLOR
 62
   256
  9
$DIMSCALE
 40
1.0
  9
$DIMASZ
 40
0.1875
  9
$DIMEXO
 40
0.0625
  9
$DIMDLI
 40
0.4443307087
  9
$DIMRND
 40
0.0
  9
$DIMDLE
 40
0.0
  9
$DIMEXE
 40
0.125
  9
$DIMTP
 40
0.01
  9
$DIMTM
 40
0.01
  9
$DIMTXT
 40
2.0
  9
$DIMCEN
 40
0.1052362205
  9
$DIMTSZ
 40
0.0
  9
$DIMTOL
 70
     1
  9
$DIMLIM
 70
     0
  9
$DIMTIH
 70
     1
  9
$DIMTOH
 70
     1
  9
$DIMSE1
 70
     0
  9
$DIMSE2
 70
     0
  9
$DIMTAD
 70
     0
  9
$DIMZIN
 70
     0
  9
$DIMBLK
  1

  9
$DIMASO
 70
     1
  9
$DIMSHO
 70
     1
  9
$DIMPOST
  1
\X
  9
$DIMAPOST
  1

  9
$DIMALT
 70
     1
  9
$DIMALTD
 70
     2
  9
$DIMALTF
 40
25.3999999999999986
  9
$DIMLFAC
 40
1.0
  9
$DIMTOFL
 70
     0
  9
$DIMTVP
 40
0.0
  9
$DIMTIX
 70
     0
  9
$DIMSOXD
 70
     0
  9
$DIMSAH
 70
     0
  9
$DIMBLK1
  1

  9
$DIMBLK2
  1

  9
$DIMSTYLE
  2
STANDARD
  9
$DIMCLRD
 70
     0
  9
$DIMCLRE
 70
     0
  9
$DIMCLRT
 70
     0
  9
$DIMTFAC
 40
1.0
  9
$DIMGAP
 40
0.09
  9
$LUNITS
 70
     2
  9
$LUPREC
 70
     4
  9
$SKETCHINC
 40
0.1
  9
$FILLETRAD
 40
0.0
  9
$AUNITS
 70
     0
  9
$AUPREC
 70
     0
  9
$MENU
  1
.
  9
$ELEVATION
 40
0.0
  9
$PELEVATION
 40
0.0
  9
$THICKNESS
 40
0.0
  9
$LIMCHECK
 70
     0
  9
$BLIPMODE
 70
     0
  9
$CHAMFERA
 40
0.0
  9
$CHAMFERB
 40
0.0
  9
$SKPOLY
 70
     0
  9
$TDCREATE
 40
2458060.468368056230247
  9
$TDUPDATE
 40
2459591.80414351914078
  9
$TDINDWG
 40
0.3598334491
  9
$TDUSRTIMER
 40
0.3598334491
  9
$USRTIMER
 70
     1
  9
$ANGBASE
 50
0.0
  9
$ANGDIR
 70
     0
  9
$PDMODE
 70
     0
  9
$PDSIZE
 40
0.3125
  9
$PLINEWID
 40
0.0
  9
$COORDS
 70
     1
  9
$SPLFRAME
 70
     0
  9
$SPLINETYPE
 70
     6
  9
$SPLINESEGS
 70
     8
  9
$ATTDIA
 70
     1
  9
$ATTREQ
 70
     1
  9
$HANDLING
 70
     1
  9
$HANDSEED
  5
6ADF
  9
$SURFTAB1
 70
     6
  9
$SURFTAB2
 70
     6
  9
$SURFTYPE
 70
     6
  9
$SURFU
 70
     6
  9
$SURFV
 70
     6
  9
$UCSNAME
  2

  9
$UCSORG
 10
0.0
 20
0.0
 30
0.0
  9
$UCSXDIR
 10
1.0
 20
0.0
 30
0.0
  9
$UCSYDIR
 10
0.0
 20
1.0
 30
0.0
  9
$PUCSNAME
  2

  9
$PUCSORG
 10
0.0
 20
0.0
 30
0.0
  9
$PUCSXDIR
 10
1.0
 20
0.0
 30
0.0
  9
$PUCSYDIR
 10
0.0
 20
1.0
 30
0.0
  9
$USERI1
 70
     0
  9
$USERI2
 70
     0
  9
$USERI3
 70
     0
  9
$USERI4
 70
     0
  9
$USERI5
 70
     0
  9
$USERR1
 40
0.0
  9
$USERR2
 40
0.0
  9
$USERR3
 40
0.0
  9
$USERR4
 40
0.0
  9
$USERR5
 40
0.0
  9
$WORLDVIEW
 70
     1
  9
$SHADEDGE
 70
     3
  9
$SHADEDIF
 70
    70
  9
$TILEMODE
 70
     1
  9
$MAXACTVP
 70
    64
  9
$PLIMCHECK
 70
     0
  9
$PEXTMIN
 10
1.0000000000000000E+20
 20
1.0000000000000000E+20
 30
1.0000000000000000E+20
  9
$PEXTMAX
 10
-1.0000000000000000E+20
 20
-1.0000000000000000E+20
 30
-1.0000000000000000E+20
  9
$PLIMMIN
 10
0.0
 20
0.0
  9
$PLIMMAX
 10
12.0
 20
9.0
  9
$UNITMODE
 70
     0
  9
$VISRETAIN
 70
     1
  9
$PLINEGEN
 70
     0
  9
$PSLTSCALE
 70
     1
  0
ENDSEC
  0
SECTION
  2
TABLES
  0
TABLE
  2
VPORT
 70
     1
  0
VPORT
  2
*ACTIVE
 70
     0
 10
0.0
 20
0.0
 11
1.0
 21
1.0
 12
4.017001528408854
 22
1.059429698433028
 13
0.0
 23
0.0
 14
1.0
 24
1.0
 15
0.0
 25
0.0
 16
0.0
 26
0.0
 36
7.796482015624326
 17
3818.7554895336488698
 27
101.9955863952636008
 37
0.0
 40
1.9841063460118831
 41
1.67063492063492
 42
50.0
 43
0.0
 44
0.0
 50
0.0
 51
0.0
 71
     0
 72
   100
 73
     1
 74
     1
 75
     0
 76
     0
 77
     0
 78
     0
  0
ENDTAB
  0
TABLE
  2
LTYPE
 70
     2
  0
LTYPE
  2
CONTINUOUS
 70
     0
  3
Solid line
 72
    65
 73
     0
 40
0.0
  0
LTYPE
  2
PHANTOM2
 70
     0
  3
___ _ _ ___ _ _ ___ _ _ ___ _ _
 72
    65
 73
     6
 40
1.25
 49
0.625
 49
-0.125
 49
0.125
 49
-0.125
 49
0.125
 49
-0.125
  0
ENDTAB
  0
TABLE
  2
LAYER
 70
     2
  0
LAYER
  2
0
 70
     0
 62
   255
  6
CONTINUOUS
  0
LAYER
  2
DEFPOINTS
 70
     0
 62
     7
  6
CONTINUOUS
  0
ENDTAB
  0
TABLE
  2
STYLE
 70
     1
  0
STYLE
  2
STANDARD
 70
     0
 40
0.0
 41
0.8
 50
0.0
 71
     0
 42
0.2
  3
txt
  4

  0
ENDTAB
  0
TABLE
  2
VIEW
 70
     0
  0
ENDTAB
  0
TABLE
  2
UCS
 70
     0
  0
ENDTAB
  0
TABLE
  2
APPID
 70
     9
  0
APPID
  2
ACAD
 70
     0
  0
APPID
  2
ACAD_MLEADERVER
 70
     0
  0
APPID
  2
ACAD_EXEMPT_FROM_CAD_STANDARDS
 70
     0
  0
APPID
  2
ACAD_NAV_VCDISPLAY
 70
     0
  0
APPID
  2
ACAECLAYERSTANDARD
 70
     0
  0
APPID
  2
ACCMTRANSPARENCY
 70
     0
  0
APPID
  2
ACAD_DSTYLE_DIMJAG
 70
     0
  0
APPID
  2
ACAD_DSTYLE_DIMTALN
 70
     0
  0
APPID
  2
ACDBATTR
 70
     0
  0
ENDTAB
  0
TABLE
  2
DIMSTYLE
 70
     1
  0
DIMSTYLE
  2
STANDARD
 70
     0
  3

  4

  5

  6

  7

 40
1.0
 41
0.1875
 42
0.0625
 43
0.38
 44
0.125
 45
0.0
 46
0.0
 47
0.01
 48
0.01
140
0.15625
141
0.09
142
0.0
143
25.3999999999999986
144
1.0
145
0.0
146
1.0
147
0.09
 71
     1
 72
     0
 73
     1
 74
     1
 75
     0
 76
     0
 77
     0
 78
     4
170
     0
171
     2
172
     0
173
     0
174
     0
175
     0
176
     0
177
     0
178
     0
  0
ENDTAB
  0
ENDSEC
  0
SECTION
  2
BLOCKS
  0
BLOCK
  8
0
  2
$MODEL_SPACE
 70
     0
 10
0.0
 20
0.0
 30
0.0
  3
$MODEL_SPACE
  1

  0
ENDBLK
  5
21
  8
0
  0
BLOCK
 67
     1
  8
0
  2
$PAPER_SPACE
 70
     0
 10
0.0
 20
0.0
 30
0.0
  3
$PAPER_SPACE
  1

  0
ENDBLK
  5
1D
 67
     1
  8
0
  0
ENDSEC
  0
SECTION
  2
ENTITIES
  0
ATTDEF
  5
3930
  8
DEFPOINTS
 10
3823.7342980340799841
 20
103.0553366430203965
 30
0.0
 40
0.001
  1
K-27290BR
  3

  2
MODELNUMBER
 70
     0
1001
ACDBATTR
1070
     0
1070
     1
  0
ATTDEF
  5
3931
  8
DEFPOINTS
 10
3823.7342980340799841
 20
103.053669976353703
 30
0.0
 40
0.001
  1
ELATE
  3

  2
TRADENAME
 70
     0
1001
ACDBATTR
1070
     0
1070
     1
  0
ATTDEF
  5
3932
  8
DEFPOINTS
 10
3823.7342980340799841
 20
103.0520033096870947
 30
0.0
 40
0.001
  1
ROBE HOOK
  3

  2
PRODUCT
 70
     0
1001
ACDBATTR
1070
     0
1070
     1
  0
LINE
  5
69C0
  8
0
 10
3823.3187420254230346
 20
104.0392680621966974
 30
0.0
 11
3823.7330882899232165
 21
104.0392680621966974
 31
0.0
  0
ARC
  5
69C1
  8
0
 10
3823.3187420254230346
 20
103.9998680621966969
 30
0.0
 40
0.0394
 50
90.0
 51
180.0
  0
LINE
  5
69C2
  8
0
 10
3821.8204140266229842
 20
103.4218430390467063
 30
0.0
 11
3821.8204140266229842
 21
102.6880920724466932
 31
0.0
  0
LINE
  5
69C3
  8
0
 10
3821.9195140679230462
 20
102.6927518077467028
 30
0.0
 11
3821.9195140679230462
 21
103.4171833037466968
 31
0.0
  0
ARC
  5
69C4
  8
0
 10
3821.9077140679228251
 20
103.4171833037466968
 30
0.0
 40
0.0118
 50
0.0
 51
90.0
  0
ARC
  5
69C5
  8
0
 10
3821.9589140679231605
 20
102.759710581896698
 30
0.0
 40
0.0394
 50
90.0
 51
180.0
  0
LINE
  5
69C6
  8
0
 10
3821.9077140679228251
 20
103.4289833037467048
 30
0.0
 11
3821.8282537800228056
 21
103.4289833037467048
 31
0.0
  0
LINE
  5
69C7
  8
0
 10
3821.9589140679231605
 20
103.3109216054967021
 30
0.0
 11
3823.2793420254229204
 21
103.3109216054967021
 31
0.0
  0
ARC
  5
69C8
  8
0
 10
3821.9589140679231605
 20
103.3503216054967027
 30
0.0
 40
0.0394
 50
180.0
 51
270.0
  0
ARC
  5
69C9
  8
0
 10
3825.1097263973902045
 20
103.0549675557466998
 30
0.0
 40
3.3097089740223748
 50
173.6357836190776993
 51
186.364216380922187
  0
ARC
  5
69CA
  8
0
 10
3821.8282537800541832
 20
103.4211092879664022
 30
0.0
 40
0.0078740157802581
 50
90.0000002260801324
 51
174.6530556565797951
  0
LINE
  5
69CB
  8
0
 10
3823.2793420254229204
 20
103.9998680621966969
 30
0.0
 11
3823.2793420254229204
 21
102.1101641251967038
 31
0.0
  0
LINE
  5
69CC
  8
0
 10
3823.7330882899232165
 20
104.0392680621966974
 30
0.0
 11
3823.7330882899232165
 21
102.0707641251967033
 31
0.0
  0
LINE
  5
69CD
  8
0
 10
3823.3187420254230346
 20
102.0707641251967033
 30
0.0
 11
3823.3837904704228094
 21
102.0707641251967033
 31
0.0
  0
ARC
  5
69CE
  8
0
 10
3823.3187420254230346
 20
102.1101641251967038
 30
0.0
 40
0.0394
 50
180.0
 51
270.0
  0
LINE
  5
69CF
  8
0
 10
3823.6483248842228022
 20
102.0707641251967033
 30
0.0
 11
3823.7330882899232165
 21
102.0707641251967033
 31
0.0
  0
LINE
  5
69D0
  8
0
 10
3821.9077140679228251
 20
102.6809518077466947
 30
0.0
 11
3821.8282537800228056
 21
102.6809518077466947
 31
0.0
  0
ARC
  5
69D1
  8
0
 10
3821.9077140679228251
 20
102.6927518077467028
 30
0.0
 40
0.0118
 50
270.0
 51
0.0
  0
LINE
  5
69D2
  8
0
 10
3821.9589140679231605
 20
102.7991105818966986
 30
0.0
 11
3823.2793420254229204
 21
102.7991105818966986
 31
0.0
  0
ARC
  5
69D3
  8
0
 10
3821.8282537800541832
 20
102.6888258235268978
 30
0.0
 40
0.0078740157802581
 50
185.3469443434202049
 51
269.9999997739197966
  0
ARC
  5
69D4
  8
0
 10
3823.5160576773228058
 20
100.6425920221923036
 30
0.0
 40
1.4342838525971759
 50
84.7087632993858648
 51
95.2912367006140641
  0
ENDSEC
  0
EOF
