  0
SECTION
  2
HEADER
  9
$ACADVER
  1
AC1009
  9
$INSBASE
 10
4527.9340166090687489
 20
263.4438199033165233
 30
0.0
  9
$EXTMIN
 10
4524.0251143771693023
 20
262.0349176714165083
 30
0.0
  9
$EXTMAX
 10
4533.2594453618967236
 20
266.4808787044469227
 30
0.0
  9
$LIMMIN
 10
0.0
 20
0.0
  9
$LIMMAX
 10
11.6929133858000007
 20
8.2677165353999982
  9
$ORTHOMODE
 70
     0
  9
$REGENMODE
 70
     1
  9
$FILLMODE
 70
     1
  9
$QTEXTMODE
 70
     0
  9
$MIRRTEXT
 70
     0
  9
$DRAGMODE
 70
     2
  9
$LTSCALE
 40
0.6431102362
  9
$OSMODE
 70
  4095
  9
$ATTMODE
 70
     1
  9
$TEXTSIZE
 40
0.2
  9
$TRACEWID
 40
0.05
  9
$TEXTSTYLE
  7
STANDARD
  9
$CLAYER
  8
0
  9
$CELTYPE
  6
BYLAYER
  9
$CECOLOR
 62
   256
  9
$DIMSCALE
 40
1.0
  9
$DIMASZ
 40
0.1875
  9
$DIMEXO
 40
0.0625
  9
$DIMDLI
 40
0.4443307087
  9
$DIMRND
 40
0.0
  9
$DIMDLE
 40
0.0
  9
$DIMEXE
 40
0.125
  9
$DIMTP
 40
0.01
  9
$DIMTM
 40
0.01
  9
$DIMTXT
 40
2.0
  9
$DIMCEN
 40
0.1052362205
  9
$DIMTSZ
 40
0.0
  9
$DIMTOL
 70
     1
  9
$DIMLIM
 70
     0
  9
$DIMTIH
 70
     1
  9
$DIMTOH
 70
     1
  9
$DIMSE1
 70
     0
  9
$DIMSE2
 70
     0
  9
$DIMTAD
 70
     0
  9
$DIMZIN
 70
     0
  9
$DIMBLK
  1

  9
$DIMASO
 70
     1
  9
$DIMSHO
 70
     1
  9
$DIMPOST
  1
\X
  9
$DIMAPOST
  1

  9
$DIMALT
 70
     1
  9
$DIMALTD
 70
     2
  9
$DIMALTF
 40
25.3999999999999986
  9
$DIMLFAC
 40
1.0
  9
$DIMTOFL
 70
     0
  9
$DIMTVP
 40
0.0
  9
$DIMTIX
 70
     0
  9
$DIMSOXD
 70
     0
  9
$DIMSAH
 70
     0
  9
$DIMBLK1
  1

  9
$DIMBLK2
  1

  9
$DIMSTYLE
  2
STANDARD
  9
$DIMCLRD
 70
     0
  9
$DIMCLRE
 70
     0
  9
$DIMCLRT
 70
     0
  9
$DIMTFAC
 40
1.0
  9
$DIMGAP
 40
0.09
  9
$LUNITS
 70
     2
  9
$LUPREC
 70
     4
  9
$SKETCHINC
 40
0.1
  9
$FILLETRAD
 40
0.0
  9
$AUNITS
 70
     0
  9
$AUPREC
 70
     0
  9
$MENU
  1
.
  9
$ELEVATION
 40
0.0
  9
$PELEVATION
 40
0.0
  9
$THICKNESS
 40
0.0
  9
$LIMCHECK
 70
     0
  9
$BLIPMODE
 70
     0
  9
$CHAMFERA
 40
0.0
  9
$CHAMFERB
 40
0.0
  9
$SKPOLY
 70
     0
  9
$TDCREATE
 40
2458060.468368056230247
  9
$TDUPDATE
 40
2459577.625300926156342
  9
$TDINDWG
 40
0.5207246528
  9
$TDUSRTIMER
 40
0.5207246528
  9
$USRTIMER
 70
     1
  9
$ANGBASE
 50
0.0
  9
$ANGDIR
 70
     0
  9
$PDMODE
 70
     0
  9
$PDSIZE
 40
0.3125
  9
$PLINEWID
 40
0.0
  9
$COORDS
 70
     1
  9
$SPLFRAME
 70
     0
  9
$SPLINETYPE
 70
     6
  9
$SPLINESEGS
 70
     8
  9
$ATTDIA
 70
     1
  9
$ATTREQ
 70
     1
  9
$HANDLING
 70
     1
  9
$HANDSEED
  5
201E7
  9
$SURFTAB1
 70
     6
  9
$SURFTAB2
 70
     6
  9
$SURFTYPE
 70
     6
  9
$SURFU
 70
     6
  9
$SURFV
 70
     6
  9
$UCSNAME
  2

  9
$UCSORG
 10
0.0
 20
0.0
 30
0.0
  9
$UCSXDIR
 10
1.0
 20
0.0
 30
0.0
  9
$UCSYDIR
 10
0.0
 20
1.0
 30
0.0
  9
$PUCSNAME
  2

  9
$PUCSORG
 10
0.0
 20
0.0
 30
0.0
  9
$PUCSXDIR
 10
1.0
 20
0.0
 30
0.0
  9
$PUCSYDIR
 10
0.0
 20
1.0
 30
0.0
  9
$USERI1
 70
     0
  9
$USERI2
 70
     0
  9
$USERI3
 70
     0
  9
$USERI4
 70
     0
  9
$USERI5
 70
     0
  9
$USERR1
 40
0.0
  9
$USERR2
 40
0.0
  9
$USERR3
 40
0.0
  9
$USERR4
 40
0.0
  9
$USERR5
 40
0.0
  9
$WORLDVIEW
 70
     1
  9
$SHADEDGE
 70
     3
  9
$SHADEDIF
 70
    70
  9
$TILEMODE
 70
     1
  9
$MAXACTVP
 70
    64
  9
$PLIMCHECK
 70
     0
  9
$PEXTMIN
 10
1.0000000000000000E+20
 20
1.0000000000000000E+20
 30
1.0000000000000000E+20
  9
$PEXTMAX
 10
-1.0000000000000000E+20
 20
-1.0000000000000000E+20
 30
-1.0000000000000000E+20
  9
$PLIMMIN
 10
0.0
 20
0.0
  9
$PLIMMAX
 10
12.0
 20
9.0
  9
$UNITMODE
 70
     0
  9
$VISRETAIN
 70
     1
  9
$PLINEGEN
 70
     0
  9
$PSLTSCALE
 70
     1
  0
ENDSEC
  0
SECTION
  2
TABLES
  0
TABLE
  2
VPORT
 70
     1
  0
VPORT
  2
*ACTIVE
 70
     0
 10
0.0
 20
0.0
 11
1.0
 21
1.0
 12
0.0
 22
0.0
 13
0.0
 23
0.0
 14
1.0
 24
1.0
 15
0.0
 25
0.0
 16
0.0
 26
0.0
 36
27.3154089713695107
 17
4527.92822265625
 27
263.443817138671875
 37
0.0
 40
8.3145625556292746
 41
2.5429292929292919
 42
50.0
 43
0.0
 44
0.0
 50
0.0
 51
0.0
 71
     0
 72
   100
 73
     1
 74
     1
 75
     0
 76
     0
 77
     0
 78
     0
  0
ENDTAB
  0
TABLE
  2
LTYPE
 70
     2
  0
LTYPE
  2
CONTINUOUS
 70
     0
  3
Solid line
 72
    65
 73
     0
 40
0.0
  0
LTYPE
  2
PHANTOM2
 70
     0
  3
___ _ _ ___ _ _ ___ _ _ ___ _ _
 72
    65
 73
     6
 40
1.25
 49
0.625
 49
-0.125
 49
0.125
 49
-0.125
 49
0.125
 49
-0.125
  0
ENDTAB
  0
TABLE
  2
LAYER
 70
     2
  0
LAYER
  2
0
 70
     0
 62
   255
  6
CONTINUOUS
  0
LAYER
  2
DEFPOINTS
 70
     0
 62
     7
  6
CONTINUOUS
  0
ENDTAB
  0
TABLE
  2
STYLE
 70
     1
  0
STYLE
  2
STANDARD
 70
     0
 40
0.0
 41
0.8
 50
0.0
 71
     0
 42
0.2
  3
txt
  4

  0
ENDTAB
  0
TABLE
  2
VIEW
 70
     0
  0
ENDTAB
  0
TABLE
  2
UCS
 70
     0
  0
ENDTAB
  0
TABLE
  2
APPID
 70
    11
  0
APPID
  2
ACAD
 70
     0
  0
APPID
  2
ACAD_MLEADERVER
 70
     0
  0
APPID
  2
ACAD_EXEMPT_FROM_CAD_STANDARDS
 70
     0
  0
APPID
  2
ACAD_NAV_VCDISPLAY
 70
     0
  0
APPID
  2
ACAECLAYERSTANDARD
 70
     0
  0
APPID
  2
ACCMTRANSPARENCY
 70
     0
  0
APPID
  2
ACAD_DSTYLE_DIMJAG
 70
     0
  0
APPID
  2
ACAD_DSTYLE_DIMTALN
 70
     0
  0
APPID
  2
ACDBATTR
 70
     0
  0
APPID
  2
ACADANNOTATIVE
 70
     0
  0
APPID
  2
DCO15
 70
     0
  0
ENDTAB
  0
TABLE
  2
DIMSTYLE
 70
     1
  0
DIMSTYLE
  2
STANDARD
 70
     0
  3

  4

  5

  6

  7

 40
1.0
 41
0.1875
 42
0.0625
 43
0.38
 44
0.125
 45
0.0
 46
0.0
 47
0.01
 48
0.01
140
0.15625
141
0.09
142
0.0
143
25.3999999999999986
144
1.0
145
0.0
146
1.0
147
0.09
 71
     1
 72
     0
 73
     1
 74
     1
 75
     0
 76
     0
 77
     0
 78
     4
170
     0
171
     2
172
     0
173
     0
174
     0
175
     0
176
     0
177
     0
178
     0
  0
ENDTAB
  0
ENDSEC
  0
SECTION
  2
BLOCKS
  0
BLOCK
  8
0
  2
$MODEL_SPACE
 70
     0
 10
0.0
 20
0.0
 30
0.0
  3
$MODEL_SPACE
  1

  0
ENDBLK
  5
21
  8
0
  0
BLOCK
 67
     1
  8
0
  2
$PAPER_SPACE
 70
     0
 10
0.0
 20
0.0
 30
0.0
  3
$PAPER_SPACE
  1

  0
ENDBLK
  5
1D
 67
     1
  8
0
  0
BLOCK
  8
0
  2
_FILLED
 70
     0
 10
0.0
 20
0.0
 30
0.0
  3
_FILLED
  1

  0
SOLID
  5
1FF3E
  8
0
  6
BYBLOCK
 62
     0
 10
0.0
 20
0.0
 30
0.0
 11
-1.0
 21
0.1666666667
 31
0.0
 12
-1.0
 22
-0.1666666667
 32
0.0
 13
-1.0
 23
-0.1666666667
 33
0.0
  0
ENDBLK
  5
1FF3F
  8
0
  6
BYBLOCK
 62
     0
  0
ENDSEC
  0
SECTION
  2
ENTITIES
  0
ATTDEF
  5
1FD29
  8
DEFPOINTS
 10
4527.9345558664272176
 20
263.4420829433227027
 30
0.0
 40
0.001
  1
K-23675BR
  3

  2
MODELNUMBER
 70
     0
1001
ACDBATTR
1070
     0
1070
     1
  0
ATTDEF
  5
1FD2A
  8
DEFPOINTS
 10
4527.934430056769088
 20
263.4404161029435727
 30
0.0
 40
0.001
  1

  3

  2
TRADENAME
 70
     0
1001
ACDBATTR
1070
     0
1070
     1
  0
ATTDEF
  5
1FD2B
  8
DEFPOINTS
 10
4527.9345558664272176
 20
263.4387496099893724
 30
0.0
 40
0.001
  1
ESCUTCHEON
  3

  2
PRODUCT
 70
     0
1001
ACDBATTR
1070
     0
1070
     1
  0
CIRCLE
  5
2007A
  8
0
 10
4530.4340166090696584
 20
263.4438199033165233
 30
0.0
 40
0.5708661417000003
  0
CIRCLE
  5
2007B
  8
0
 10
4525.4340166090696584
 20
263.4438199033165233
 30
0.0
 40
0.5708661417000003
  0
LINE
  5
2007C
  8
0
 10
4524.0251143771693023
 20
262.1529469746164978
 30
0.0
 11
4524.0251143771693023
 21
264.7346928319165045
 31
0.0
  0
LINE
  5
2007D
  8
0
 10
4526.8429188409691051
 20
262.1529469746167251
 30
0.0
 11
4526.8429188409691051
 21
264.734692832015412
 31
0.0
  0
LINE
  5
2007E
  8
0
 10
4529.0364625183701719
 20
262.1642951158165147
 30
0.0
 11
4529.0364625183701719
 21
264.7233446907164875
 31
0.0
  0
LINE
  5
2007F
  8
0
 10
4531.8315706997700545
 20
262.1642951158165147
 30
0.0
 11
4531.8315706997700545
 21
264.7233446907164875
 31
0.0
  0
LINE
  5
20080
  8
0
 10
4529.1544918215740836
 20
264.8413739940165215
 30
0.0
 11
4531.7135413965661428
 21
264.8413739940165215
 31
0.0
  0
LINE
  5
20081
  8
0
 10
4529.1544918215704456
 20
262.0462658126165252
 30
0.0
 11
4531.7135413964688269
 21
262.0462658126165252
 31
0.0
  0
LINE
  5
20082
  8
0
 10
4524.1431436804641635
 20
264.8527221352164815
 30
0.0
 11
4526.7248895376760629
 21
264.8527221352164815
 31
0.0
  0
LINE
  5
20083
  8
0
 10
4524.143143680468711
 20
262.0349176714165083
 30
0.0
 11
4526.7248895376687869
 21
262.0349176714165083
 31
0.0
  0
ARC
  5
20085
  8
0
 10
4524.1432246970061897
 20
262.1530279912525998
 30
0.0
 40
0.1181103476223679
 50
180.0393014818700976
 51
269.9606985666541732
  0
ARC
  5
20086
  8
0
 10
4526.7248085211340367
 20
262.1530279912525998
 30
0.0
 40
0.1181103476223679
 50
270.0393014333458268
 51
359.9606985181299024
  0
ARC
  5
20087
  8
0
 10
4524.1432246970061897
 20
264.7346118153802763
 30
0.0
 40
0.1181103476223679
 50
90.0393014333457415
 51
179.9606985181299024
  0
ARC
  5
20088
  8
0
 10
4526.7248085211340367
 20
264.7346118153802763
 30
0.0
 40
0.1181103476223679
 50
0.0393014818701289
 51
89.9606985666542585
  0
ARC
  5
20089
  8
0
 10
4529.1545728233386399
 20
262.1643761175864142
 30
0.0
 40
0.1181103327459745
 50
180.0392942751373937
 51
269.9607057248787783
  0
ARC
  5
2008A
  8
0
 10
4531.7134603947997675
 20
262.1643761175864142
 30
0.0
 40
0.1181103327459745
 50
270.0392942751212217
 51
359.9607057248625779
  0
ARC
  5
2008B
  8
0
 10
4529.1545728233386399
 20
264.7232636890465756
 30
0.0
 40
0.1181103327459745
 50
90.0392942751211223
 51
179.9607057248626063
  0
ARC
  5
2008C
  8
0
 10
4531.7134603947997675
 20
264.7232636890465756
 30
0.0
 40
0.1181103327459745
 50
0.0392942751374101
 51
89.9607057248788919
  0
CIRCLE
  5
20120
  8
0
 10
4525.4340166090696584
 20
263.4438199033165233
 30
0.0
 40
0.6377952756000003
  0
CIRCLE
  5
20121
  8
0
 10
4530.4340166090696584
 20
263.4438199033165233
 30
0.0
 40
0.6377952756000003
  0
ENDSEC
  0
EOF
