  0
SECTION
  2
HEADER
  9
$ACADVER
  1
AC1009
  9
$INSBASE
 10
4528.09203033063568
 20
264.8803739223312732
 30
0.0
  9
$EXTMIN
 10
4524.1831280987362334
 20
264.0929723475313153
 30
0.0
  9
$EXTMAX
 10
4531.989584421336076
 20
264.8855433845399148
 30
0.0
  9
$LIMMIN
 10
0.0
 20
0.0
  9
$LIMMAX
 10
11.6929133858000007
 20
8.2677165353999982
  9
$ORTHOMODE
 70
     1
  9
$REGENMODE
 70
     1
  9
$FILLMODE
 70
     1
  9
$QTEXTMODE
 70
     0
  9
$MIRRTEXT
 70
     0
  9
$DRAGMODE
 70
     2
  9
$LTSCALE
 40
0.6431102362
  9
$OSMODE
 70
  4095
  9
$ATTMODE
 70
     1
  9
$TEXTSIZE
 40
0.2
  9
$TRACEWID
 40
0.05
  9
$TEXTSTYLE
  7
STANDARD
  9
$CLAYER
  8
0
  9
$CELTYPE
  6
BYLAYER
  9
$CECOLOR
 62
   256
  9
$DIMSCALE
 40
1.0
  9
$DIMASZ
 40
0.1875
  9
$DIMEXO
 40
0.0625
  9
$DIMDLI
 40
0.4443307087
  9
$DIMRND
 40
0.0
  9
$DIMDLE
 40
0.0
  9
$DIMEXE
 40
0.125
  9
$DIMTP
 40
0.01
  9
$DIMTM
 40
0.01
  9
$DIMTXT
 40
2.0
  9
$DIMCEN
 40
0.1052362205
  9
$DIMTSZ
 40
0.0
  9
$DIMTOL
 70
     1
  9
$DIMLIM
 70
     0
  9
$DIMTIH
 70
     1
  9
$DIMTOH
 70
     1
  9
$DIMSE1
 70
     0
  9
$DIMSE2
 70
     0
  9
$DIMTAD
 70
     0
  9
$DIMZIN
 70
     0
  9
$DIMBLK
  1

  9
$DIMASO
 70
     1
  9
$DIMSHO
 70
     1
  9
$DIMPOST
  1
\X
  9
$DIMAPOST
  1

  9
$DIMALT
 70
     1
  9
$DIMALTD
 70
     2
  9
$DIMALTF
 40
25.3999999999999986
  9
$DIMLFAC
 40
1.0
  9
$DIMTOFL
 70
     0
  9
$DIMTVP
 40
0.0
  9
$DIMTIX
 70
     0
  9
$DIMSOXD
 70
     0
  9
$DIMSAH
 70
     0
  9
$DIMBLK1
  1

  9
$DIMBLK2
  1

  9
$DIMSTYLE
  2
STANDARD
  9
$DIMCLRD
 70
     0
  9
$DIMCLRE
 70
     0
  9
$DIMCLRT
 70
     0
  9
$DIMTFAC
 40
1.0
  9
$DIMGAP
 40
0.09
  9
$LUNITS
 70
     2
  9
$LUPREC
 70
     4
  9
$SKETCHINC
 40
0.1
  9
$FILLETRAD
 40
0.0
  9
$AUNITS
 70
     0
  9
$AUPREC
 70
     0
  9
$MENU
  1
.
  9
$ELEVATION
 40
0.0
  9
$PELEVATION
 40
0.0
  9
$THICKNESS
 40
0.0
  9
$LIMCHECK
 70
     0
  9
$BLIPMODE
 70
     0
  9
$CHAMFERA
 40
0.0
  9
$CHAMFERB
 40
0.0
  9
$SKPOLY
 70
     0
  9
$TDCREATE
 40
2458060.468368056230247
  9
$TDUPDATE
 40
2459578.8063194449059665
  9
$TDINDWG
 40
0.5177385417
  9
$TDUSRTIMER
 40
0.5177385417
  9
$USRTIMER
 70
     1
  9
$ANGBASE
 50
0.0
  9
$ANGDIR
 70
     0
  9
$PDMODE
 70
     0
  9
$PDSIZE
 40
0.3125
  9
$PLINEWID
 40
0.0
  9
$COORDS
 70
     1
  9
$SPLFRAME
 70
     0
  9
$SPLINETYPE
 70
     6
  9
$SPLINESEGS
 70
     8
  9
$ATTDIA
 70
     1
  9
$ATTREQ
 70
     1
  9
$HANDLING
 70
     1
  9
$HANDSEED
  5
2023E
  9
$SURFTAB1
 70
     6
  9
$SURFTAB2
 70
     6
  9
$SURFTYPE
 70
     6
  9
$SURFU
 70
     6
  9
$SURFV
 70
     6
  9
$UCSNAME
  2

  9
$UCSORG
 10
0.0
 20
0.0
 30
0.0
  9
$UCSXDIR
 10
1.0
 20
0.0
 30
0.0
  9
$UCSYDIR
 10
0.0
 20
1.0
 30
0.0
  9
$PUCSNAME
  2

  9
$PUCSORG
 10
0.0
 20
0.0
 30
0.0
  9
$PUCSXDIR
 10
1.0
 20
0.0
 30
0.0
  9
$PUCSYDIR
 10
0.0
 20
1.0
 30
0.0
  9
$USERI1
 70
     0
  9
$USERI2
 70
     0
  9
$USERI3
 70
     0
  9
$USERI4
 70
     0
  9
$USERI5
 70
     0
  9
$USERR1
 40
0.0
  9
$USERR2
 40
0.0
  9
$USERR3
 40
0.0
  9
$USERR4
 40
0.0
  9
$USERR5
 40
0.0
  9
$WORLDVIEW
 70
     1
  9
$SHADEDGE
 70
     3
  9
$SHADEDIF
 70
    70
  9
$TILEMODE
 70
     1
  9
$MAXACTVP
 70
    64
  9
$PLIMCHECK
 70
     0
  9
$PEXTMIN
 10
1.0000000000000000E+20
 20
1.0000000000000000E+20
 30
1.0000000000000000E+20
  9
$PEXTMAX
 10
-1.0000000000000000E+20
 20
-1.0000000000000000E+20
 30
-1.0000000000000000E+20
  9
$PLIMMIN
 10
0.0
 20
0.0
  9
$PLIMMAX
 10
12.0
 20
9.0
  9
$UNITMODE
 70
     0
  9
$VISRETAIN
 70
     1
  9
$PLINEGEN
 70
     0
  9
$PSLTSCALE
 70
     1
  0
ENDSEC
  0
SECTION
  2
TABLES
  0
TABLE
  2
VPORT
 70
     1
  0
VPORT
  2
*ACTIVE
 70
     0
 10
0.0
 20
0.0
 11
1.0
 21
1.0
 12
0.0
 22
0.0
 13
0.0
 23
0.0
 14
1.0
 24
1.0
 15
0.0
 25
0.0
 16
0.0
 26
0.0
 36
25.8250022172382891
 17
4528.08642578125
 27
264.4892652225433949
 37
0.0
 40
7.8518045270328587
 41
2.5429292929292919
 42
50.0
 43
0.0
 44
0.0
 50
0.0
 51
0.0
 71
     0
 72
   100
 73
     1
 74
     1
 75
     0
 76
     0
 77
     0
 78
     0
  0
ENDTAB
  0
TABLE
  2
LTYPE
 70
     2
  0
LTYPE
  2
CONTINUOUS
 70
     0
  3
Solid line
 72
    65
 73
     0
 40
0.0
  0
LTYPE
  2
PHANTOM2
 70
     0
  3
___ _ _ ___ _ _ ___ _ _ ___ _ _
 72
    65
 73
     6
 40
1.25
 49
0.625
 49
-0.125
 49
0.125
 49
-0.125
 49
0.125
 49
-0.125
  0
ENDTAB
  0
TABLE
  2
LAYER
 70
     2
  0
LAYER
  2
0
 70
     0
 62
   255
  6
CONTINUOUS
  0
LAYER
  2
DEFPOINTS
 70
     0
 62
     7
  6
CONTINUOUS
  0
ENDTAB
  0
TABLE
  2
STYLE
 70
     1
  0
STYLE
  2
STANDARD
 70
     0
 40
0.0
 41
0.8
 50
0.0
 71
     0
 42
0.2
  3
txt
  4

  0
ENDTAB
  0
TABLE
  2
VIEW
 70
     0
  0
ENDTAB
  0
TABLE
  2
UCS
 70
     0
  0
ENDTAB
  0
TABLE
  2
APPID
 70
    11
  0
APPID
  2
ACAD
 70
     0
  0
APPID
  2
ACAD_MLEADERVER
 70
     0
  0
APPID
  2
ACAD_EXEMPT_FROM_CAD_STANDARDS
 70
     0
  0
APPID
  2
ACAD_NAV_VCDISPLAY
 70
     0
  0
APPID
  2
ACAECLAYERSTANDARD
 70
     0
  0
APPID
  2
ACCMTRANSPARENCY
 70
     0
  0
APPID
  2
ACAD_DSTYLE_DIMJAG
 70
     0
  0
APPID
  2
ACAD_DSTYLE_DIMTALN
 70
     0
  0
APPID
  2
ACDBATTR
 70
     0
  0
APPID
  2
ACADANNOTATIVE
 70
     0
  0
APPID
  2
DCO15
 70
     0
  0
ENDTAB
  0
TABLE
  2
DIMSTYLE
 70
     1
  0
DIMSTYLE
  2
STANDARD
 70
     0
  3

  4

  5

  6

  7

 40
1.0
 41
0.1875
 42
0.0625
 43
0.38
 44
0.125
 45
0.0
 46
0.0
 47
0.01
 48
0.01
140
0.15625
141
0.09
142
0.0
143
25.3999999999999986
144
1.0
145
0.0
146
1.0
147
0.09
 71
     1
 72
     0
 73
     1
 74
     1
 75
     0
 76
     0
 77
     0
 78
     4
170
     0
171
     2
172
     0
173
     0
174
     0
175
     0
176
     0
177
     0
178
     0
  0
ENDTAB
  0
ENDSEC
  0
SECTION
  2
BLOCKS
  0
BLOCK
  8
0
  2
$MODEL_SPACE
 70
     0
 10
0.0
 20
0.0
 30
0.0
  3
$MODEL_SPACE
  1

  0
ENDBLK
  5
21
  8
0
  0
BLOCK
 67
     1
  8
0
  2
$PAPER_SPACE
 70
     0
 10
0.0
 20
0.0
 30
0.0
  3
$PAPER_SPACE
  1

  0
ENDBLK
  5
1D
 67
     1
  8
0
  0
BLOCK
  8
0
  2
_FILLED
 70
     0
 10
0.0
 20
0.0
 30
0.0
  3
_FILLED
  1

  0
SOLID
  5
1FF3E
  8
0
  6
BYBLOCK
 62
     0
 10
0.0
 20
0.0
 30
0.0
 11
-1.0
 21
0.1666666667
 31
0.0
 12
-1.0
 22
-0.1666666667
 32
0.0
 13
-1.0
 23
-0.1666666667
 33
0.0
  0
ENDBLK
  5
1FF3F
  8
0
  6
BYBLOCK
 62
     0
  0
ENDSEC
  0
SECTION
  2
ENTITIES
  0
ATTDEF
  5
1FD29
  8
DEFPOINTS
 10
4528.0928406520915814
 20
264.8845433845398816
 30
0.0
 40
0.001
  1
K-23674BR
  3

  2
MODELNUMBER
 70
     0
1001
ACDBATTR
1070
     0
1070
     1
  0
ATTDEF
  5
1FD2A
  8
DEFPOINTS
 10
4528.0928406520915814
 20
264.8828765441608084
 30
0.0
 40
0.001
  1

  3

  2
TRADENAME
 70
     0
1001
ACDBATTR
1070
     0
1070
     1
  0
ATTDEF
  5
1FD2B
  8
DEFPOINTS
 10
4528.0928406520915814
 20
264.8812100512066081
 30
0.0
 40
0.001
  1
ESCUTCHEON
  3

  2
PRODUCT
 70
     0
1001
ACDBATTR
1070
     0
1070
     1
  0
LINE
  5
1FFB1
  8
0
 10
4524.1831280987362334
 20
264.8803739223312732
 30
0.0
 11
4527.0009325625351266
 21
264.8803739223312732
 31
0.0
  0
LINE
  5
1FFB2
  8
0
 10
4529.194476239935284
 20
264.8803739223312732
 30
0.0
 11
4531.989584421336076
 21
264.8803739223312732
 31
0.0
  0
LINE
  5
1FFB3
  8
0
 10
4526.857900657436403
 20
264.0929723475313153
 30
0.0
 11
4524.3261600039359109
 21
264.0929723475313153
 31
0.0
  0
LINE
  5
1FFB4
  8
0
 10
4529.3261600039350014
 20
264.407932977431301
 30
0.0
 11
4531.8579006572854269
 21
264.407932977431301
 31
0.0
  0
ARC
  5
1FFB5
  8
0
 10
4524.3261600039877521
 20
264.2110825838603887
 30
0.0
 40
0.1181102363291453
 50
183.0000000558142972
 51
269.9999999749870767
  0
LINE
  5
1FFB6
  8
0
 10
4524.2082116336387116
 20
264.2049011715851066
 30
0.0
 11
4524.1831280987362334
 21
264.6835235286044963
 31
0.0
  0
LINE
  5
1FFB7
  8
0
 10
4524.1831280987362334
 20
264.6835235286044963
 30
0.0
 11
4524.1831280987362334
 21
264.8803739223312732
 31
0.0
  0
ARC
  5
1FFB8
  8
0
 10
4526.8579006572836079
 20
264.2110825838603887
 30
0.0
 40
0.1181102363291453
 50
270.0000000250129233
 51
356.9999999441856744
  0
LINE
  5
1FFB9
  8
0
 10
4526.9758490276335579
 20
264.2049011715851066
 30
0.0
 11
4527.0009325625351266
 21
264.6835235286044963
 31
0.0
  0
LINE
  5
1FFBA
  8
0
 10
4527.0009325625351266
 20
264.6835235286044963
 30
0.0
 11
4527.0009325625351266
 21
264.8803739223312732
 31
0.0
  0
LINE
  5
1FFBB
  8
0
 10
4529.2082116336359832
 20
264.5198618015313059
 30
0.0
 11
4529.194476239935284
 21
264.7819487254312776
 31
0.0
  0
LINE
  5
1FFBC
  8
0
 10
4529.194476239935284
 20
264.7819487254312776
 30
0.0
 11
4529.194476239935284
 21
264.8803739223312732
 31
0.0
  0
ARC
  5
1FFBD
  8
0
 10
4529.3261600039877521
 20
264.5260432137603743
 30
0.0
 40
0.1181102363291471
 50
183.0000000334107142
 51
269.9999999749870767
  0
LINE
  5
1FFBE
  8
0
 10
4531.9758490276362863
 20
264.5198618015313059
 30
0.0
 11
4531.989584421336076
 21
264.7819487254312776
 31
0.0
  0
LINE
  5
1FFBF
  8
0
 10
4531.989584421336076
 20
264.7819487254312776
 30
0.0
 11
4531.989584421336076
 21
264.8803739223312732
 31
0.0
  0
ARC
  5
1FFC0
  8
0
 10
4531.8579006572854269
 20
264.5260432137603743
 30
0.0
 40
0.1181102363291471
 50
270.0000000250129233
 51
356.9999999665893142
  0
LINE
  5
2005B
  8
0
 10
4525.4345500156259732
 20
264.8803739223312732
 30
0.0
 11
4525.4345500154249748
 21
264.8606888832313189
 31
0.0
  0
ARC
  5
2005C
  8
0
 10
4525.4640775744246639
 20
264.8606888829311856
 30
0.0
 40
0.0295275589999997
 50
179.9999994178768929
 51
270.0000001940583729
  0
LINE
  5
2005D
  8
0
 10
4525.4640775745247083
 20
264.831161323931326
 30
0.0
 11
4525.7199830863137322
 21
264.8311613247979039
 31
0.0
  0
ARC
  5
2005E
  8
0
 10
4525.7199830862127783
 20
264.8606888840093916
 30
0.0
 40
0.0295275592115392
 50
270.0000001940583729
 51
359.9999979078273213
  0
LINE
  5
2005F
  8
0
 10
4525.7495106454243796
 20
264.8606888829311856
 30
0.0
 11
4525.7495106461446994
 21
264.8803739223312732
 31
0.0
  0
LINE
  5
20060
  8
0
 10
4530.4340899775206708
 20
264.8803739223312732
 30
0.0
 11
4530.434089977320582
 21
264.8606888832313189
 31
0.0
  0
ARC
  5
20061
  8
0
 10
4530.4636175363211805
 20
264.8606888829311856
 30
0.0
 40
0.0295275589999997
 50
179.9999994178768929
 51
270.0000001940583729
  0
LINE
  5
20062
  8
0
 10
4530.4636175364221344
 20
264.831161323931326
 30
0.0
 11
4530.7195230482093393
 21
264.8311613247979039
 31
0.0
  0
ARC
  5
20063
  8
0
 10
4530.7195230481092949
 20
264.8606888840093916
 30
0.0
 40
0.0295275592115392
 50
270.0000001940583729
 51
359.9999979078273213
  0
LINE
  5
20064
  8
0
 10
4530.7490506073208962
 20
264.8606888829311856
 30
0.0
 11
4530.749050608039397
 21
264.8803739223312732
 31
0.0
  0
ENDSEC
  0
EOF
