  0
SECTION
  2
HEADER
  9
$ACADVER
  1
AC1009
  9
$INSBASE
 10
2925.4246101530497981
 20
85.436991732935212
 30
0.0
  9
$EXTMIN
 10
2924.4206731451499763
 20
84.4330547250352055
 30
0.0
  9
$EXTMAX
 10
2933.9372616691498479
 20
86.4409287408352185
 30
0.0
  9
$LIMMIN
 10
0.0
 20
0.0
  9
$LIMMAX
 10
11.6929133858000007
 20
8.2677165353999982
  9
$ORTHOMODE
 70
     1
  9
$REGENMODE
 70
     1
  9
$FILLMODE
 70
     1
  9
$QTEXTMODE
 70
     0
  9
$MIRRTEXT
 70
     0
  9
$DRAGMODE
 70
     2
  9
$LTSCALE
 40
0.6431102362
  9
$OSMODE
 70
  4095
  9
$ATTMODE
 70
     1
  9
$TEXTSIZE
 40
0.2
  9
$TRACEWID
 40
0.05
  9
$TEXTSTYLE
  7
STANDARD
  9
$CLAYER
  8
0
  9
$CELTYPE
  6
BYLAYER
  9
$CECOLOR
 62
   256
  9
$DIMSCALE
 40
1.0
  9
$DIMASZ
 40
0.1875
  9
$DIMEXO
 40
0.0625
  9
$DIMDLI
 40
0.4443307087
  9
$DIMRND
 40
0.0
  9
$DIMDLE
 40
0.0
  9
$DIMEXE
 40
0.125
  9
$DIMTP
 40
0.01
  9
$DIMTM
 40
0.01
  9
$DIMTXT
 40
2.0
  9
$DIMCEN
 40
0.1052362205
  9
$DIMTSZ
 40
0.0
  9
$DIMTOL
 70
     1
  9
$DIMLIM
 70
     0
  9
$DIMTIH
 70
     1
  9
$DIMTOH
 70
     1
  9
$DIMSE1
 70
     0
  9
$DIMSE2
 70
     0
  9
$DIMTAD
 70
     0
  9
$DIMZIN
 70
     0
  9
$DIMBLK
  1

  9
$DIMASO
 70
     1
  9
$DIMSHO
 70
     1
  9
$DIMPOST
  1
\X
  9
$DIMAPOST
  1

  9
$DIMALT
 70
     1
  9
$DIMALTD
 70
     2
  9
$DIMALTF
 40
25.3999999999999986
  9
$DIMLFAC
 40
1.0
  9
$DIMTOFL
 70
     0
  9
$DIMTVP
 40
0.0
  9
$DIMTIX
 70
     0
  9
$DIMSOXD
 70
     0
  9
$DIMSAH
 70
     0
  9
$DIMBLK1
  1

  9
$DIMBLK2
  1

  9
$DIMSTYLE
  2
STANDARD
  9
$DIMCLRD
 70
     0
  9
$DIMCLRE
 70
     0
  9
$DIMCLRT
 70
     0
  9
$DIMTFAC
 40
1.0
  9
$DIMGAP
 40
0.09
  9
$LUNITS
 70
     2
  9
$LUPREC
 70
     4
  9
$SKETCHINC
 40
0.1
  9
$FILLETRAD
 40
0.0
  9
$AUNITS
 70
     0
  9
$AUPREC
 70
     0
  9
$MENU
  1
.
  9
$ELEVATION
 40
0.0
  9
$PELEVATION
 40
0.0
  9
$THICKNESS
 40
0.0
  9
$LIMCHECK
 70
     0
  9
$BLIPMODE
 70
     0
  9
$CHAMFERA
 40
0.0
  9
$CHAMFERB
 40
0.0
  9
$SKPOLY
 70
     0
  9
$TDCREATE
 40
2458060.468368056230247
  9
$TDUPDATE
 40
2459585.7690740739926696
  9
$TDINDWG
 40
0.3365695602
  9
$TDUSRTIMER
 40
0.3365695602
  9
$USRTIMER
 70
     1
  9
$ANGBASE
 50
0.0
  9
$ANGDIR
 70
     0
  9
$PDMODE
 70
     0
  9
$PDSIZE
 40
0.3125
  9
$PLINEWID
 40
0.0
  9
$COORDS
 70
     1
  9
$SPLFRAME
 70
     0
  9
$SPLINETYPE
 70
     6
  9
$SPLINESEGS
 70
     8
  9
$ATTDIA
 70
     1
  9
$ATTREQ
 70
     1
  9
$HANDLING
 70
     1
  9
$HANDSEED
  5
6F6E
  9
$SURFTAB1
 70
     6
  9
$SURFTAB2
 70
     6
  9
$SURFTYPE
 70
     6
  9
$SURFU
 70
     6
  9
$SURFV
 70
     6
  9
$UCSNAME
  2

  9
$UCSORG
 10
0.0
 20
0.0
 30
0.0
  9
$UCSXDIR
 10
1.0
 20
0.0
 30
0.0
  9
$UCSYDIR
 10
0.0
 20
1.0
 30
0.0
  9
$PUCSNAME
  2

  9
$PUCSORG
 10
0.0
 20
0.0
 30
0.0
  9
$PUCSXDIR
 10
1.0
 20
0.0
 30
0.0
  9
$PUCSYDIR
 10
0.0
 20
1.0
 30
0.0
  9
$USERI1
 70
     0
  9
$USERI2
 70
     0
  9
$USERI3
 70
     0
  9
$USERI4
 70
     0
  9
$USERI5
 70
     0
  9
$USERR1
 40
0.0
  9
$USERR2
 40
0.0
  9
$USERR3
 40
0.0
  9
$USERR4
 40
0.0
  9
$USERR5
 40
0.0
  9
$WORLDVIEW
 70
     1
  9
$SHADEDGE
 70
     3
  9
$SHADEDIF
 70
    70
  9
$TILEMODE
 70
     1
  9
$MAXACTVP
 70
    64
  9
$PLIMCHECK
 70
     0
  9
$PEXTMIN
 10
1.0000000000000000E+20
 20
1.0000000000000000E+20
 30
1.0000000000000000E+20
  9
$PEXTMAX
 10
-1.0000000000000000E+20
 20
-1.0000000000000000E+20
 30
-1.0000000000000000E+20
  9
$PLIMMIN
 10
0.0
 20
0.0
  9
$PLIMMAX
 10
12.0
 20
9.0
  9
$UNITMODE
 70
     0
  9
$VISRETAIN
 70
     1
  9
$PLINEGEN
 70
     0
  9
$PSLTSCALE
 70
     1
  0
ENDSEC
  0
SECTION
  2
TABLES
  0
TABLE
  2
VPORT
 70
     1
  0
VPORT
  2
*ACTIVE
 70
     0
 10
0.0
 20
0.0
 11
1.0
 21
1.0
 12
0.0
 22
0.0
 13
0.0
 23
0.0
 14
1.0
 24
1.0
 15
0.0
 25
0.0
 16
0.0
 26
0.0
 36
31.4999796529923586
 17
2929.178955078125
 27
85.4369888305664063
 37
0.0
 40
9.7411007459997077
 41
2.4949494949494939
 42
50.0
 43
0.0
 44
0.0
 50
0.0
 51
0.0
 71
     0
 72
   100
 73
     1
 74
     1
 75
     0
 76
     0
 77
     0
 78
     0
  0
ENDTAB
  0
TABLE
  2
LTYPE
 70
     3
  0
LTYPE
  2
CONTINUOUS
 70
     0
  3
Solid line
 72
    65
 73
     0
 40
0.0
  0
LTYPE
  2
PHANTOM2
 70
     0
  3
___ _ _ ___ _ _ ___ _ _ ___ _ _
 72
    65
 73
     6
 40
1.25
 49
0.625
 49
-0.125
 49
0.125
 49
-0.125
 49
0.125
 49
-0.125
  0
ENDTAB
  0
TABLE
  2
LAYER
 70
     2
  0
LAYER
  2
0
 70
     0
 62
   255
  6
CONTINUOUS
  0
LAYER
  2
DEFPOINTS
 70
     0
 62
     7
  6
CONTINUOUS
  0
ENDTAB
  0
TABLE
  2
STYLE
 70
     1
  0
STYLE
  2
STANDARD
 70
     0
 40
0.0
 41
0.8
 50
0.0
 71
     0
 42
0.2
  3
txt
  4

  0
ENDTAB
  0
TABLE
  2
VIEW
 70
     0
  0
ENDTAB
  0
TABLE
  2
UCS
 70
     0
  0
ENDTAB
  0
TABLE
  2
APPID
 70
     9
  0
APPID
  2
ACAD
 70
     0
  0
APPID
  2
ACAD_MLEADERVER
 70
     0
  0
APPID
  2
ACAD_EXEMPT_FROM_CAD_STANDARDS
 70
     0
  0
APPID
  2
ACAD_NAV_VCDISPLAY
 70
     0
  0
APPID
  2
ACAECLAYERSTANDARD
 70
     0
  0
APPID
  2
ACCMTRANSPARENCY
 70
     0
  0
APPID
  2
ACAD_DSTYLE_DIMJAG
 70
     0
  0
APPID
  2
ACAD_DSTYLE_DIMTALN
 70
     0
  0
APPID
  2
ACDBATTR
 70
     0
  0
ENDTAB
  0
TABLE
  2
DIMSTYLE
 70
     2
  0
DIMSTYLE
  2
STANDARD
 70
     0
  3

  4

  5

  6

  7

 40
1.0
 41
0.1875
 42
0.0625
 43
0.38
 44
0.125
 45
0.0
 46
0.0
 47
0.01
 48
0.01
140
0.15625
141
0.09
142
0.0
143
25.3999999999999986
144
1.0
145
0.0
146
1.0
147
0.09
 71
     1
 72
     0
 73
     1
 74
     1
 75
     0
 76
     0
 77
     0
 78
     4
170
     0
171
     2
172
     0
173
     0
174
     0
175
     0
176
     0
177
     0
178
     0
  0
ENDTAB
  0
ENDSEC
  0
SECTION
  2
BLOCKS
  0
BLOCK
  8
0
  2
$MODEL_SPACE
 70
     0
 10
0.0
 20
0.0
 30
0.0
  3
$MODEL_SPACE
  1

  0
ENDBLK
  5
21
  8
0
  0
BLOCK
 67
     1
  8
0
  2
$PAPER_SPACE
 70
     0
 10
0.0
 20
0.0
 30
0.0
  3
$PAPER_SPACE
  1

  0
ENDBLK
  5
1D
 67
     1
  8
0
  0
ENDSEC
  0
SECTION
  2
ENTITIES
  0
ATTDEF
  5
3930
  8
DEFPOINTS
 10
2925.4196131933131255
 20
85.4349697596859414
 30
0.0
 40
0.001
  1
K-23526BR
  3

  2
MODELNUMBER
 70
     0
1001
ACDBATTR
1070
     0
1070
     1
  0
ATTDEF
  5
3931
  8
DEFPOINTS
 10
2925.4196131933131255
 20
85.4333030930192763
 30
0.0
 40
0.001
  1
PARALLEL
  3

  2
TRADENAME
 70
     0
1001
ACDBATTR
1070
     0
1070
     1
  0
ATTDEF
  5
3932
  8
DEFPOINTS
 10
2925.4196131933131255
 20
85.4316364263526253
 30
0.0
 40
0.001
  1
TOWEL RING
  3

  2
PRODUCT
 70
     0
1001
ACDBATTR
1070
     0
1070
     1
  0
LINE
  5
6E2B
  8
0
 10
2933.9372616691498479
 20
85.6135271748351983
 30
0.0
 11
2933.9372616691498479
 21
85.2604562602352161
 31
0.0
  0
ARC
  5
6E2C
  8
0
 10
2933.8920654799380827
 20
85.2656431981765763
 30
0.0
 40
0.0454928548740978
 50
276.6487449115962818
 51
353.453096113375409
  0
ARC
  5
6E2D
  8
0
 10
2933.8918574399140198
 20
85.608132730336763
 30
0.0
 40
0.0457235613661665
 50
6.7755100951685741
 51
83.1212529969045448
  0
LINE
  5
6E2E
  8
0
 10
2924.4206731451508858
 20
84.7330547251352044
 30
0.0
 11
2924.4206731451508858
 21
86.1409287408352355
 31
0.0
  0
LINE
  5
6E2F
  8
0
 10
2924.9218542475509821
 20
85.6543879485352164
 30
0.0
 11
2924.9218542475509821
 21
85.2195950418352197
 31
0.0
  0
LINE
  5
6E30
  8
0
 10
2924.9265786569508236
 20
85.2195950670352147
 30
0.0
 11
2924.9265786569508236
 21
85.6543881697352134
 31
0.0
  0
LINE
  5
6E31
  8
0
 10
2925.9226416491510463
 20
85.6543888600352119
 30
0.0
 11
2925.9226416491510463
 21
85.2195948339352043
 31
0.0
  0
LINE
  5
6E32
  8
0
 10
2926.4285471609509841
 20
86.1409287408352355
 30
0.0
 11
2926.4285471609509841
 21
85.653527166035218
 31
0.0
  0
LINE
  5
6E33
  8
0
 10
2926.4285471609509841
 20
85.220456299935222
 30
0.0
 11
2926.4285471609509841
 21
84.7330547251352044
 31
0.0
  0
LINE
  5
6E34
  8
0
 10
2926.1285471609508022
 20
84.4330547250352339
 30
0.0
 11
2924.7206731451510677
 21
84.4330547250352339
 31
0.0
  0
LINE
  5
6E35
  8
0
 10
2933.8973327441149195
 20
85.220456299935222
 30
0.0
 11
2925.9226416491510463
 21
85.220456299935222
 31
0.0
  0
LINE
  5
6E36
  8
0
 10
2925.9226416491510463
 20
85.653527166035218
 30
0.0
 11
2933.8973336860390191
 21
85.653527166035218
 31
0.0
  0
LINE
  5
6E37
  8
0
 10
2924.7206731451510677
 20
86.4409287408352185
 30
0.0
 11
2926.1285471609508022
 21
86.4409287408352185
 31
0.0
  0
ARC
  5
6E38
  8
0
 10
2924.7600944422370048
 20
84.7724760221088331
 30
0.0
 40
0.3417028761528609
 50
186.6248038332439023
 51
263.3751961476643828
  0
ARC
  5
6E39
  8
0
 10
2926.0983972138837999
 20
84.76320467209149
 30
0.0
 40
0.3315237651351151
 50
275.2178909622484184
 51
354.7821090568584737
  0
ARC
  5
6E3A
  8
0
 10
2925.0233883535729547
 20
85.2237047025061969
 30
0.0
 40
0.1016172426147718
 50
182.3178197026186069
 51
205.1584069159706871
  0
ARC
  5
6E3B
  8
0
 10
2925.8308235027520823
 20
85.222480916884507
 30
0.0
 40
0.0965842779761391
 50
334.2398405717514152
 51
358.2880841641916163
  0
ARC
  5
6E3C
  8
0
 10
2925.0246197051587842
 20
85.2240057728517257
 30
0.0
 40
0.0981402132646669
 50
182.5759061643983046
 51
204.9005078536175972
  0
ARC
  5
6E3D
  8
0
 10
2925.819082464703115
 20
85.2253547970535266
 30
0.0
 40
0.1037192453628743
 50
335.7073338001853813
 51
356.8164881541957243
  0
ARC
  5
6E3E
  8
0
 10
2925.4246101530497981
 20
85.436991732935212
 30
0.0
 40
0.5559055118
 50
207.4765529546990876
 51
332.5234432691034954
  0
ARC
  5
6E3F
  8
0
 10
2925.4246101530497981
 20
85.436991732935212
 30
0.0
 40
0.5559055118
 50
27.4765215749036109
 51
152.5234127921960123
  0
ARC
  5
6E40
  8
0
 10
2925.4246101530497981
 20
85.436991732935212
 30
0.0
 40
0.5511811024000001
 50
207.4765855704972068
 51
332.5234729090008727
  0
ARC
  5
6E41
  8
0
 10
2925.4246101530497981
 20
85.436991732935212
 30
0.0
 40
0.5511811024000001
 50
27.4765108575966295
 51
152.5234011751041123
  0
ARC
  5
6E42
  8
0
 10
2926.0874057826731587
 20
86.0997873625576631
 30
0.0
 40
0.3436132316714064
 50
6.8766154440589071
 51
83.1233845559442557
  0
ARC
  5
6E43
  8
0
 10
2924.7543521265388335
 20
86.1072497594465887
 30
0.0
 40
0.3353743228214277
 50
95.7634752536349509
 51
174.2365247463606011
  0
ARC
  5
6E44
  8
0
 10
2925.0152686590618032
 20
85.6522638624437036
 30
0.0
 40
0.0934385574575297
 50
153.826455074711788
 51
178.697415115270303
  0
ARC
  5
6E45
  8
0
 10
2925.8320860688118046
 20
85.6518097992163518
 30
0.0
 40
0.0953140491086845
 50
1.5626252456571941
 51
25.923461888865809
  0
ARC
  5
6E46
  8
0
 10
2925.0249428931169859
 20
85.6498986922847365
 30
0.0
 40
0.0984666357926706
 50
155.1369024318520076
 51
177.3867563094979971
  0
ARC
  5
6E47
  8
0
 10
2925.8256380727029864
 20
85.6502313634434529
 30
0.0
 40
0.0970926290797684
 50
2.4541498593964728
 51
25.0220797038300411
  0
LINE
  5
6E48
  8
0
 10
2925.9273646721499063
 20
85.2195955463352135
 30
0.0
 11
2925.9273646721499063
 21
85.220456299935222
 31
0.0
  0
LINE
  5
6E49
  8
0
 10
2925.9273646721499063
 20
85.653527166035218
 30
0.0
 11
2925.9273646721499063
 21
85.6544089727923534
 31
0.0
  0
ENDSEC
  0
EOF
