  0
SECTION
  2
HEADER
  9
$ACADVER
  1
AC1009
  9
$INSBASE
 10
2930.0045356193459156
 20
74.5318933610054302
 30
0.0
  9
$EXTMIN
 10
2917.0006356193462125
 20
70.9492122442054125
 30
0.0
  9
$EXTMAX
 10
2943.0084356193460735
 20
74.5370421190226864
 30
0.0
  9
$LIMMIN
 10
0.0
 20
0.0
  9
$LIMMAX
 10
11.6929133858000007
 20
8.2677165353999982
  9
$ORTHOMODE
 70
     1
  9
$REGENMODE
 70
     1
  9
$FILLMODE
 70
     1
  9
$QTEXTMODE
 70
     0
  9
$MIRRTEXT
 70
     0
  9
$DRAGMODE
 70
     2
  9
$LTSCALE
 40
0.6431102362
  9
$OSMODE
 70
  4095
  9
$ATTMODE
 70
     1
  9
$TEXTSIZE
 40
0.2
  9
$TRACEWID
 40
0.05
  9
$TEXTSTYLE
  7
STANDARD
  9
$CLAYER
  8
0
  9
$CELTYPE
  6
BYLAYER
  9
$CECOLOR
 62
   256
  9
$DIMSCALE
 40
1.0
  9
$DIMASZ
 40
0.1875
  9
$DIMEXO
 40
0.0625
  9
$DIMDLI
 40
0.4443307087
  9
$DIMRND
 40
0.0
  9
$DIMDLE
 40
0.0
  9
$DIMEXE
 40
0.125
  9
$DIMTP
 40
0.01
  9
$DIMTM
 40
0.01
  9
$DIMTXT
 40
2.0
  9
$DIMCEN
 40
0.1052362205
  9
$DIMTSZ
 40
0.0
  9
$DIMTOL
 70
     1
  9
$DIMLIM
 70
     0
  9
$DIMTIH
 70
     1
  9
$DIMTOH
 70
     1
  9
$DIMSE1
 70
     0
  9
$DIMSE2
 70
     0
  9
$DIMTAD
 70
     0
  9
$DIMZIN
 70
     0
  9
$DIMBLK
  1

  9
$DIMASO
 70
     1
  9
$DIMSHO
 70
     1
  9
$DIMPOST
  1
\X
  9
$DIMAPOST
  1

  9
$DIMALT
 70
     1
  9
$DIMALTD
 70
     2
  9
$DIMALTF
 40
25.3999999999999986
  9
$DIMLFAC
 40
1.0
  9
$DIMTOFL
 70
     0
  9
$DIMTVP
 40
0.0
  9
$DIMTIX
 70
     0
  9
$DIMSOXD
 70
     0
  9
$DIMSAH
 70
     0
  9
$DIMBLK1
  1

  9
$DIMBLK2
  1

  9
$DIMSTYLE
  2
STANDARD
  9
$DIMCLRD
 70
     0
  9
$DIMCLRE
 70
     0
  9
$DIMCLRT
 70
     0
  9
$DIMTFAC
 40
1.0
  9
$DIMGAP
 40
0.09
  9
$LUNITS
 70
     2
  9
$LUPREC
 70
     4
  9
$SKETCHINC
 40
0.1
  9
$FILLETRAD
 40
0.0
  9
$AUNITS
 70
     0
  9
$AUPREC
 70
     0
  9
$MENU
  1
.
  9
$ELEVATION
 40
0.0
  9
$PELEVATION
 40
0.0
  9
$THICKNESS
 40
0.0
  9
$LIMCHECK
 70
     0
  9
$BLIPMODE
 70
     0
  9
$CHAMFERA
 40
0.0
  9
$CHAMFERB
 40
0.0
  9
$SKPOLY
 70
     0
  9
$TDCREATE
 40
2458060.468368056230247
  9
$TDUPDATE
 40
2459585.7449884261004627
  9
$TDINDWG
 40
0.284034838
  9
$TDUSRTIMER
 40
0.284034838
  9
$USRTIMER
 70
     1
  9
$ANGBASE
 50
0.0
  9
$ANGDIR
 70
     0
  9
$PDMODE
 70
     0
  9
$PDSIZE
 40
0.3125
  9
$PLINEWID
 40
0.0
  9
$COORDS
 70
     1
  9
$SPLFRAME
 70
     0
  9
$SPLINETYPE
 70
     6
  9
$SPLINESEGS
 70
     8
  9
$ATTDIA
 70
     1
  9
$ATTREQ
 70
     1
  9
$HANDLING
 70
     1
  9
$HANDSEED
  5
6F47
  9
$SURFTAB1
 70
     6
  9
$SURFTAB2
 70
     6
  9
$SURFTYPE
 70
     6
  9
$SURFU
 70
     6
  9
$SURFV
 70
     6
  9
$UCSNAME
  2

  9
$UCSORG
 10
0.0
 20
0.0
 30
0.0
  9
$UCSXDIR
 10
1.0
 20
0.0
 30
0.0
  9
$UCSYDIR
 10
0.0
 20
1.0
 30
0.0
  9
$PUCSNAME
  2

  9
$PUCSORG
 10
0.0
 20
0.0
 30
0.0
  9
$PUCSXDIR
 10
1.0
 20
0.0
 30
0.0
  9
$PUCSYDIR
 10
0.0
 20
1.0
 30
0.0
  9
$USERI1
 70
     0
  9
$USERI2
 70
     0
  9
$USERI3
 70
     0
  9
$USERI4
 70
     0
  9
$USERI5
 70
     0
  9
$USERR1
 40
0.0
  9
$USERR2
 40
0.0
  9
$USERR3
 40
0.0
  9
$USERR4
 40
0.0
  9
$USERR5
 40
0.0
  9
$WORLDVIEW
 70
     1
  9
$SHADEDGE
 70
     3
  9
$SHADEDIF
 70
    70
  9
$TILEMODE
 70
     1
  9
$MAXACTVP
 70
    64
  9
$PLIMCHECK
 70
     0
  9
$PEXTMIN
 10
1.0000000000000000E+20
 20
1.0000000000000000E+20
 30
1.0000000000000000E+20
  9
$PEXTMAX
 10
-1.0000000000000000E+20
 20
-1.0000000000000000E+20
 30
-1.0000000000000000E+20
  9
$PLIMMIN
 10
0.0
 20
0.0
  9
$PLIMMAX
 10
12.0
 20
9.0
  9
$UNITMODE
 70
     0
  9
$VISRETAIN
 70
     1
  9
$PLINEGEN
 70
     0
  9
$PSLTSCALE
 70
     1
  0
ENDSEC
  0
SECTION
  2
TABLES
  0
TABLE
  2
VPORT
 70
     1
  0
VPORT
  2
*ACTIVE
 70
     0
 10
0.0
 20
0.0
 11
1.0
 21
1.0
 12
0.0
 22
0.0
 13
0.0
 23
0.0
 14
1.0
 24
1.0
 15
0.0
 25
0.0
 16
0.0
 26
0.0
 36
85.0292728788814856
 17
2930.004638671875
 27
72.7431266198140634
 37
0.0
 40
26.25412048247588
 41
2.4949494949494939
 42
50.0
 43
0.0
 44
0.0
 50
0.0
 51
0.0
 71
     0
 72
   100
 73
     1
 74
     1
 75
     0
 76
     0
 77
     0
 78
     0
  0
ENDTAB
  0
TABLE
  2
LTYPE
 70
     2
  0
LTYPE
  2
CONTINUOUS
 70
     0
  3
Solid line
 72
    65
 73
     0
 40
0.0
  0
LTYPE
  2
PHANTOM2
 70
     0
  3
___ _ _ ___ _ _ ___ _ _ ___ _ _
 72
    65
 73
     6
 40
1.25
 49
0.625
 49
-0.125
 49
0.125
 49
-0.125
 49
0.125
 49
-0.125
  0
ENDTAB
  0
TABLE
  2
LAYER
 70
     2
  0
LAYER
  2
0
 70
     0
 62
   255
  6
CONTINUOUS
  0
LAYER
  2
DEFPOINTS
 70
     0
 62
     7
  6
CONTINUOUS
  0
ENDTAB
  0
TABLE
  2
STYLE
 70
     1
  0
STYLE
  2
STANDARD
 70
     0
 40
0.0
 41
0.8
 50
0.0
 71
     0
 42
0.2
  3
txt
  4

  0
ENDTAB
  0
TABLE
  2
VIEW
 70
     0
  0
ENDTAB
  0
TABLE
  2
UCS
 70
     0
  0
ENDTAB
  0
TABLE
  2
APPID
 70
     9
  0
APPID
  2
ACAD
 70
     0
  0
APPID
  2
ACAD_MLEADERVER
 70
     0
  0
APPID
  2
ACAD_EXEMPT_FROM_CAD_STANDARDS
 70
     0
  0
APPID
  2
ACAD_NAV_VCDISPLAY
 70
     0
  0
APPID
  2
ACAECLAYERSTANDARD
 70
     0
  0
APPID
  2
ACCMTRANSPARENCY
 70
     0
  0
APPID
  2
ACAD_DSTYLE_DIMJAG
 70
     0
  0
APPID
  2
ACAD_DSTYLE_DIMTALN
 70
     0
  0
APPID
  2
ACDBATTR
 70
     0
  0
ENDTAB
  0
TABLE
  2
DIMSTYLE
 70
     1
  0
DIMSTYLE
  2
STANDARD
 70
     0
  3

  4

  5

  6

  7

 40
1.0
 41
0.1875
 42
0.0625
 43
0.38
 44
0.125
 45
0.0
 46
0.0
 47
0.01
 48
0.01
140
0.15625
141
0.09
142
0.0
143
25.3999999999999986
144
1.0
145
0.0
146
1.0
147
0.09
 71
     1
 72
     0
 73
     1
 74
     1
 75
     0
 76
     0
 77
     0
 78
     4
170
     0
171
     2
172
     0
173
     0
174
     0
175
     0
176
     0
177
     0
178
     0
  0
ENDTAB
  0
ENDSEC
  0
SECTION
  2
BLOCKS
  0
BLOCK
  8
0
  2
$MODEL_SPACE
 70
     0
 10
0.0
 20
0.0
 30
0.0
  3
$MODEL_SPACE
  1

  0
ENDBLK
  5
21
  8
0
  0
BLOCK
 67
     1
  8
0
  2
$PAPER_SPACE
 70
     0
 10
0.0
 20
0.0
 30
0.0
  3
$PAPER_SPACE
  1

  0
ENDBLK
  5
1D
 67
     1
  8
0
  0
ENDSEC
  0
SECTION
  2
ENTITIES
  0
ATTDEF
  5
3930
  8
DEFPOINTS
 10
2930.0015498380507779
 20
74.5360421190226532
 30
0.0
 40
0.001
  1
K-23525BR
  3

  2
MODELNUMBER
 70
     0
1001
ACDBATTR
1070
     0
1070
     1
  0
ATTDEF
  5
3931
  8
DEFPOINTS
 10
2930.0015498380507779
 20
74.5343754523559738
 30
0.0
 40
0.001
  1
PARALLEL
  3

  2
TRADENAME
 70
     0
1001
ACDBATTR
1070
     0
1070
     1
  0
ATTDEF
  5
3932
  8
DEFPOINTS
 10
2930.0015498380507779
 20
74.5327087856893229
 30
0.0
 40
0.001
  1
TOWEL BAR
  3

  2
PRODUCT
 70
     0
1001
ACDBATTR
1070
     0
1070
     1
  0
LINE
  5
6DE0
  8
0
 10
2917.0006356193462125
 20
74.2175626609054291
 30
0.0
 11
2917.0006356193462125
 21
74.5318933610054302
 31
0.0
  0
LINE
  5
6DE1
  8
0
 10
2917.5065411311461503
 20
70.9688972816054218
 30
0.0
 11
2917.5065411311461503
 21
74.1775626523054257
 31
0.0
  0
LINE
  5
6DE2
  8
0
 10
2918.5026041233459182
 20
74.1775626523054257
 30
0.0
 11
2918.5026041233459182
 21
70.9688972835054273
 31
0.0
  0
LINE
  5
6DE3
  8
0
 10
2919.008509635145856
 20
74.5318933610054302
 30
0.0
 11
2919.008509635145856
 21
74.2175626609054291
 31
0.0
  0
LINE
  5
6DE4
  8
0
 10
2917.5262262997471225
 20
70.9492122442054267
 30
0.0
 11
2918.4829200518461221
 21
70.9492122442054267
 31
0.0
  0
LINE
  5
6DE5
  8
0
 10
2941.506467115345913
 20
70.9688972835054415
 30
0.0
 11
2918.5026041233459182
 21
70.9688972835054273
 31
0.0
  0
LINE
  5
6DE6
  8
0
 10
2918.5026041233459182
 20
72.0712594883054294
 30
0.0
 11
2941.506467115345913
 21
72.0712594883054294
 31
0.0
  0
LINE
  5
6DE7
  8
0
 10
2918.9685097138471974
 20
74.1775626523054257
 30
0.0
 11
2917.0406355407471892
 21
74.1775626523054257
 31
0.0
  0
LINE
  5
6DE8
  8
0
 10
2919.008509635145856
 20
74.5318933610054302
 30
0.0
 11
2917.0006356193462125
 21
74.5318933610054302
 31
0.0
  0
ARC
  5
6DE9
  8
0
 10
2918.965641420737029
 20
74.2204308604552807
 30
0.0
 40
0.0429640591115734
 50
273.8279300138335088
 51
356.1721950343172125
  0
ARC
  5
6DEA
  8
0
 10
2917.0446222353998564
 20
74.2215492596678388
 30
0.0
 40
0.0441669034630486
 50
185.1786873861798881
 51
264.8211877088991741
  0
ARC
  5
6DEB
  8
0
 10
2918.480646069705017
 20
70.9711701860714754
 30
0.0
 40
0.0220753755521771
 50
275.9125202309850806
 51
354.0902967417446234
  0
ARC
  5
6DEC
  8
0
 10
2917.527797579828075
 20
70.9704687033603818
 30
0.0
 40
0.0213144546470748
 50
184.228003978721091
 51
265.7723778941215755
  0
LINE
  5
6DED
  8
0
 10
2943.0084356193460735
 20
74.2175626609054291
 30
0.0
 11
2943.0084356193460735
 21
74.5318933610054302
 31
0.0
  0
LINE
  5
6DEE
  8
0
 10
2942.5025301075461357
 20
70.9688972816054218
 30
0.0
 11
2942.5025301075461357
 21
74.1775626523054257
 31
0.0
  0
LINE
  5
6DEF
  8
0
 10
2941.506467115345913
 20
74.1775626523054257
 30
0.0
 11
2941.506467115345913
 21
70.9688972835054273
 31
0.0
  0
LINE
  5
6DF0
  8
0
 10
2941.0005616035459752
 20
74.5318933610054302
 30
0.0
 11
2941.0005616035459752
 21
74.2175626609054291
 31
0.0
  0
LINE
  5
6DF1
  8
0
 10
2942.4828449389460729
 20
70.9492122442054267
 30
0.0
 11
2941.5261511868461639
 21
70.9492122442054267
 31
0.0
  0
LINE
  5
6DF2
  8
0
 10
2941.0405615248459981
 20
74.1775626523054257
 30
0.0
 11
2942.9684356979460063
 21
74.1775626523054257
 31
0.0
  0
LINE
  5
6DF3
  8
0
 10
2941.0005616035459752
 20
74.5318933610054302
 30
0.0
 11
2943.0084356193460735
 21
74.5318933610054302
 31
0.0
  0
ARC
  5
6DF4
  8
0
 10
2941.0434298179561665
 20
74.2204308604552807
 30
0.0
 40
0.0429640591115734
 50
183.8278049656819064
 51
266.1720699861664912
  0
ARC
  5
6DF5
  8
0
 10
2942.9644490032928843
 20
74.2215492596678388
 30
0.0
 40
0.0441669034630486
 50
275.1788122911008259
 51
354.8213126138201119
  0
ARC
  5
6DF6
  8
0
 10
2941.5284251689868142
 20
70.9711701860714754
 30
0.0
 40
0.0220753755521771
 50
185.909703258255405
 51
264.0874797690149194
  0
ARC
  5
6DF7
  8
0
 10
2942.481273658864211
 20
70.9704687033603818
 30
0.0
 40
0.0213144546470748
 50
274.2276221058784245
 51
355.7719960212788806
  0
ENDSEC
  0
EOF
