  0
SECTION
  2
HEADER
  9
$ACADVER
  1
AC1009
  9
$INSBASE
 10
2284.9498764056488653
 20
126.8006896421674981
 30
0.0
  9
$EXTMIN
 10
2279.2018449095489814
 20
126.8006896421674981
 30
0.0
  9
$EXTMAX
 10
2285.9538134134991196
 20
132.8243116894674927
 30
0.0
  9
$LIMMIN
 10
0.0
 20
0.0
  9
$LIMMAX
 10
11.6929133858000007
 20
8.2677165353999982
  9
$ORTHOMODE
 70
     1
  9
$REGENMODE
 70
     1
  9
$FILLMODE
 70
     1
  9
$QTEXTMODE
 70
     0
  9
$MIRRTEXT
 70
     0
  9
$DRAGMODE
 70
     2
  9
$LTSCALE
 40
0.6431102362
  9
$OSMODE
 70
  4095
  9
$ATTMODE
 70
     1
  9
$TEXTSIZE
 40
0.2
  9
$TRACEWID
 40
0.05
  9
$TEXTSTYLE
  7
STANDARD
  9
$CLAYER
  8
0
  9
$CELTYPE
  6
BYLAYER
  9
$CECOLOR
 62
   256
  9
$DIMSCALE
 40
1.0
  9
$DIMASZ
 40
0.1875
  9
$DIMEXO
 40
0.0625
  9
$DIMDLI
 40
0.4443307087
  9
$DIMRND
 40
0.0
  9
$DIMDLE
 40
0.0
  9
$DIMEXE
 40
0.125
  9
$DIMTP
 40
0.01
  9
$DIMTM
 40
0.01
  9
$DIMTXT
 40
2.0
  9
$DIMCEN
 40
0.1052362205
  9
$DIMTSZ
 40
0.0
  9
$DIMTOL
 70
     1
  9
$DIMLIM
 70
     0
  9
$DIMTIH
 70
     1
  9
$DIMTOH
 70
     1
  9
$DIMSE1
 70
     0
  9
$DIMSE2
 70
     0
  9
$DIMTAD
 70
     0
  9
$DIMZIN
 70
     0
  9
$DIMBLK
  1

  9
$DIMASO
 70
     1
  9
$DIMSHO
 70
     1
  9
$DIMPOST
  1
\X
  9
$DIMAPOST
  1

  9
$DIMALT
 70
     1
  9
$DIMALTD
 70
     2
  9
$DIMALTF
 40
25.3999999999999986
  9
$DIMLFAC
 40
1.0
  9
$DIMTOFL
 70
     0
  9
$DIMTVP
 40
0.0
  9
$DIMTIX
 70
     0
  9
$DIMSOXD
 70
     0
  9
$DIMSAH
 70
     0
  9
$DIMBLK1
  1

  9
$DIMBLK2
  1

  9
$DIMSTYLE
  2
STANDARD
  9
$DIMCLRD
 70
     0
  9
$DIMCLRE
 70
     0
  9
$DIMCLRT
 70
     0
  9
$DIMTFAC
 40
1.0
  9
$DIMGAP
 40
0.09
  9
$LUNITS
 70
     2
  9
$LUPREC
 70
     4
  9
$SKETCHINC
 40
0.1
  9
$FILLETRAD
 40
0.0
  9
$AUNITS
 70
     0
  9
$AUPREC
 70
     0
  9
$MENU
  1
.
  9
$ELEVATION
 40
0.0
  9
$PELEVATION
 40
0.0
  9
$THICKNESS
 40
0.0
  9
$LIMCHECK
 70
     0
  9
$BLIPMODE
 70
     0
  9
$CHAMFERA
 40
0.0
  9
$CHAMFERB
 40
0.0
  9
$SKPOLY
 70
     0
  9
$TDCREATE
 40
2458060.468368056230247
  9
$TDUPDATE
 40
2459562.7692129630595446
  9
$TDINDWG
 40
0.2944862269
  9
$TDUSRTIMER
 40
0.2944862269
  9
$USRTIMER
 70
     1
  9
$ANGBASE
 50
0.0
  9
$ANGDIR
 70
     0
  9
$PDMODE
 70
     0
  9
$PDSIZE
 40
0.3125
  9
$PLINEWID
 40
0.0
  9
$COORDS
 70
     1
  9
$SPLFRAME
 70
     0
  9
$SPLINETYPE
 70
     6
  9
$SPLINESEGS
 70
     8
  9
$ATTDIA
 70
     1
  9
$ATTREQ
 70
     1
  9
$HANDLING
 70
     1
  9
$HANDSEED
  5
6A2E
  9
$SURFTAB1
 70
     6
  9
$SURFTAB2
 70
     6
  9
$SURFTYPE
 70
     6
  9
$SURFU
 70
     6
  9
$SURFV
 70
     6
  9
$UCSNAME
  2

  9
$UCSORG
 10
0.0
 20
0.0
 30
0.0
  9
$UCSXDIR
 10
1.0
 20
0.0
 30
0.0
  9
$UCSYDIR
 10
0.0
 20
1.0
 30
0.0
  9
$PUCSNAME
  2

  9
$PUCSORG
 10
0.0
 20
0.0
 30
0.0
  9
$PUCSXDIR
 10
1.0
 20
0.0
 30
0.0
  9
$PUCSYDIR
 10
0.0
 20
1.0
 30
0.0
  9
$USERI1
 70
     0
  9
$USERI2
 70
     0
  9
$USERI3
 70
     0
  9
$USERI4
 70
     0
  9
$USERI5
 70
     0
  9
$USERR1
 40
0.0
  9
$USERR2
 40
0.0
  9
$USERR3
 40
0.0
  9
$USERR4
 40
0.0
  9
$USERR5
 40
0.0
  9
$WORLDVIEW
 70
     1
  9
$SHADEDGE
 70
     3
  9
$SHADEDIF
 70
    70
  9
$TILEMODE
 70
     1
  9
$MAXACTVP
 70
    64
  9
$PLIMCHECK
 70
     0
  9
$PEXTMIN
 10
1.0000000000000000E+20
 20
1.0000000000000000E+20
 30
1.0000000000000000E+20
  9
$PEXTMAX
 10
-1.0000000000000000E+20
 20
-1.0000000000000000E+20
 30
-1.0000000000000000E+20
  9
$PLIMMIN
 10
0.0
 20
0.0
  9
$PLIMMAX
 10
12.0
 20
9.0
  9
$UNITMODE
 70
     0
  9
$VISRETAIN
 70
     1
  9
$PLINEGEN
 70
     0
  9
$PSLTSCALE
 70
     1
  0
ENDSEC
  0
SECTION
  2
TABLES
  0
TABLE
  2
VPORT
 70
     1
  0
VPORT
  2
*ACTIVE
 70
     0
 10
0.0
 20
0.0
 11
1.0
 21
1.0
 12
0.0
 22
0.0
 13
0.0
 23
0.0
 14
1.0
 24
1.0
 15
0.0
 25
0.0
 16
0.0
 26
0.0
 36
29.7796455873946009
 17
2282.577880859375
 27
129.8125
 37
0.0
 40
9.0483631779910851
 41
2.5429292929292919
 42
50.0
 43
0.0
 44
0.0
 50
0.0
 51
0.0
 71
     0
 72
   100
 73
     1
 74
     1
 75
     0
 76
     0
 77
     0
 78
     0
  0
ENDTAB
  0
TABLE
  2
LTYPE
 70
     2
  0
LTYPE
  2
CONTINUOUS
 70
     0
  3
Solid line
 72
    65
 73
     0
 40
0.0
  0
LTYPE
  2
PHANTOM2
 70
     0
  3
___ _ _ ___ _ _ ___ _ _ ___ _ _
 72
    65
 73
     6
 40
1.25
 49
0.625
 49
-0.125
 49
0.125
 49
-0.125
 49
0.125
 49
-0.125
  0
ENDTAB
  0
TABLE
  2
LAYER
 70
     2
  0
LAYER
  2
0
 70
     0
 62
   255
  6
CONTINUOUS
  0
LAYER
  2
DEFPOINTS
 70
     0
 62
     7
  6
CONTINUOUS
  0
ENDTAB
  0
TABLE
  2
STYLE
 70
     1
  0
STYLE
  2
STANDARD
 70
     0
 40
0.0
 41
0.8
 50
0.0
 71
     0
 42
0.2
  3
txt
  4

  0
ENDTAB
  0
TABLE
  2
VIEW
 70
     0
  0
ENDTAB
  0
TABLE
  2
UCS
 70
     0
  0
ENDTAB
  0
TABLE
  2
APPID
 70
     9
  0
APPID
  2
ACAD
 70
     0
  0
APPID
  2
ACAD_MLEADERVER
 70
     0
  0
APPID
  2
ACAD_EXEMPT_FROM_CAD_STANDARDS
 70
     0
  0
APPID
  2
ACAD_NAV_VCDISPLAY
 70
     0
  0
APPID
  2
ACAECLAYERSTANDARD
 70
     0
  0
APPID
  2
ACCMTRANSPARENCY
 70
     0
  0
APPID
  2
ACAD_DSTYLE_DIMJAG
 70
     0
  0
APPID
  2
ACAD_DSTYLE_DIMTALN
 70
     0
  0
APPID
  2
ACDBATTR
 70
     0
  0
ENDTAB
  0
TABLE
  2
DIMSTYLE
 70
     1
  0
DIMSTYLE
  2
STANDARD
 70
     0
  3

  4

  5

  6

  7

 40
1.0
 41
0.1875
 42
0.0625
 43
0.38
 44
0.125
 45
0.0
 46
0.0
 47
0.01
 48
0.01
140
0.15625
141
0.09
142
0.0
143
25.3999999999999986
144
1.0
145
0.0
146
1.0
147
0.09
 71
     1
 72
     0
 73
     1
 74
     1
 75
     0
 76
     0
 77
     0
 78
     4
170
     0
171
     2
172
     0
173
     0
174
     0
175
     0
176
     0
177
     0
178
     0
  0
ENDTAB
  0
ENDSEC
  0
SECTION
  2
BLOCKS
  0
BLOCK
  8
0
  2
$MODEL_SPACE
 70
     0
 10
0.0
 20
0.0
 30
0.0
  3
$MODEL_SPACE
  1

  0
ENDBLK
  5
21
  8
0
  0
BLOCK
 67
     1
  8
0
  2
$PAPER_SPACE
 70
     0
 10
0.0
 20
0.0
 30
0.0
  3
$PAPER_SPACE
  1

  0
ENDBLK
  5
1D
 67
     1
  8
0
  0
ENDSEC
  0
SECTION
  2
ENTITIES
  0
ATTDEF
  5
3930
  8
DEFPOINTS
 10
2284.9464045495919891
 20
126.8108627150843972
 30
0.0
 40
0.001
  1
K-23484BR-4
  3

  2
MODELNUMBER
 70
     0
1001
ACDBATTR
1070
     0
1070
     1
  0
ATTDEF
  5
3931
  8
DEFPOINTS
 10
2284.9464045495919891
 20
126.8091960484177037
 30
0.0
 40
0.001
  1
PARALLEL
  3

  2
TRADENAME
 70
     0
1001
ACDBATTR
1070
     0
1070
     1
  0
ATTDEF
  5
3932
  8
DEFPOINTS
 10
2284.9464045495919891
 20
126.8075293817510953
 30
0.0
 40
0.001
  1
BATHROOM SINK FAUCET
  3

  2
PRODUCT
 70
     0
1001
ACDBATTR
1070
     0
1070
     1
  0
LINE
  5
6759
  8
0
 10
2279.2018449096481163
 20
132.3046266500674903
 30
0.0
 11
2279.2018449096481163
 21
132.792815626467501
 31
0.0
  0
LINE
  5
675A
  8
0
 10
2284.4770150109488895
 20
127.1156282248675069
 30
0.0
 11
2285.5049945159489653
 21
127.1156282248675069
 31
0.0
  0
LINE
  5
675B
  8
0
 10
2285.6034197127478365
 20
127.9227368862675007
 30
0.0
 11
2285.8258606576491729
 21
127.9227368862675007
 31
0.0
  0
LINE
  5
675C
  8
0
 10
2285.4345061154658652
 20
128.1195872799675044
 30
0.0
 11
2285.816014654249102
 21
128.1195872799675044
 31
0.0
  0
LINE
  5
675D
  8
0
 10
2284.5032837047479006
 20
129.1628723193674944
 30
0.0
 11
2285.396469106648965
 21
129.1628723193674944
 31
0.0
  0
LINE
  5
675E
  8
0
 10
2284.5145935017480952
 20
129.3990927917674867
 30
0.0
 11
2285.3851593095478165
 21
129.3990927917674867
 31
0.0
  0
LINE
  5
675F
  8
0
 10
2279.6264495903478746
 20
132.0983969884674991
 30
0.0
 11
2280.1697462781489776
 21
131.9507865453674924
 31
0.0
  0
LINE
  5
6760
  8
0
 10
2279.5788722548481928
 20
132.2010775501674971
 30
0.0
 11
2280.2627422115488116
 21
132.0152741952674944
 31
0.0
  0
LINE
  5
6761
  8
0
 10
2279.4045367011481176
 20
132.2639466305674887
 30
0.0
 11
2280.4393187918490185
 21
131.9828023696674961
 31
0.0
  0
LINE
  5
6762
  8
0
 10
2284.6742858544480441
 20
129.3990927917674867
 30
0.0
 11
2284.6742858544480441
 21
130.9739179886674947
 31
0.0
  0
LINE
  5
6763
  8
0
 10
2284.4752249107541502
 20
129.3600649701895975
 30
0.0
 11
2284.4573307211489919
 21
127.1354843927674949
 31
0.0
  0
LINE
  5
6764
  8
0
 10
2285.2254669568478676
 20
130.9739179886674947
 30
0.0
 11
2285.2254669568478676
 21
129.3990927917674867
 31
0.0
  0
LINE
  5
6765
  8
0
 10
2279.2333409725479214
 20
132.2731305870674987
 30
0.0
 11
2283.3750732560488359
 21
132.2731305870674987
 31
0.0
  0
LINE
  5
6766
  8
0
 10
2285.4424220902478737
 20
127.1354843927674949
 30
0.0
 11
2285.4245279005431257
 21
129.3600649701895975
 31
0.0
  0
LINE
  5
6767
  8
0
 10
2285.4636559332489014
 20
127.076280193367495
 30
0.0
 11
2285.4636559332489014
 21
127.1156282248675069
 31
0.0
  0
LINE
  5
6768
  8
0
 10
2285.5246795552488948
 20
127.1353353114675002
 30
0.0
 11
2285.5246795552488948
 21
127.8439967287674932
 31
0.0
  0
LINE
  5
6769
  8
0
 10
2279.2333409725479214
 20
132.8243116894674927
 30
0.0
 11
2283.3750732560488359
 21
132.8243116894674927
 31
0.0
  0
LINE
  5
676A
  8
0
 10
2285.855388216648862
 20
127.9522644453675042
 30
0.0
 11
2285.855388216648862
 21
128.0802172012674873
 31
0.0
  0
ARC
  5
676B
  8
0
 10
2283.3750732560488359
 20
130.9739179886674947
 30
0.0
 40
1.8503937008
 50
0.0
 51
90.0
  0
ARC
  5
676C
  8
0
 10
2283.3750732560488359
 20
130.9739179886674947
 30
0.0
 40
1.2992125984
 50
0.0
 51
90.0
  0
ARC
  5
676D
  8
0
 10
2279.7252240139750938
 20
132.3437176854110078
 30
0.0
 40
0.6299213752054832
 50
328.5735274414669789
 51
329.9858373186971221
  0
ARC
  5
676E
  8
0
 10
2280.2086927708210169
 20
132.2123621930722948
 30
0.0
 40
0.6299216026654713
 50
179.6141513176033015
 51
181.026472178365907
  0
ARC
  5
676F
  8
0
 10
2280.0873574227489371
 20
132.0849958076674966
 30
0.0
 40
0.157480315
 50
301.5450784215058775
 51
337.0271807442973113
  0
ARC
  5
6770
  8
0
 10
2279.7654255225488669
 20
132.1724627690674936
 30
0.0
 40
0.157480315
 50
172.5728192611501868
 51
208.0549215784953958
  0
ARC
  5
6771
  8
0
 10
2285.6088989832737752
 20
127.838517458241796
 30
0.0
 40
0.0843974790054073
 50
93.7223864453338393
 51
176.2776135546525893
  0
ARC
  5
6772
  8
0
 10
2280.4498113632489549
 20
132.0213862618674909
 30
0.0
 40
0.0399851321
 50
254.7867805165886068
 51
318.307844372702391
  0
ARC
  5
6773
  8
0
 10
2285.8130774576188742
 20
128.0772762608829112
 30
0.0
 40
0.0424128454601251
 50
3.9761255005212042
 51
86.0289441483725739
  0
ARC
  5
6774
  8
0
 10
2284.5174189267668226
 20
129.3568726179956911
 30
0.0
 40
0.0423146085868821
 50
93.8285941847542801
 51
175.6733083702415001
  0
ARC
  5
6775
  8
0
 10
2285.381882148636123
 20
129.3564169377933979
 30
0.0
 40
0.0428014987595311
 50
4.8893323886318552
 51
85.6087650563820546
  0
ARC
  5
6776
  8
0
 10
2284.4971205001479575
 20
127.1156502721674997
 30
0.0
 40
0.0393700787
 50
270.0
 51
359.9679142804030789
  0
ARC
  5
6777
  8
0
 10
2285.4026323111479542
 20
127.1156502721674997
 30
0.0
 40
0.0393700787
 50
180.0320857195968074
 51
270.0
  0
ARC
  5
6778
  8
0
 10
2279.2358472111809533
 20
132.7903093878354071
 30
0.0
 40
0.0340945413279363
 50
94.2155291406950397
 51
175.7844708592974996
  0
ARC
  5
6779
  8
0
 10
2279.2367738643652046
 20
132.3080595418834093
 30
0.0
 40
0.0350972453441715
 50
185.6131240486504907
 51
264.3868759513613895
  0
ARC
  5
677A
  8
0
 10
2285.8225141267730578
 20
127.955610976243193
 30
0.0
 40
0.0330439867544613
 50
275.8125973147174932
 51
354.1874026852863153
  0
ARC
  5
677B
  8
0
 10
2285.3940636044849271
 20
129.1946551090831861
 30
0.0
 40
0.0318736907616545
 50
274.3282183432543206
 51
356.4033349503997101
  0
ARC
  5
677C
  8
0
 10
2284.5053110797912268
 20
129.1942817796092982
 30
0.0
 40
0.0314748223544524
 50
182.9615791059192134
 51
266.30687325992551
  0
ARC
  5
677D
  8
0
 10
2285.5024872382100511
 20
127.1378177493348005
 30
0.0
 40
0.0223307285537337
 50
276.4467218224714884
 51
353.6174133998052866
  0
ARC
  5
677E
  8
0
 10
2285.4227378003479316
 20
127.135313264267495
 30
0.0
 40
0.0196850394
 50
269.999999999895806
 51
0.4980974451001661
  0
ARC
  5
677F
  8
0
 10
2284.4798444078269313
 20
127.1381181637453039
 30
0.0
 40
0.0226672194461758
 50
186.6724370528519046
 51
262.8294489511222878
  0
LINE
  5
6780
  8
0
 10
2283.9459393977990658
 20
126.8105321618674992
 30
0.0
 11
2283.9459393977990658
 21
127.0369101146675064
 31
0.0
  0
LINE
  5
6781
  8
0
 10
2285.9538134134982101
 20
127.0369101146675064
 30
0.0
 11
2285.9538134134982101
 21
126.8105321618674992
 31
0.0
  0
LINE
  5
6782
  8
0
 10
2285.9439708937979958
 20
126.8006896421674981
 30
0.0
 11
2283.9557819174979159
 21
126.8006896421674981
 31
0.0
  0
LINE
  5
6783
  8
0
 10
2285.914443334797852
 20
127.076280193367495
 30
0.0
 11
2283.9853094764989692
 21
127.076280193367495
 31
0.0
  0
ARC
  5
6784
  8
0
 10
2283.9853094764989692
 20
127.0369101146675064
 30
0.0
 40
0.0393700787
 50
90.0
 51
180.0
  0
ARC
  5
6785
  8
0
 10
2283.9574568298708073
 20
126.8122070742398932
 30
0.0
 40
0.011638581227854
 50
188.2741854369959924
 51
261.7258145629916157
  0
ARC
  5
6786
  8
0
 10
2285.9115077479650608
 20
127.0339745278336068
 30
0.0
 40
0.0424073932979672
 50
3.9693870191132028
 51
86.0306129808909787
  0
ARC
  5
6787
  8
0
 10
2285.9431990165621755
 20
126.8113040391035042
 30
0.0
 40
0.0106424253242823
 50
274.159218611919016
 51
355.8407813880876915
  0
ARC
  5
6788
  8
0
 10
2279.3330300924340008
 20
131.9918037895232885
 30
0.0
 40
0.2813803848967428
 50
75.2780842123567311
 51
88.8817761162221842
  0
ARC
  5
6789
  8
0
 10
2281.4250675201178638
 20
131.1914499320851917
 30
0.0
 40
1.2406185795099169
 50
126.0387027080677029
 51
139.6441649866671924
  0
ARC
  5
678A
  8
0
 10
2280.9928548933548882
 20
131.671708140445503
 30
0.0
 40
0.6017234994176778
 50
91.8125023777129599
 51
119.6510516828764992
  0
ENDSEC
  0
EOF
