  0
SECTION
  2
HEADER
  9
$ACADVER
  1
AC1009
  9
$INSBASE
 10
2285.3555611067140489
 20
130.657780601580896
 30
0.0
  9
$EXTMIN
 10
2278.9113183241538536
 20
130.6524157886308046
 30
0.0
  9
$EXTMAX
 10
2291.7998038892751538
 20
136.6814026488810043
 30
0.0
  9
$LIMMIN
 10
0.0
 20
0.0
  9
$LIMMAX
 10
11.6929133858000007
 20
8.2677165353999982
  9
$ORTHOMODE
 70
     1
  9
$REGENMODE
 70
     1
  9
$FILLMODE
 70
     1
  9
$QTEXTMODE
 70
     0
  9
$MIRRTEXT
 70
     0
  9
$DRAGMODE
 70
     2
  9
$LTSCALE
 40
0.6431102362
  9
$OSMODE
 70
  4095
  9
$ATTMODE
 70
     1
  9
$TEXTSIZE
 40
0.2
  9
$TRACEWID
 40
0.05
  9
$TEXTSTYLE
  7
STANDARD
  9
$CLAYER
  8
0
  9
$CELTYPE
  6
BYLAYER
  9
$CECOLOR
 62
   256
  9
$DIMSCALE
 40
1.0
  9
$DIMASZ
 40
0.1875
  9
$DIMEXO
 40
0.0625
  9
$DIMDLI
 40
0.4443307087
  9
$DIMRND
 40
0.0
  9
$DIMDLE
 40
0.0
  9
$DIMEXE
 40
0.125
  9
$DIMTP
 40
0.01
  9
$DIMTM
 40
0.01
  9
$DIMTXT
 40
2.0
  9
$DIMCEN
 40
0.1052362205
  9
$DIMTSZ
 40
0.0
  9
$DIMTOL
 70
     1
  9
$DIMLIM
 70
     0
  9
$DIMTIH
 70
     1
  9
$DIMTOH
 70
     1
  9
$DIMSE1
 70
     0
  9
$DIMSE2
 70
     0
  9
$DIMTAD
 70
     0
  9
$DIMZIN
 70
     0
  9
$DIMBLK
  1

  9
$DIMASO
 70
     1
  9
$DIMSHO
 70
     1
  9
$DIMPOST
  1
\X
  9
$DIMAPOST
  1

  9
$DIMALT
 70
     1
  9
$DIMALTD
 70
     2
  9
$DIMALTF
 40
25.3999999999999986
  9
$DIMLFAC
 40
1.0
  9
$DIMTOFL
 70
     0
  9
$DIMTVP
 40
0.0
  9
$DIMTIX
 70
     0
  9
$DIMSOXD
 70
     0
  9
$DIMSAH
 70
     0
  9
$DIMBLK1
  1

  9
$DIMBLK2
  1

  9
$DIMSTYLE
  2
STANDARD
  9
$DIMCLRD
 70
     0
  9
$DIMCLRE
 70
     0
  9
$DIMCLRT
 70
     0
  9
$DIMTFAC
 40
1.0
  9
$DIMGAP
 40
0.09
  9
$LUNITS
 70
     2
  9
$LUPREC
 70
     4
  9
$SKETCHINC
 40
0.1
  9
$FILLETRAD
 40
0.0
  9
$AUNITS
 70
     0
  9
$AUPREC
 70
     0
  9
$MENU
  1
.
  9
$ELEVATION
 40
0.0
  9
$PELEVATION
 40
0.0
  9
$THICKNESS
 40
0.0
  9
$LIMCHECK
 70
     0
  9
$BLIPMODE
 70
     0
  9
$CHAMFERA
 40
0.0
  9
$CHAMFERB
 40
0.0
  9
$SKPOLY
 70
     0
  9
$TDCREATE
 40
2458060.468368056230247
  9
$TDUPDATE
 40
2459562.7683217590674758
  9
$TDINDWG
 40
0.2928079861
  9
$TDUSRTIMER
 40
0.2928079861
  9
$USRTIMER
 70
     1
  9
$ANGBASE
 50
0.0
  9
$ANGDIR
 70
     0
  9
$PDMODE
 70
     0
  9
$PDSIZE
 40
0.3125
  9
$PLINEWID
 40
0.0
  9
$COORDS
 70
     1
  9
$SPLFRAME
 70
     0
  9
$SPLINETYPE
 70
     6
  9
$SPLINESEGS
 70
     8
  9
$ATTDIA
 70
     1
  9
$ATTREQ
 70
     1
  9
$HANDLING
 70
     1
  9
$HANDSEED
  5
6CFF
  9
$SURFTAB1
 70
     6
  9
$SURFTAB2
 70
     6
  9
$SURFTYPE
 70
     6
  9
$SURFU
 70
     6
  9
$SURFV
 70
     6
  9
$UCSNAME
  2

  9
$UCSORG
 10
0.0
 20
0.0
 30
0.0
  9
$UCSXDIR
 10
1.0
 20
0.0
 30
0.0
  9
$UCSYDIR
 10
0.0
 20
1.0
 30
0.0
  9
$PUCSNAME
  2

  9
$PUCSORG
 10
0.0
 20
0.0
 30
0.0
  9
$PUCSXDIR
 10
1.0
 20
0.0
 30
0.0
  9
$PUCSYDIR
 10
0.0
 20
1.0
 30
0.0
  9
$USERI1
 70
     0
  9
$USERI2
 70
     0
  9
$USERI3
 70
     0
  9
$USERI4
 70
     0
  9
$USERI5
 70
     0
  9
$USERR1
 40
0.0
  9
$USERR2
 40
0.0
  9
$USERR3
 40
0.0
  9
$USERR4
 40
0.0
  9
$USERR5
 40
0.0
  9
$WORLDVIEW
 70
     1
  9
$SHADEDGE
 70
     3
  9
$SHADEDIF
 70
    70
  9
$TILEMODE
 70
     1
  9
$MAXACTVP
 70
    64
  9
$PLIMCHECK
 70
     0
  9
$PEXTMIN
 10
1.0000000000000000E+20
 20
1.0000000000000000E+20
 30
1.0000000000000000E+20
  9
$PEXTMAX
 10
-1.0000000000000000E+20
 20
-1.0000000000000000E+20
 30
-1.0000000000000000E+20
  9
$PLIMMIN
 10
0.0
 20
0.0
  9
$PLIMMAX
 10
12.0
 20
9.0
  9
$UNITMODE
 70
     0
  9
$VISRETAIN
 70
     1
  9
$PLINEGEN
 70
     0
  9
$PSLTSCALE
 70
     1
  0
ENDSEC
  0
SECTION
  2
TABLES
  0
TABLE
  2
VPORT
 70
     1
  0
VPORT
  2
*ACTIVE
 70
     0
 10
0.0
 20
0.0
 11
1.0
 21
1.0
 12
0.0
 22
0.0
 13
0.0
 23
0.0
 14
1.0
 24
1.0
 15
0.0
 25
0.0
 16
0.0
 26
0.0
 36
46.8294770448365085
 17
2285.3555908203129547
 27
133.6669061365028881
 37
0.0
 40
14.2288501887489893
 41
2.5429292929292919
 42
50.0
 43
0.0
 44
0.0
 50
0.0
 51
0.0
 71
     0
 72
   100
 73
     1
 74
     1
 75
     0
 76
     0
 77
     0
 78
     0
  0
ENDTAB
  0
TABLE
  2
LTYPE
 70
     2
  0
LTYPE
  2
CONTINUOUS
 70
     0
  3
Solid line
 72
    65
 73
     0
 40
0.0
  0
LTYPE
  2
PHANTOM2
 70
     0
  3
___ _ _ ___ _ _ ___ _ _ ___ _ _
 72
    65
 73
     6
 40
1.25
 49
0.625
 49
-0.125
 49
0.125
 49
-0.125
 49
0.125
 49
-0.125
  0
ENDTAB
  0
TABLE
  2
LAYER
 70
     2
  0
LAYER
  2
0
 70
     0
 62
   255
  6
CONTINUOUS
  0
LAYER
  2
DEFPOINTS
 70
     0
 62
     7
  6
CONTINUOUS
  0
ENDTAB
  0
TABLE
  2
STYLE
 70
     1
  0
STYLE
  2
STANDARD
 70
     0
 40
0.0
 41
0.8
 50
0.0
 71
     0
 42
0.2
  3
txt
  4

  0
ENDTAB
  0
TABLE
  2
VIEW
 70
     0
  0
ENDTAB
  0
TABLE
  2
UCS
 70
     0
  0
ENDTAB
  0
TABLE
  2
APPID
 70
     9
  0
APPID
  2
ACAD
 70
     0
  0
APPID
  2
ACAD_MLEADERVER
 70
     0
  0
APPID
  2
ACAD_EXEMPT_FROM_CAD_STANDARDS
 70
     0
  0
APPID
  2
ACAD_NAV_VCDISPLAY
 70
     0
  0
APPID
  2
ACAECLAYERSTANDARD
 70
     0
  0
APPID
  2
ACCMTRANSPARENCY
 70
     0
  0
APPID
  2
ACAD_DSTYLE_DIMJAG
 70
     0
  0
APPID
  2
ACAD_DSTYLE_DIMTALN
 70
     0
  0
APPID
  2
ACDBATTR
 70
     0
  0
ENDTAB
  0
TABLE
  2
DIMSTYLE
 70
     1
  0
DIMSTYLE
  2
STANDARD
 70
     0
  3

  4

  5

  6

  7

 40
1.0
 41
0.1875
 42
0.0625
 43
0.38
 44
0.125
 45
0.0
 46
0.0
 47
0.01
 48
0.01
140
0.15625
141
0.09
142
0.0
143
25.3999999999999986
144
1.0
145
0.0
146
1.0
147
0.09
 71
     1
 72
     0
 73
     1
 74
     1
 75
     0
 76
     0
 77
     0
 78
     4
170
     0
171
     2
172
     0
173
     0
174
     0
175
     0
176
     0
177
     0
178
     0
  0
ENDTAB
  0
ENDSEC
  0
SECTION
  2
BLOCKS
  0
BLOCK
  8
0
  2
$MODEL_SPACE
 70
     0
 10
0.0
 20
0.0
 30
0.0
  3
$MODEL_SPACE
  1

  0
ENDBLK
  5
21
  8
0
  0
BLOCK
 67
     1
  8
0
  2
$PAPER_SPACE
 70
     0
 10
0.0
 20
0.0
 30
0.0
  3
$PAPER_SPACE
  1

  0
ENDBLK
  5
1D
 67
     1
  8
0
  0
ENDSEC
  0
SECTION
  2
ENTITIES
  0
ATTDEF
  5
3930
  8
DEFPOINTS
 10
2285.3499925060878013
 20
130.6557491219641918
 30
0.0
 40
0.001
  1
K-23484BR-4
  3

  2
MODELNUMBER
 70
     0
1001
ACDBATTR
1070
     0
1070
     1
  0
ATTDEF
  5
3931
  8
DEFPOINTS
 10
2285.3499925060878013
 20
130.6540824552974982
 30
0.0
 40
0.001
  1
PARALLEL
  3

  2
TRADENAME
 70
     0
1001
ACDBATTR
1070
     0
1070
     1
  0
ATTDEF
  5
3932
  8
DEFPOINTS
 10
2285.3499925060878013
 20
130.6524157886308046
 30
0.0
 40
0.001
  1
BATHROOM SINK FAUCET
  3

  2
PRODUCT
 70
     0
1001
ACDBATTR
1070
     0
1070
     1
  0
LINE
  5
6948
  8
0
 10
2278.927606639464102
 20
133.2205871272809077
 30
0.0
 11
2278.9114044473640206
 21
133.052320928981004
 31
0.0
  0
LINE
  5
6949
  8
0
 10
2280.3520335476641776
 20
130.6676231212809114
 30
0.0
 11
2280.3520335476641776
 21
130.8940010740809896
 31
0.0
  0
LINE
  5
694A
  8
0
 10
2280.8191047977638846
 20
132.8215911640810134
 30
0.0
 11
2280.8049430499640948
 21
130.9925566991809092
 31
0.0
  0
LINE
  5
694B
  8
0
 10
2281.9071516579288073
 20
130.9924042490810052
 30
0.0
 11
2281.9071516579288073
 21
133.2168137690808862
 31
0.0
  0
LINE
  5
694C
  8
0
 10
2282.3599075633637767
 20
130.8940010740809896
 30
0.0
 11
2282.3599075633637767
 21
130.6676231212809114
 31
0.0
  0
LINE
  5
694D
  8
0
 10
2282.3500650436640171
 20
130.657780601580896
 30
0.0
 11
2280.3618760673639372
 21
130.657780601580896
 31
0.0
  0
LINE
  5
694E
  8
0
 10
2284.3712461460640952
 20
130.657780601580896
 30
0.0
 11
2286.3398760673640027
 21
130.657780601580896
 31
0.0
  0
LINE
  5
694F
  8
0
 10
2284.3915611066640849
 20
130.9333711527810067
 30
0.0
 11
2286.3195611067640129
 21
130.9333711527810067
 31
0.0
  0
LINE
  5
6950
  8
0
 10
2282.3205374846647828
 20
130.9333711527810067
 30
0.0
 11
2280.391403626364081
 21
130.9333711527810067
 31
0.0
  0
LINE
  5
6951
  8
0
 10
2281.8874492358640964
 20
130.9727189025809082
 30
0.0
 11
2280.8246692459638325
 21
130.9727191842808907
 31
0.0
  0
LINE
  5
6952
  8
0
 10
2285.223639026463843
 20
135.8236521551808949
 30
0.0
 11
2285.2521866067640985
 21
135.8366163245808877
 31
0.0
  0
LINE
  5
6953
  8
0
 10
2285.2551399476637926
 20
135.8379575103809884
 30
0.0
 11
2285.283691496063966
 21
135.8509234816808942
 31
0.0
  0
LINE
  5
6954
  8
0
 10
2285.2866455119637976
 20
135.8522649740810095
 30
0.0
 11
2285.3181684767641855
 21
135.86658033978091
 31
0.0
  0
LINE
  5
6955
  8
0
 10
2285.3211265196641762
 20
135.8679236609808925
 30
0.0
 11
2285.3389228113637728
 21
135.8760054015810113
 31
0.0
  0
LINE
  5
6956
  8
0
 10
2285.3457419089641007
 20
135.8749731606810087
 30
0.0
 11
2285.3279456172640494
 21
135.8668914200808899
 31
0.0
  0
LINE
  5
6957
  8
0
 10
2285.3249875743640587
 20
135.8655480989810087
 30
0.0
 11
2285.29346460966417
 21
135.8512327332809093
 31
0.0
  0
LINE
  5
6958
  8
0
 10
2285.2905105937638837
 20
135.8498912408809929
 30
0.0
 11
2285.2619590453641649
 21
135.8369252695808882
 31
0.0
  0
LINE
  5
6959
  8
0
 10
2285.2590057044640162
 20
135.8355840836809136
 30
0.0
 11
2285.230458124064171
 21
135.8226199143809083
 31
0.0
  0
LINE
  5
695A
  8
0
 10
2285.2816532547640236
 20
135.8169395444809879
 30
0.0
 11
2285.2964372118640313
 21
135.831405695781001
 31
0.0
  0
LINE
  5
695B
  8
0
 10
2285.3116486422641174
 20
135.8303370414809876
 30
0.0
 11
2285.2968646850640653
 21
135.815870890080987
 31
0.0
  0
LINE
  5
695C
  8
0
 10
2284.3515611066641213
 20
130.677465640981012
 30
0.0
 11
2284.3515611066641213
 21
130.8933711527809862
 31
0.0
  0
LINE
  5
695D
  8
0
 10
2284.5784115003648367
 20
130.9432136724809084
 30
0.0
 11
2284.5784115003648367
 21
136.6499065858810127
 31
0.0
  0
LINE
  5
695E
  8
0
 10
2278.9407960673638627
 20
133.019963278781006
 30
0.0
 11
2280.7729860331651253
 21
133.019963278781006
 31
0.0
  0
LINE
  5
695F
  8
0
 10
2281.8677495718638966
 20
133.2561837511809983
 30
0.0
 11
2278.9667954661640579
 21
133.2561837511809983
 31
0.0
  0
LINE
  5
6960
  8
0
 10
2285.1049615833640019
 20
135.8806504854809134
 30
0.0
 11
2285.1049615833640019
 21
135.8661858066809884
 31
0.0
  0
LINE
  5
6961
  8
0
 10
2285.1307026315648727
 20
135.8637195847773
 30
0.0
 11
2285.1307026315648727
 21
135.8487747249810127
 31
0.0
  0
LINE
  5
6962
  8
0
 10
2285.1552217557641598
 20
135.8827149671809877
 30
0.0
 11
2285.1552217557641598
 21
135.8936486990303933
 31
0.0
  0
LINE
  5
6963
  8
0
 10
2285.1642119530638411
 20
135.8972917247808994
 30
0.0
 11
2285.1642119530638411
 21
135.9095182543078977
 31
0.0
  0
LINE
  5
6964
  8
0
 10
2285.168143344264081
 20
135.8520584544260998
 30
0.0
 11
2285.168143344264081
 21
135.8353560820808923
 31
0.0
  0
LINE
  5
6965
  8
0
 10
2285.1840854990641674
 20
135.908893754580987
 30
0.0
 11
2285.1840854990641674
 21
135.9238295100138032
 31
0.0
  0
LINE
  5
6966
  8
0
 10
2285.1852638276641301
 20
135.8806504854809134
 30
0.0
 11
2285.1852638276641301
 21
135.8570339256810087
 31
0.0
  0
LINE
  5
6967
  8
0
 10
2285.2182315343638948
 20
135.8827149671809877
 30
0.0
 11
2285.2182315343638948
 21
135.9013410405339926
 31
0.0
  0
LINE
  5
6968
  8
0
 10
2285.2196694061640301
 20
135.9203390307810082
 30
0.0
 11
2285.2196694061640301
 21
135.9390873011141991
 31
0.0
  0
LINE
  5
6969
  8
0
 10
2285.223639026463843
 20
135.8420968035472072
 30
0.0
 11
2285.223639026463843
 21
135.8236521551808949
 31
0.0
  0
LINE
  5
696A
  8
0
 10
2285.2386535680648194
 20
135.9006335134810115
 30
0.0
 11
2285.2386535680648194
 21
135.9225710056300045
 31
0.0
  0
LINE
  5
696B
  8
0
 10
2285.2551399476637926
 20
135.8571278481809941
 30
0.0
 11
2285.2551399476637926
 21
135.8379575103809884
 31
0.0
  0
LINE
  5
696C
  8
0
 10
2285.2590057044640162
 20
135.9277813688808862
 30
0.0
 11
2285.2590057044640162
 21
135.9443304627810107
 31
0.0
  0
LINE
  5
696D
  8
0
 10
2285.2816526755827908
 20
135.8327753049541116
 30
0.0
 11
2285.2816532547640236
 21
135.8169395444809879
 31
0.0
  0
LINE
  5
696E
  8
0
 10
2285.2866455119637976
 20
135.8806504854809134
 30
0.0
 11
2285.2866455119637976
 21
135.8522649740810095
 31
0.0
  0
LINE
  5
696F
  8
0
 10
2285.2871854956638344
 20
135.8827149671809877
 30
0.0
 11
2285.2871854956638344
 21
135.9108552583950029
 31
0.0
  0
LINE
  5
6970
  8
0
 10
2285.2905105937638837
 20
135.9134742117809083
 30
0.0
 11
2285.2905105937638837
 21
135.9298095903810122
 31
0.0
  0
LINE
  5
6971
  8
0
 10
2285.3116486422641174
 20
135.9330284111809988
 30
0.0
 11
2285.3116486422641174
 21
135.9483130627625087
 31
0.0
  0
LINE
  5
6972
  8
0
 10
2285.3211265196641762
 20
135.8806504854809134
 30
0.0
 11
2285.3211265196641762
 21
135.8679236609808925
 31
0.0
  0
LINE
  5
6973
  8
0
 10
2285.3249875743640587
 20
135.8978173536810061
 30
0.0
 11
2285.3249875743640587
 21
135.9151552162084045
 31
0.0
  0
LINE
  5
6974
  8
0
 10
2285.3286941648639186
 20
135.8827149671809877
 30
0.0
 11
2285.3286941648639186
 21
135.8920051349035987
 31
0.0
  0
LINE
  5
6975
  8
0
 10
2285.3457419089641007
 20
135.8883922918809048
 30
0.0
 11
2285.3457448329641011
 21
135.8979142800313014
 31
0.0
  0
LINE
  5
6976
  8
0
 10
2285.3520335476641776
 20
135.8140788300810016
 30
0.0
 11
2285.3520335476641776
 21
135.8290485633810079
 31
0.0
  0
LINE
  5
6977
  8
0
 10
2285.3520335476641776
 20
135.8305972313810059
 30
0.0
 11
2285.3520335476641776
 21
135.8457503244536042
 31
0.0
  0
LINE
  5
6978
  8
0
 10
2285.3520335476641776
 20
135.9177964070809139
 30
0.0
 11
2285.3520335476641776
 21
135.9327682211809076
 31
0.0
  0
LINE
  5
6979
  8
0
 10
2285.3520335476641776
 20
135.934316889180991
 30
0.0
 11
2285.3520335476641776
 21
135.9492866224809973
 31
0.0
  0
LINE
  5
697A
  8
0
 10
2285.2964372118640313
 20
135.9319597567809126
 30
0.0
 11
2285.2816532547640236
 21
135.9464259081809985
 31
0.0
  0
LINE
  5
697B
  8
0
 10
2285.2968646850640653
 20
135.9474945624810118
 30
0.0
 11
2285.3116486422641174
 21
135.9330284111809988
 31
0.0
  0
LINE
  5
697C
  8
0
 10
2285.2196694061640301
 20
135.8430264218808929
 30
0.0
 11
2285.1792788841639776
 21
135.8324364640810131
 31
0.0
  0
LINE
  5
697D
  8
0
 10
2285.168143344264081
 20
135.8353560820808923
 30
0.0
 11
2285.2085338663641778
 21
135.8459460398809995
 31
0.0
  0
LINE
  5
697E
  8
0
 10
2285.2386535680648194
 20
135.8627319390809873
 30
0.0
 11
2285.1892008355639518
 21
135.8552460320809132
 31
0.0
  0
LINE
  5
697F
  8
0
 10
2285.1840854990641674
 20
135.8544716979810119
 30
0.0
 11
2285.134639639463785
 21
135.8469868313808888
 31
0.0
  0
LINE
  5
6980
  8
0
 10
2285.1307026315648727
 20
135.8487747249810127
 30
0.0
 11
2285.1801484911638909
 21
135.8562595916810096
 31
0.0
  0
LINE
  5
6981
  8
0
 10
2285.1852638276641301
 20
135.8570339256810087
 30
0.0
 11
2285.2347165601640882
 21
135.8645198326809123
 31
0.0
  0
LINE
  5
6982
  8
0
 10
2285.1642119530638411
 20
135.8660737277809858
 30
0.0
 11
2285.1090374738641913
 21
135.8621975342809094
 31
0.0
  0
LINE
  5
6983
  8
0
 10
2285.1049615833640019
 20
135.8661858066809884
 30
0.0
 11
2285.1601360625641064
 21
135.8700620002809956
 31
0.0
  0
LINE
  5
6984
  8
0
 10
2285.3286941648639186
 20
135.8806504854809134
 30
0.0
 11
2285.2931015813642261
 21
135.8806504854809134
 31
0.0
  0
LINE
  5
6985
  8
0
 10
2285.2871854956638344
 20
135.8806504854809134
 30
0.0
 11
2285.2241395661640126
 21
135.8806504854809134
 31
0.0
  0
LINE
  5
6986
  8
0
 10
2285.2182315343638948
 20
135.8806504854809134
 30
0.0
 11
2285.1611284375640025
 21
135.8806504854809134
 31
0.0
  0
LINE
  5
6987
  8
0
 10
2285.1552217557641598
 20
135.8806504854809134
 30
0.0
 11
2285.0981265949640147
 21
135.8806504854809134
 31
0.0
  0
LINE
  5
6988
  8
0
 10
2285.0981265949640147
 20
135.8827149671809877
 30
0.0
 11
2285.1552217557641598
 21
135.8827149671809877
 31
0.0
  0
LINE
  5
6989
  8
0
 10
2285.1611284375640025
 20
135.8827149671809877
 30
0.0
 11
2285.2182315343638948
 21
135.8827149671809877
 31
0.0
  0
LINE
  5
698A
  8
0
 10
2285.2241395661640126
 20
135.8827149671809877
 30
0.0
 11
2285.2871854956638344
 21
135.8827149671809877
 31
0.0
  0
LINE
  5
698B
  8
0
 10
2285.2931015813642261
 20
135.8827149671809877
 30
0.0
 11
2285.3286941648639186
 21
135.8827149671809877
 31
0.0
  0
LINE
  5
698C
  8
0
 10
2285.1601360625641064
 20
135.8933034523809056
 30
0.0
 11
2285.1049615833640019
 21
135.8971796458810104
 31
0.0
  0
LINE
  5
698D
  8
0
 10
2285.1090374738641913
 20
135.9011679183809065
 30
0.0
 11
2285.1642119530638411
 21
135.8972917247808994
 31
0.0
  0
LINE
  5
698E
  8
0
 10
2285.2347165601640882
 20
135.8988456198808876
 30
0.0
 11
2285.1852638276641301
 21
135.9063315268809902
 31
0.0
  0
LINE
  5
698F
  8
0
 10
2285.1801484911638909
 20
135.9071058609810052
 30
0.0
 11
2285.1307026315648727
 21
135.9145907275809861
 31
0.0
  0
LINE
  5
6990
  8
0
 10
2285.134639639463785
 20
135.9163786211809111
 30
0.0
 11
2285.1840854990641674
 21
135.908893754580987
 31
0.0
  0
LINE
  5
6991
  8
0
 10
2285.1892008355639518
 20
135.9081194205809879
 30
0.0
 11
2285.2386535680648194
 21
135.9006335134810115
 31
0.0
  0
LINE
  5
6992
  8
0
 10
2285.2085338663641778
 20
135.9174194126809994
 30
0.0
 11
2285.168143344264081
 21
135.9280093704809076
 31
0.0
  0
LINE
  5
6993
  8
0
 10
2285.1792788841639776
 20
135.930928988580888
 30
0.0
 11
2285.2196694061640301
 21
135.9203390307810082
 31
0.0
  0
LINE
  5
6994
  8
0
 10
2285.3389228113637728
 20
135.8873600510808899
 30
0.0
 11
2285.3211265196641762
 21
135.8954417915809074
 31
0.0
  0
LINE
  5
6995
  8
0
 10
2285.3181684767641855
 20
135.8967851127810036
 30
0.0
 11
2285.2866455119637976
 21
135.9111004784809893
 31
0.0
  0
LINE
  5
6996
  8
0
 10
2285.283691496063966
 20
135.912441970880991
 30
0.0
 11
2285.2551399476637926
 21
135.9254079421808967
 31
0.0
  0
LINE
  5
6997
  8
0
 10
2285.2521866067640985
 20
135.9267491280810134
 30
0.0
 11
2285.223639026463843
 21
135.9397132973809903
 31
0.0
  0
LINE
  5
6998
  8
0
 10
2285.230458124064171
 20
135.9407455382809076
 30
0.0
 11
2285.2590057044640162
 21
135.9277813688808862
 31
0.0
  0
LINE
  5
6999
  8
0
 10
2285.2619590453641649
 20
135.9264401830808993
 30
0.0
 11
2285.2905105937638837
 21
135.9134742117809083
 31
0.0
  0
LINE
  5
699A
  8
0
 10
2285.29346460966417
 20
135.9121327193809066
 30
0.0
 11
2285.3249875743640587
 21
135.8978173536810061
 31
0.0
  0
LINE
  5
699B
  8
0
 10
2285.3279456172640494
 20
135.89647403248091
 30
0.0
 11
2285.3457419089641007
 21
135.8883922918809048
 31
0.0
  0
LINE
  5
699C
  8
0
 10
2284.6099075633637767
 20
136.1302215464810104
 30
0.0
 11
2286.1012146500647759
 21
136.1302215464810104
 31
0.0
  0
LINE
  5
699D
  8
0
 10
2284.6099075633637767
 20
136.6814026488810043
 30
0.0
 11
2286.1012146500647759
 21
136.6814026488810043
 31
0.0
  0
ARC
  5
699E
  8
0
 10
2280.5949707083750582
 20
132.7960362175780062
 30
0.0
 40
0.2255862259034507
 50
6.5045657529601089
 51
83.0466733312090497
  0
ARC
  5
699F
  8
0
 10
2280.8982716375430755
 20
130.9776870166857066
 30
0.0
 40
0.0445906847381663
 50
276.3644912161099114
 51
353.6033777246473733
  0
ARC
  5
69A0
  8
0
 10
2281.8126665210847932
 20
130.9766835236229099
 30
0.0
 40
0.0434912122263936
 50
185.2302530430993954
 51
264.8021969388840944
  0
ARC
  5
69A1
  8
0
 10
2280.391403626364081
 20
130.8940010740809896
 30
0.0
 40
0.0393700787
 50
90.0
 51
180.0
  0
ARC
  5
69A2
  8
0
 10
2278.9715408116630897
 20
133.2115894545086974
 30
0.0
 40
0.044846065597732
 50
96.0740716266277843
 51
168.4259283733715904
  0
ARC
  5
69A3
  8
0
 10
2281.8628921139938939
 20
133.211920233177608
 30
0.0
 40
0.0445292479500198
 50
6.3092553086002781
 51
83.7374470733575151
  0
ARC
  5
69A4
  8
0
 10
2278.9414072562931324
 20
133.0500460028164014
 30
0.0
 40
0.0300889321395643
 50
175.6639148427686905
 51
268.8360851572435877
  0
ARC
  5
69A5
  8
0
 10
2280.826790760781023
 20
130.9945553024788012
 30
0.0
 40
0.0219389353220767
 50
185.2268040286732003
 51
264.4507749357813964
  0
ARC
  5
69A6
  8
0
 10
2281.8841651027369153
 20
130.9957083139188114
 30
0.0
 40
0.023222802674466
 50
278.1299350660843857
 51
351.8203866814595813
  0
ARC
  5
69A7
  8
0
 10
2280.3635509797359191
 20
130.6692980336532912
 30
0.0
 40
0.011638581227854
 50
188.2741854369959924
 51
261.7258145629916157
  0
ARC
  5
69A8
  8
0
 10
2284.4010762623279334
 20
130.8838559971171946
 30
0.0
 40
0.0504211148995191
 50
100.877727310759596
 51
169.1222726892422941
  0
ARC
  5
69A9
  8
0
 10
2282.3176018978301727
 20
130.8910654872470047
 30
0.0
 40
0.0424073932979672
 50
3.9693870191132028
 51
86.0306129808909787
  0
ARC
  5
69AA
  8
0
 10
2284.3742636085157756
 20
130.6804831034324081
 30
0.0
 40
0.0229021542646143
 50
187.5709913707904093
 51
262.4290086292143087
  0
ARC
  5
69AB
  8
0
 10
2282.3492931664281969
 20
130.6683949985169875
 30
0.0
 40
0.0106424253242823
 50
274.159218611919016
 51
355.8407813880876915
  0
ARC
  5
69AC
  8
0
 10
2284.5900755891370864
 20
130.9450352415533132
 30
0.0
 40
0.0118054682572594
 50
188.8761287063038026
 51
261.1238712937006881
  0
ARC
  5
69AD
  8
0
 10
2285.3553959213641065
 20
136.7676773569810109
 30
0.0
 40
0.9536044546999999
 50
266.4810335414002225
 51
269.7979768028934018
  0
ARC
  5
69AE
  8
0
 10
2285.3558230427652234
 20
136.5813615554808962
 30
0.0
 40
0.7523225361
 50
266.633806344293987
 51
269.7113963928111957
  0
ARC
  5
69AF
  8
0
 10
2284.6150532960818964
 20
136.6447608531626088
 30
0.0
 40
0.0370013480655904
 50
97.993964754256254
 51
172.0060352457441866
  0
ARC
  5
69B0
  8
0
 10
2284.613829791408989
 20
136.1656398375257027
 30
0.0
 40
0.0356348034001326
 50
186.319197475741106
 51
263.6808025242625035
  0
ARC
  5
69B1
  8
0
 10
2285.5878241752111535
 20
136.1349074841056108
 30
0.0
 40
0.6112582002824382
 50
191.8512538341086895
 51
196.8311070892619057
  0
LINE
  5
69B2
  8
0
 10
2281.6212346870638612
 20
133.2171068969809085
 30
0.0
 11
2281.6222820143639183
 21
130.992547741180914
 31
0.0
  0
LINE
  5
69B3
  8
0
 10
2281.0903788015648388
 20
130.9925571590810023
 30
0.0
 11
2281.089897841551192
 21
132.8677829466043079
 31
0.0
  0
ARC
  5
69B4
  8
0
 10
2280.758330264363849
 20
132.583372300552611
 30
0.0
 40
0.4368368961403152
 50
40.6221940140398985
 51
88.0773801083724663
  0
ARC
  5
69B5
  8
0
 10
2281.5661046678242201
 20
133.2151173702879134
 30
0.0
 40
0.0551659064807314
 50
2.0667875297756102
 51
48.1089582896219028
  0
ARC
  5
69B6
  8
0
 10
2281.1213136952637797
 20
130.9951645999877883
 30
0.0
 40
0.0310445872306057
 50
184.817959602605697
 51
226.3033981423903072
  0
ARC
  5
69B7
  8
0
 10
2281.5927609077471061
 20
130.9945012534786031
 30
0.0
 40
0.0295856712987925
 50
312.5875481037597865
 51
356.2140625475879006
  0
ARC
  5
69B8
  8
0
 10
2284.5949482098421868
 20
135.9156884829351952
 30
0.0
 40
0.2163348588852404
 50
17.8436656917573906
 51
82.6000464139485757
  0
ARC
  5
69B9
  8
0
 10
2284.9486841035909492
 20
136.0715761149135119
 30
0.0
 40
0.172843579581666
 50
211.2234411904694014
 51
252.5339003874927926
  0
ARC
  5
69BA
  8
0
 10
2285.1862943648739019
 20
136.6364896468234917
 30
0.0
 40
0.7851075460867035
 50
248.3630718873372984
 51
262.9875452807481224
  0
ARC
  5
69BB
  8
0
 10
2285.2822005992052254
 20
136.233355739113108
 30
0.0
 40
0.4221637121261841
 50
242.9850943806434884
 51
265.6840856906130171
  0
ARC
  5
69BC
  8
0
 10
2285.3712676367358654
 20
137.4010038336726041
 30
0.0
 40
1.5932037518450239
 50
265.6501983415238897
 51
269.4351428951259777
  0
ARC
  5
69BD
  8
0
 10
2285.1650142726721242
 20
135.9506114292609027
 30
0.0
 40
0.1194825737122828
 50
219.8700032251063874
 51
231.3833709678521018
  0
ARC
  5
69BE
  8
0
 10
2285.2088931206658344
 20
135.9891959814414122
 30
0.0
 40
0.1779003739812901
 50
202.5635600671130874
 51
220.3483531727997047
  0
ARC
  5
69BF
  8
0
 10
2285.2017927945307747
 20
135.9860029854621928
 30
0.0
 40
0.1701185155517916
 50
188.0678038855459135
 51
202.488071974927891
  0
ARC
  5
69C0
  8
0
 10
2285.0854984466191127
 20
135.954542994270895
 30
0.0
 40
0.0526892266126192
 50
105.1387050065101931
 51
171.7233949778647002
  0
ARC
  5
69C1
  8
0
 10
2285.2645182398600809
 20
135.5411158939591019
 30
0.0
 40
0.5027198880726828
 50
95.759282566052093
 51
112.5490281829190025
  0
ARC
  5
69C2
  8
0
 10
2285.3789180873282021
 20
134.4996153490997983
 30
0.0
 40
1.5504711060423739
 50
90.8631615436175792
 51
96.1032720304307304
  0
ARC
  5
69C3
  8
0
 10
2285.1016426593478172
 20
135.8837768428134893
 30
0.0
 40
0.0274295167933807
 50
191.9292605610199018
 51
222.6141788863779993
  0
ARC
  5
69C4
  8
0
 10
2285.0993117470561629
 20
135.8810336023321952
 30
0.0
 40
0.0246803506421062
 50
134.7998582280656024
 51
186.81004282733781
  0
ARC
  5
69C5
  8
0
 10
2285.1871299255299164
 20
135.7714723501308072
 30
0.0
 40
0.1649746038620919
 50
101.6214578959170041
 51
129.6225335626967023
  0
ARC
  5
69C6
  8
0
 10
2285.3233754051389042
 20
135.2591466358566095
 30
0.0
 40
0.6949021128202232
 50
94.0470008763491165
 51
104.1161669664948022
  0
ARC
  5
69C7
  8
0
 10
2285.3574694734170407
 20
134.8649439213677113
 30
0.0
 40
1.090545618599968
 50
90.100263035113116
 51
94.3721268206045352
  0
ARC
  5
69C8
  8
0
 10
2285.3415299922739905
 20
136.590128876311411
 30
0.0
 40
0.7755043304529511
 50
261.765474202618293
 51
265.5717821266450756
  0
ARC
  5
69C9
  8
0
 10
2285.3450496378040953
 20
136.4366450315345958
 30
0.0
 40
0.607188456329003
 50
261.8532621324432057
 51
265.4078985396650978
  0
ARC
  5
69CA
  8
0
 10
2285.3152799016929748
 20
136.2423583979168029
 30
0.0
 40
0.4106183068737481
 50
256.5353622457546976
 51
261.1612378620582717
  0
ARC
  5
69CB
  8
0
 10
2285.3033727323459061
 20
136.3427017178480014
 30
0.0
 40
0.5251379936345132
 50
256.3313143045343736
 51
261.2667860991396083
  0
ARC
  5
69CC
  8
0
 10
2285.2595518977691427
 20
136.0315636551549972
 30
0.0
 40
0.1925012691625402
 50
246.9190881487255069
 51
254.6314436096814973
  0
ARC
  5
69CD
  8
0
 10
2285.2362996783222115
 20
136.0857592077690867
 30
0.0
 40
0.2595130270845076
 50
246.9375718976515941
 51
254.773727678108088
  0
ARC
  5
69CE
  8
0
 10
2285.1692356415710492
 20
135.9351649244082125
 30
0.0
 40
0.094594182787892
 50
230.4773356250668996
 51
245.9614795098289903
  0
ARC
  5
69CF
  8
0
 10
2285.1221591285770955
 20
135.8831593617136093
 30
0.0
 40
0.0241631358017502
 50
185.9598045864067046
 51
224.6244338624447039
  0
ARC
  5
69D0
  8
0
 10
2285.1259943244058377
 20
135.8783938473966941
 30
0.0
 40
0.0282007521245663
 50
138.2297502189038028
 51
171.1860110262620935
  0
ARC
  5
69D1
  8
0
 10
2285.1696990944478785
 20
135.8274524890123018
 30
0.0
 40
0.0954662073134718
 50
114.1096669564123971
 51
129.4515175630698138
  0
ARC
  5
69D2
  8
0
 10
2285.235243438289217
 20
135.6806488651212987
 30
0.0
 40
0.2562999068082793
 50
105.1770749249289025
 51
113.1116254993036989
  0
ARC
  5
69D3
  8
0
 10
2285.3037879764378886
 20
135.4185667754130122
 30
0.0
 40
0.5272736969934987
 50
98.7432154017766379
 51
103.658683945960405
  0
ARC
  5
69D4
  8
0
 10
2285.3429822282651003
 20
135.160148095730591
 30
0.0
 40
0.7886659884528712
 50
94.4599900667655277
 51
98.202753603975026
  0
ARC
  5
69D5
  8
0
 10
2285.3531538537190499
 20
135.0647105122683911
 30
0.0
 40
0.8845768196248007
 50
90.072564444917532
 51
93.6484251916671582
  0
ARC
  5
69D6
  8
0
 10
2285.3538449640309409
 20
135.2440030006260088
 30
0.0
 40
0.6903162651720169
 50
90.1503464964164039
 51
93.5044505981424834
  0
ARC
  5
69D7
  8
0
 10
2285.3448855048209225
 20
135.3281907835456934
 30
0.0
 40
0.6057096747881161
 50
94.5877609125631551
 51
98.1510784153164337
  0
ARC
  5
69D8
  8
0
 10
2285.31578761927085
 20
135.5184315003301094
 30
0.0
 40
0.4132413022969317
 50
98.8534511138012562
 51
103.4499487780633018
  0
ARC
  5
69D9
  8
0
 10
2285.2612839863481895
 20
135.7268348215702929
 30
0.0
 40
0.1977499975421058
 50
105.4710566902412978
 51
112.9784115513543981
  0
ARC
  5
69DA
  8
0
 10
2285.2098372887580808
 20
135.8410499288835922
 30
0.0
 40
0.072421066464076
 50
114.2015043056440931
 51
129.0501875532077918
  0
ARC
  5
69DB
  8
0
 10
2285.1736793837858386
 20
135.8805831011588907
 30
0.0
 40
0.0185803359742307
 50
136.7947712409105918
 51
173.4115006443296068
  0
ARC
  5
69DC
  8
0
 10
2285.1734725162009454
 20
135.8826863405286929
 30
0.0
 40
0.0183639582415651
 50
186.3649767861303985
 51
223.428751320371191
  0
ARC
  5
69DD
  8
0
 10
2285.2112747003870936
 20
135.9246496432967888
 30
0.0
 40
0.0751401361727157
 50
231.2199064686629129
 51
245.5284017991560859
  0
ARC
  5
69DE
  8
0
 10
2285.3535904994992052
 20
136.4969920198342095
 30
0.0
 40
0.666396607266784
 50
262.0966255496360873
 51
269.866135497697428
  0
ARC
  5
69DF
  8
0
 10
2285.3502821612210028
 20
136.2788332148676034
 30
0.0
 40
0.4330864317013563
 50
262.0671153037371255
 51
270.2317027679220018
  0
ARC
  5
69E0
  8
0
 10
2285.3128805248438766
 20
136.0540440593875076
 30
0.0
 40
0.205207135570254
 50
248.7943054554619096
 51
261.8224106169581091
  0
ARC
  5
69E1
  8
0
 10
2285.2952167579360321
 20
136.1252035291473135
 30
0.0
 40
0.290028319339179
 50
248.5593994972531959
 51
262.0573165995554064
  0
ARC
  5
69E2
  8
0
 10
2285.2411931705451025
 20
135.8876276455841889
 30
0.0
 40
0.0239982811716214
 50
196.9020139921719874
 51
254.3429871380475049
  0
ARC
  5
69E3
  8
0
 10
2285.196628437290201
 20
135.8927892926704999
 30
0.0
 40
0.0375180039514201
 50
198.877519522923393
 51
252.367481649295911
  0
ARC
  5
69E4
  8
0
 10
2285.1970037654691623
 20
135.8701925861041104
 30
0.0
 40
0.0379980154763608
 50
107.9966789206951034
 51
160.7583196645248051
  0
ARC
  5
69E5
  8
0
 10
2285.2977321634530199
 20
135.628568064714301
 30
0.0
 40
0.2998799921639272
 50
98.165380951057216
 51
111.2179027895378027
  0
ARC
  5
69E6
  8
0
 10
2285.3534566760631606
 20
135.2682782906238117
 30
0.0
 40
0.664491454502077
 50
90.1227093482402069
 51
97.9145294778440842
  0
ARC
  5
69E7
  8
0
 10
2285.3544128747757895
 20
135.4439027709950949
 30
0.0
 40
0.4738996091158672
 50
90.2876684675476753
 51
97.7495702389302465
  0
ARC
  5
69E8
  8
0
 10
2285.3128629437619566
 20
135.7093884481045905
 30
0.0
 40
0.2051382618446802
 50
98.1753928575111701
 51
111.207891067197906
  0
ARC
  5
69E9
  8
0
 10
2285.2427424861648433
 20
135.8741544542552901
 30
0.0
 40
0.0259628416803865
 50
108.0068840821072058
 51
160.748112689339905
  0
ARC
  5
69EA
  8
0
 10
2285.2507440346180374
 20
135.8716321323632883
 30
0.0
 40
0.0288205997393536
 50
107.5369138160964013
 51
157.3844665478682998
  0
ARC
  5
69EB
  8
0
 10
2285.3136280736448498
 20
135.721830392567
 30
0.0
 40
0.1911837442271765
 50
98.1134818768853023
 51
111.9837027224073012
  0
ARC
  5
69EC
  8
0
 10
2285.2549499524179737
 20
135.8953780583541118
 30
0.0
 40
0.0341493968297871
 50
205.5481148317350915
 51
256.948093634917484
  0
ARC
  5
69ED
  8
0
 10
2285.3153384678998918
 20
136.0508930791849878
 30
0.0
 40
0.2006898349632272
 50
250.1637835513143955
 51
261.7801607395031169
  0
ARC
  5
69EE
  8
0
 10
2285.3993803516200387
 20
136.9748600406446997
 30
0.0
 40
1.128608200505216
 50
264.6150770445524927
 51
267.7748797109376824
  0
ARC
  5
69EF
  8
0
 10
2285.3562354178930036
 20
136.1175216072520868
 30
0.0
 40
0.2539036758215935
 50
262.9307042721475796
 51
269.847835089682178
  0
ARC
  5
69F0
  8
0
 10
2285.3754355080282039
 20
136.4054955509269007
 30
0.0
 40
0.5406937205932991
 50
264.9611382016094012
 51
267.8934915505017784
  0
ARC
  5
69F1
  8
0
 10
2285.3558021708881824
 20
135.9728594085003124
 30
0.0
 40
0.0984018616802027
 50
264.1320273017055911
 51
269.8596370705291179
  0
ARC
  5
69F2
  8
0
 10
2285.3352325339142226
 20
135.9727715273025979
 30
0.0
 40
0.1075534767514532
 50
250.7676533602997893
 51
260.8710772440804817
  0
ARC
  5
69F3
  8
0
 10
2285.3067047056019874
 20
135.8936125201119864
 30
0.0
 40
0.0234310456096205
 50
213.586766413865405
 51
252.8729111738200004
  0
ARC
  5
69F4
  8
0
 10
2285.3094486286167921
 20
135.8661284124451925
 30
0.0
 40
0.0277625806952191
 50
107.589027611651801
 51
143.3130275804819007
  0
ARC
  5
69F5
  8
0
 10
2285.3356381590479032
 20
135.7884740592591868
 30
0.0
 40
0.1097108659800879
 50
99.1624282611218746
 51
108.3718788078831068
  0
ARC
  5
69F6
  8
0
 10
2285.3362944359710127
 20
135.9620948327784902
 30
0.0
 40
0.0953848797389638
 50
250.4029276521496001
 51
260.8500958334051916
  0
ARC
  5
69F7
  8
0
 10
2285.3101883666467984
 20
135.8917309536790867
 30
0.0
 40
0.0203650437464736
 50
212.9626721765293951
 51
253.1994075341594908
  0
ARC
  5
69F8
  8
0
 10
2285.3138503435529856
 20
135.8667651127204863
 30
0.0
 40
0.0261707659361789
 50
108.2066776371343053
 51
142.4500308818053043
  0
ARC
  5
69F9
  8
0
 10
2285.3374256730880916
 20
135.7962436357007903
 30
0.0
 40
0.1005282872249096
 50
99.3308407896937382
 51
108.412382343654798
  0
ARC
  5
69FA
  8
0
 10
2285.3655673370931254
 20
135.4979591961806022
 30
0.0
 40
0.4019120093536649
 50
91.4266157763046579
 51
95.7948448614787651
  0
ARC
  5
69FB
  8
0
 10
2285.3592445238841719
 20
135.3919794790593869
 30
0.0
 40
0.5242960905173277
 50
90.4025320767419345
 51
97.2075111677719832
  0
ARC
  5
69FC
  8
0
 10
2285.3583741851462037
 20
135.6311297541288923
 30
0.0
 40
0.2670832900005178
 50
90.6034840359406957
 51
96.541862990343887
  0
ARC
  5
69FD
  8
0
 10
2285.3558130742940193
 20
135.7903020569623891
 30
0.0
 40
0.0986058951456772
 50
90.1464080275937079
 51
95.8621570865366266
  0
ARC
  5
69FE
  8
0
 10
2285.3409560725867777
 20
135.8692982638413866
 30
0.0
 40
0.01817587162926
 50
96.4228908485790015
 51
132.4250801577138077
  0
ARC
  5
69FF
  8
0
 10
2285.3405849109972223
 20
135.8932498772759061
 30
0.0
 40
0.0173243908169901
 50
226.6574459265096095
 51
264.4945830671999829
  0
ARC
  5
6A00
  8
0
 10
2284.863184224008819
 20
135.9923394506915031
 30
0.0
 40
0.0631633504826306
 50
122.0917975748621984
 51
189.4416010576454141
  0
ARC
  5
6A01
  8
0
 10
2285.0383293189261167
 20
135.6591926589204888
 30
0.0
 40
0.4393877401677046
 50
96.6301920865553967
 51
118.3583383392086006
  0
ARC
  5
6A02
  8
0
 10
2285.3237995679241976
 20
133.7990527440618109
 30
0.0
 40
2.3210672604210751
 50
93.1265415560491903
 51
98.328483987222981
  0
ARC
  5
6A03
  8
0
 10
2285.3594028139132206
 20
133.452206471314895
 30
0.0
 40
2.6693909256317072
 50
90.0824583924783155
 51
93.4835497112521665
  0
ARC
  5
6A04
  8
0
 10
2285.0981081251898104
 20
136.0370608649604094
 30
0.0
 40
0.1278570849961929
 50
230.8755125624477955
 51
245.2651572410136964
  0
ARC
  5
6A05
  8
0
 10
2285.0439696716971412
 20
135.9727045920346882
 30
0.0
 40
0.0437912840840216
 50
199.7361431362182884
 51
232.6945623962728007
  0
ARC
  5
6A06
  8
0
 10
2285.0341439251092197
 20
135.9648191402617101
 30
0.0
 40
0.0321429932343515
 50
125.4317267354766017
 51
192.4002751990686022
  0
ARC
  5
6A07
  8
0
 10
2285.1687912417091866
 20
135.7721264458936901
 30
0.0
 40
0.2672172236890447
 50
99.3864911491642857
 51
125.0031803475973931
  0
ARC
  5
6A08
  8
0
 10
2285.3295584127008624
 20
135.07328142363491
 30
0.0
 40
0.9839382595327016
 50
93.2295170835807454
 51
101.9866803979942063
  0
ARC
  5
6A09
  8
0
 10
2285.4524432580460598
 20
131.5794964691363873
 30
0.0
 40
4.479710953644588
 50
91.2392253084639862
 51
92.2812735251880838
  0
ARC
  5
6A0A
  8
0
 10
2285.0274062311241323
 20
136.0123897136137998
 30
0.0
 40
0.0379309168878257
 50
122.7899872138684003
 51
184.5625610712372975
  0
ARC
  5
6A0B
  8
0
 10
2285.1691382989561134
 20
135.794830281617493
 30
0.0
 40
0.297584264813787
 50
99.5040787204948742
 51
123.0454621512769933
  0
ARC
  5
6A0C
  8
0
 10
2285.3067546620318353
 20
135.2212554047362119
 30
0.0
 40
0.8869581329268449
 50
96.2882187309150765
 51
102.1548361709586032
  0
ARC
  5
6A0D
  8
0
 10
2285.377876741521959
 20
133.7519500967034105
 30
0.0
 40
2.3569414495003591
 50
90.5424872966868008
 51
94.0940350455768311
  0
ARC
  5
6A0E
  8
0
 10
2285.3017372049071128
 20
134.8452621496473114
 30
0.0
 40
1.2609851772409819
 50
94.1899187524694952
 51
100.9011498594998955
  0
ARC
  5
6A0F
  8
0
 10
2285.1473637641001915
 20
135.5624913447059043
 30
0.0
 40
0.5277451339348707
 50
99.1693648684626652
 51
117.3552945033728037
  0
ARC
  5
6A10
  8
0
 10
2284.949714065588978
 20
135.9464199885042035
 30
0.0
 40
0.0959321674545516
 50
117.8752150117007034
 51
148.7589653849470892
  0
ARC
  5
6A11
  8
0
 10
2284.9007213258641968
 20
135.9794389784115936
 30
0.0
 40
0.0370264186673595
 50
153.1291776655963872
 51
218.5909718570057123
  0
ARC
  5
6A12
  8
0
 10
2285.0054530261600121
 20
136.0782425463642937
 30
0.0
 40
0.1809078318048113
 50
222.3624633069379968
 51
254.9469323992854868
  0
ARC
  5
6A13
  8
0
 10
2285.2009180212980937
 20
136.6084759488192049
 30
0.0
 40
0.7454615160190442
 50
251.0202650809683007
 51
260.1436733636177223
  0
ARC
  5
6A14
  8
0
 10
2285.0966315836071772
 20
136.2314847323773961
 30
0.0
 40
0.3041073003712208
 50
235.4408741944019994
 51
254.9037262307415972
  0
ARC
  5
6A15
  8
0
 10
2284.9437290445721374
 20
136.0173535341058084
 30
0.0
 40
0.0412675755569879
 50
160.3644125629782877
 51
241.6372260134127998
  0
ARC
  5
6A16
  8
0
 10
2284.9544561628222255
 20
136.0563077898113988
 30
0.0
 40
0.0811496118734826
 50
209.6060254505671026
 51
248.0516149590677912
  0
LINE
  5
6A17
  8
0
 10
2291.7835155739639958
 20
133.2205871272809077
 30
0.0
 11
2291.7997177660640773
 21
133.052320928981004
 31
0.0
  0
LINE
  5
6A18
  8
0
 10
2290.3590886657639203
 20
130.6676231212809114
 30
0.0
 11
2290.3590886657639203
 21
130.8940010740809896
 31
0.0
  0
LINE
  5
6A19
  8
0
 10
2289.8920174156642133
 20
132.8215911640810134
 30
0.0
 11
2289.9061791634640031
 21
130.9925566991809092
 31
0.0
  0
LINE
  5
6A1A
  8
0
 10
2288.8039705554988359
 20
130.9924042490810052
 30
0.0
 11
2288.8039705554988359
 21
133.2168137690808862
 31
0.0
  0
LINE
  5
6A1B
  8
0
 10
2288.3512146500638664
 20
130.8940010740809896
 30
0.0
 11
2288.3512146500638664
 21
130.6676231212809114
 31
0.0
  0
LINE
  5
6A1C
  8
0
 10
2288.3610571697640808
 20
130.657780601580896
 30
0.0
 11
2290.3492461460641607
 21
130.657780601580896
 31
0.0
  0
LINE
  5
6A1D
  8
0
 10
2288.3905847287642246
 20
130.9333711527810067
 30
0.0
 11
2290.3197185870640169
 21
130.9333711527810067
 31
0.0
  0
LINE
  5
6A1E
  8
0
 10
2288.8236729775640015
 20
130.9727189025809082
 30
0.0
 11
2289.8864529674638106
 21
130.9727191842808907
 31
0.0
  0
LINE
  5
6A1F
  8
0
 10
2285.4874831869638001
 20
135.8236521551808949
 30
0.0
 11
2285.4589356066639994
 21
135.8366163245808877
 31
0.0
  0
LINE
  5
6A20
  8
0
 10
2285.4559822657638506
 20
135.8379575103809884
 30
0.0
 11
2285.4274307173641319
 21
135.8509234816808942
 31
0.0
  0
LINE
  5
6A21
  8
0
 10
2285.4244767014638455
 20
135.8522649740810095
 30
0.0
 11
2285.3929537366639124
 21
135.86658033978091
 31
0.0
  0
LINE
  5
6A22
  8
0
 10
2285.3899956937648312
 20
135.8679236609808925
 30
0.0
 11
2285.3721994020638704
 21
135.8760054015810113
 31
0.0
  0
LINE
  5
6A23
  8
0
 10
2285.3653803044639972
 20
135.8749731606810087
 30
0.0
 11
2285.3831765961640485
 21
135.8668914200808899
 31
0.0
  0
LINE
  5
6A24
  8
0
 10
2285.3861346390640392
 20
135.8655480989810087
 30
0.0
 11
2285.4176576037648374
 21
135.8512327332809093
 31
0.0
  0
LINE
  5
6A25
  8
0
 10
2285.4206116196642142
 20
135.8498912408809929
 30
0.0
 11
2285.4491631680648425
 21
135.8369252695808882
 31
0.0
  0
LINE
  5
6A26
  8
0
 10
2285.4521165089640817
 20
135.8355840836809136
 30
0.0
 11
2285.4806640893648364
 21
135.8226199143809083
 31
0.0
  0
LINE
  5
6A27
  8
0
 10
2285.4294689586640743
 20
135.8169395444809879
 30
0.0
 11
2285.4146850015640666
 21
135.831405695781001
 31
0.0
  0
LINE
  5
6A28
  8
0
 10
2285.3994735711639805
 20
135.8303370414809876
 30
0.0
 11
2285.4142575283640326
 21
135.815870890080987
 31
0.0
  0
LINE
  5
6A29
  8
0
 10
2286.3595611067639766
 20
130.677465640981012
 30
0.0
 11
2286.3595611067639766
 21
130.8933711527809862
 31
0.0
  0
LINE
  5
6A2A
  8
0
 10
2286.1327107130641707
 20
130.9432136724809084
 30
0.0
 11
2286.1327107130641707
 21
136.6499065858810127
 31
0.0
  0
LINE
  5
6A2B
  8
0
 10
2291.7703261460637805
 20
133.019963278781006
 30
0.0
 11
2289.9381361802638821
 21
133.019963278781006
 31
0.0
  0
LINE
  5
6A2C
  8
0
 10
2288.8433726415642013
 20
133.2561837511809983
 30
0.0
 11
2291.74432674726404
 21
133.2561837511809983
 31
0.0
  0
LINE
  5
6A2D
  8
0
 10
2285.606160630064096
 20
135.8806504854809134
 30
0.0
 11
2285.606160630064096
 21
135.8661858066809884
 31
0.0
  0
LINE
  5
6A2E
  8
0
 10
2285.5804195818641347
 20
135.8637195847773
 30
0.0
 11
2285.5804195818641347
 21
135.8487747249810127
 31
0.0
  0
LINE
  5
6A2F
  8
0
 10
2285.5559004576639381
 20
135.8827149671809877
 30
0.0
 11
2285.5559004576639381
 21
135.8936486990303933
 31
0.0
  0
LINE
  5
6A30
  8
0
 10
2285.5469102603638021
 20
135.8972917247808994
 30
0.0
 11
2285.5469102603638021
 21
135.9095182543078977
 31
0.0
  0
LINE
  5
6A31
  8
0
 10
2285.5429788691640169
 20
135.8520584544260998
 30
0.0
 11
2285.5429788691640169
 21
135.8353560820808923
 31
0.0
  0
LINE
  5
6A32
  8
0
 10
2285.5270367143639305
 20
135.908893754580987
 30
0.0
 11
2285.5270367143639305
 21
135.9238295100138032
 31
0.0
  0
LINE
  5
6A33
  8
0
 10
2285.5258583857639678
 20
135.8806504854809134
 30
0.0
 11
2285.5258583857639678
 21
135.8570339256810087
 31
0.0
  0
LINE
  5
6A34
  8
0
 10
2285.4928906790642031
 20
135.8827149671809877
 30
0.0
 11
2285.4928906790642031
 21
135.9013410405339926
 31
0.0
  0
LINE
  5
6A35
  8
0
 10
2285.4914528072640678
 20
135.9203390307810082
 30
0.0
 11
2285.4914528072640678
 21
135.9390873011141991
 31
0.0
  0
LINE
  5
6A36
  8
0
 10
2285.4874831869638001
 20
135.8420968035472072
 30
0.0
 11
2285.4874831869638001
 21
135.8236521551808949
 31
0.0
  0
LINE
  5
6A37
  8
0
 10
2285.472468645364188
 20
135.9006335134810115
 30
0.0
 11
2285.472468645364188
 21
135.9225710056300045
 31
0.0
  0
LINE
  5
6A38
  8
0
 10
2285.4559822657638506
 20
135.8571278481809941
 30
0.0
 11
2285.4559822657638506
 21
135.8379575103809884
 31
0.0
  0
LINE
  5
6A39
  8
0
 10
2285.4521165089640817
 20
135.9277813688808862
 30
0.0
 11
2285.4521165089640817
 21
135.9443304627810107
 31
0.0
  0
LINE
  5
6A3A
  8
0
 10
2285.4294695378448523
 20
135.8327753049541116
 30
0.0
 11
2285.4294689586640743
 21
135.8169395444809879
 31
0.0
  0
LINE
  5
6A3B
  8
0
 10
2285.4244767014638455
 20
135.8806504854809134
 30
0.0
 11
2285.4244767014638455
 21
135.8522649740810095
 31
0.0
  0
LINE
  5
6A3C
  8
0
 10
2285.4239367177638087
 20
135.8827149671809877
 30
0.0
 11
2285.4239367177638087
 21
135.9108552583950029
 31
0.0
  0
LINE
  5
6A3D
  8
0
 10
2285.4206116196642142
 20
135.9134742117809083
 30
0.0
 11
2285.4206116196642142
 21
135.9298095903810122
 31
0.0
  0
LINE
  5
6A3E
  8
0
 10
2285.3994735711639805
 20
135.9330284111809988
 30
0.0
 11
2285.3994735711639805
 21
135.9483130627625087
 31
0.0
  0
LINE
  5
6A3F
  8
0
 10
2285.3899956937648312
 20
135.8806504854809134
 30
0.0
 11
2285.3899956937648312
 21
135.8679236609808925
 31
0.0
  0
LINE
  5
6A40
  8
0
 10
2285.3861346390640392
 20
135.8978173536810061
 30
0.0
 11
2285.3861346390640392
 21
135.9151552162084045
 31
0.0
  0
LINE
  5
6A41
  8
0
 10
2285.3824280485641793
 20
135.8827149671809877
 30
0.0
 11
2285.3824280485641793
 21
135.8920051349035987
 31
0.0
  0
LINE
  5
6A42
  8
0
 10
2285.3653803044639972
 20
135.8883922918809048
 30
0.0
 11
2285.3653773804649063
 21
135.8979142800313014
 31
0.0
  0
LINE
  5
6A43
  8
0
 10
2285.3590886657648298
 20
135.8140788300810016
 30
0.0
 11
2285.3590886657648298
 21
135.8290485633810079
 31
0.0
  0
LINE
  5
6A44
  8
0
 10
2285.3590886657648298
 20
135.8305972313810059
 30
0.0
 11
2285.3590886657648298
 21
135.8457503244536042
 31
0.0
  0
LINE
  5
6A45
  8
0
 10
2285.3590886657648298
 20
135.9177964070809139
 30
0.0
 11
2285.3590886657648298
 21
135.9327682211809076
 31
0.0
  0
LINE
  5
6A46
  8
0
 10
2285.3590886657648298
 20
135.934316889180991
 30
0.0
 11
2285.3590886657648298
 21
135.9492866224809973
 31
0.0
  0
LINE
  5
6A47
  8
0
 10
2285.4146850015640666
 20
135.9319597567809126
 30
0.0
 11
2285.4294689586640743
 21
135.9464259081809985
 31
0.0
  0
LINE
  5
6A48
  8
0
 10
2285.4142575283640326
 20
135.9474945624810118
 30
0.0
 11
2285.3994735711639805
 21
135.9330284111809988
 31
0.0
  0
LINE
  5
6A49
  8
0
 10
2285.4914528072640678
 20
135.8430264218808929
 30
0.0
 11
2285.5318433292641203
 21
135.8324364640810131
 31
0.0
  0
LINE
  5
6A4A
  8
0
 10
2285.5429788691640169
 20
135.8353560820808923
 30
0.0
 11
2285.5025883470639201
 21
135.8459460398809995
 31
0.0
  0
LINE
  5
6A4B
  8
0
 10
2285.472468645364188
 20
135.8627319390809873
 30
0.0
 11
2285.5219213778641461
 21
135.8552460320809132
 31
0.0
  0
LINE
  5
6A4C
  8
0
 10
2285.5270367143639305
 20
135.8544716979810119
 30
0.0
 11
2285.5764825739652224
 21
135.8469868313808888
 31
0.0
  0
LINE
  5
6A4D
  8
0
 10
2285.5804195818641347
 20
135.8487747249810127
 30
0.0
 11
2285.5309737222651165
 21
135.8562595916810096
 31
0.0
  0
LINE
  5
6A4E
  8
0
 10
2285.5258583857639678
 20
135.8570339256810087
 30
0.0
 11
2285.4764056532640097
 21
135.8645198326809123
 31
0.0
  0
LINE
  5
6A4F
  8
0
 10
2285.5469102603638021
 20
135.8660737277809858
 30
0.0
 11
2285.6020847395648161
 21
135.8621975342809094
 31
0.0
  0
LINE
  5
6A50
  8
0
 10
2285.606160630064096
 20
135.8661858066809884
 30
0.0
 11
2285.5509861508639915
 21
135.8700620002809956
 31
0.0
  0
LINE
  5
6A51
  8
0
 10
2285.3824280485641793
 20
135.8806504854809134
 30
0.0
 11
2285.4180206320638717
 21
135.8806504854809134
 31
0.0
  0
LINE
  5
6A52
  8
0
 10
2285.4239367177638087
 20
135.8806504854809134
 30
0.0
 11
2285.4869826472640852
 21
135.8806504854809134
 31
0.0
  0
LINE
  5
6A53
  8
0
 10
2285.4928906790642031
 20
135.8806504854809134
 30
0.0
 11
2285.5499937758640954
 21
135.8806504854809134
 31
0.0
  0
LINE
  5
6A54
  8
0
 10
2285.5559004576639381
 20
135.8806504854809134
 30
0.0
 11
2285.6129956184640832
 21
135.8806504854809134
 31
0.0
  0
LINE
  5
6A55
  8
0
 10
2285.6129956184640832
 20
135.8827149671809877
 30
0.0
 11
2285.5559004576639381
 21
135.8827149671809877
 31
0.0
  0
LINE
  5
6A56
  8
0
 10
2285.5499937758640954
 20
135.8827149671809877
 30
0.0
 11
2285.4928906790642031
 21
135.8827149671809877
 31
0.0
  0
LINE
  5
6A57
  8
0
 10
2285.4869826472640852
 20
135.8827149671809877
 30
0.0
 11
2285.4239367177638087
 21
135.8827149671809877
 31
0.0
  0
LINE
  5
6A58
  8
0
 10
2285.4180206320638717
 20
135.8827149671809877
 30
0.0
 11
2285.3824280485641793
 21
135.8827149671809877
 31
0.0
  0
LINE
  5
6A59
  8
0
 10
2285.5509861508639915
 20
135.8933034523809056
 30
0.0
 11
2285.606160630064096
 21
135.8971796458810104
 31
0.0
  0
LINE
  5
6A5A
  8
0
 10
2285.6020847395648161
 20
135.9011679183809065
 30
0.0
 11
2285.5469102603638021
 21
135.8972917247808994
 31
0.0
  0
LINE
  5
6A5B
  8
0
 10
2285.4764056532640097
 20
135.8988456198808876
 30
0.0
 11
2285.5258583857639678
 21
135.9063315268809902
 31
0.0
  0
LINE
  5
6A5C
  8
0
 10
2285.5309737222651165
 20
135.9071058609810052
 30
0.0
 11
2285.5804195818641347
 21
135.9145907275809861
 31
0.0
  0
LINE
  5
6A5D
  8
0
 10
2285.5764825739652224
 20
135.9163786211809111
 30
0.0
 11
2285.5270367143639305
 21
135.908893754580987
 31
0.0
  0
LINE
  5
6A5E
  8
0
 10
2285.5219213778641461
 20
135.9081194205809879
 30
0.0
 11
2285.472468645364188
 21
135.9006335134810115
 31
0.0
  0
LINE
  5
6A5F
  8
0
 10
2285.5025883470639201
 20
135.9174194126809994
 30
0.0
 11
2285.5429788691640169
 21
135.9280093704809076
 31
0.0
  0
LINE
  5
6A60
  8
0
 10
2285.5318433292641203
 20
135.930928988580888
 30
0.0
 11
2285.4914528072640678
 21
135.9203390307810082
 31
0.0
  0
LINE
  5
6A61
  8
0
 10
2285.3721994020638704
 20
135.8873600510808899
 30
0.0
 11
2285.3899956937648312
 21
135.8954417915809074
 31
0.0
  0
LINE
  5
6A62
  8
0
 10
2285.3929537366639124
 20
135.8967851127810036
 30
0.0
 11
2285.4244767014638455
 21
135.9111004784809893
 31
0.0
  0
LINE
  5
6A63
  8
0
 10
2285.4274307173641319
 20
135.912441970880991
 30
0.0
 11
2285.4559822657638506
 21
135.9254079421808967
 31
0.0
  0
LINE
  5
6A64
  8
0
 10
2285.4589356066639994
 20
135.9267491280810134
 30
0.0
 11
2285.4874831869638001
 21
135.9397132973809903
 31
0.0
  0
LINE
  5
6A65
  8
0
 10
2285.4806640893648364
 20
135.9407455382809076
 30
0.0
 11
2285.4521165089640817
 21
135.9277813688808862
 31
0.0
  0
LINE
  5
6A66
  8
0
 10
2285.4491631680648425
 20
135.9264401830808993
 30
0.0
 11
2285.4206116196642142
 21
135.9134742117809083
 31
0.0
  0
LINE
  5
6A67
  8
0
 10
2285.4176576037648374
 20
135.9121327193809066
 30
0.0
 11
2285.3861346390640392
 21
135.8978173536810061
 31
0.0
  0
LINE
  5
6A68
  8
0
 10
2285.3831765961640485
 20
135.89647403248091
 30
0.0
 11
2285.3653803044639972
 21
135.8883922918809048
 31
0.0
  0
ARC
  5
6A69
  8
0
 10
2290.1161515050539492
 20
132.7960362175780062
 30
0.0
 40
0.2255862259034507
 50
96.9533266687909361
 51
173.4954342470398956
  0
ARC
  5
6A6A
  8
0
 10
2289.8128505758859319
 20
130.9776870166857066
 30
0.0
 40
0.0445906847381663
 50
186.396622275352513
 51
263.6355087838900886
  0
ARC
  5
6A6B
  8
0
 10
2288.8984556923428499
 20
130.9766835236229099
 30
0.0
 40
0.0434912122263936
 50
275.1978030611159056
 51
354.7697469569005762
  0
ARC
  5
6A6C
  8
0
 10
2290.3197185870640169
 20
130.8940010740809896
 30
0.0
 40
0.0393700787
 50
0.0
 51
90.0
  0
ARC
  5
6A6D
  8
0
 10
2291.7395814017659177
 20
133.2115894545086974
 30
0.0
 40
0.044846065597732
 50
11.5740716266283208
 51
83.9259283733722015
  0
ARC
  5
6A6E
  8
0
 10
2288.848230099434204
 20
133.211920233177608
 30
0.0
 40
0.0445292479500198
 50
96.2625529266424849
 51
173.6907446913996864
  0
ARC
  5
6A6F
  8
0
 10
2291.7697149571349655
 20
133.0500460028164014
 30
0.0
 40
0.0300889321395643
 50
271.1639148427564123
 51
4.3360851572312971
  0
ARC
  5
6A70
  8
0
 10
2289.8843314526479844
 20
130.9945553024788012
 30
0.0
 40
0.0219389353220767
 50
275.5492250642186036
 51
354.773195971326686
  0
ARC
  5
6A71
  8
0
 10
2288.8269571106911826
 20
130.9957083139188114
 30
0.0
 40
0.023222802674466
 50
188.1796133185403903
 51
261.8700649339155007
  0
ARC
  5
6A72
  8
0
 10
2290.3475712336921788
 20
130.6692980336532912
 30
0.0
 40
0.011638581227854
 50
278.2741854370083843
 51
351.7258145630038939
  0
ARC
  5
6A73
  8
0
 10
2286.3100459511001645
 20
130.8838559971171946
 30
0.0
 40
0.0504211148995191
 50
10.8777273107577006
 51
79.1222726892403898
  0
ARC
  5
6A74
  8
0
 10
2288.3935203155979252
 20
130.8910654872470047
 30
0.0
 40
0.0424073932979672
 50
93.9693870191090355
 51
176.0306129808867865
  0
ARC
  5
6A75
  8
0
 10
2286.3368586049127771
 20
130.6804831034324081
 30
0.0
 40
0.0229021542646143
 50
277.5709913707856913
 51
352.4290086292095907
  0
ARC
  5
6A76
  8
0
 10
2288.361829046999901
 20
130.6683949985169875
 30
0.0
 40
0.0106424253242823
 50
184.1592186119123085
 51
265.840781388080984
  0
ARC
  5
6A77
  8
0
 10
2286.121046624291921
 20
130.9450352415533132
 30
0.0
 40
0.0118054682572594
 50
278.8761287062993119
 51
351.1238712936960837
  0
ARC
  5
6A78
  8
0
 10
2285.3557262920639914
 20
136.7676773569810109
 30
0.0
 40
0.9536044546999999
 50
270.2020231971064845
 51
273.5189664585997775
  0
ARC
  5
6A79
  8
0
 10
2285.355299170663784
 20
136.5813615554808962
 30
0.0
 40
0.7523225361
 50
270.2886036071888043
 51
273.366193655706013
  0
ARC
  5
6A7A
  8
0
 10
2286.0960689173462015
 20
136.6447608531626088
 30
0.0
 40
0.0370013480655904
 50
7.993964754255793
 51
82.0060352457437745
  0
ARC
  5
6A7B
  8
0
 10
2286.0972924220200184
 20
136.1656398375257027
 30
0.0
 40
0.0356348034001326
 50
276.3191974757376101
 51
353.6808025242589224
  0
ARC
  5
6A7C
  8
0
 10
2285.1232980382178539
 20
136.1349074841056108
 30
0.0
 40
0.6112582002824382
 50
343.168892910738009
 51
348.1487461658912821
  0
LINE
  5
6A7D
  8
0
 10
2289.0898875263637819
 20
133.2171068969809085
 30
0.0
 11
2289.0888401990650891
 21
130.992547741180914
 31
0.0
  0
LINE
  5
6A7E
  8
0
 10
2289.6207434118641686
 20
130.9925571590810023
 30
0.0
 11
2289.6212243718769059
 21
132.8677829466043079
 31
0.0
  0
ARC
  5
6A7F
  8
0
 10
2289.9527919490651584
 20
132.583372300552611
 30
0.0
 40
0.4368368961403152
 50
91.9226198916275479
 51
139.3778059859600944
  0
ARC
  5
6A80
  8
0
 10
2289.1450175456038778
 20
133.2151173702879134
 30
0.0
 40
0.0551659064807314
 50
131.8910417103780901
 51
177.9332124702243902
  0
ARC
  5
6A81
  8
0
 10
2289.5898085181638635
 20
130.9951645999877883
 30
0.0
 40
0.0310445872306057
 50
313.6966018576097213
 51
355.1820403973941893
  0
ARC
  5
6A82
  8
0
 10
2289.1183613056819013
 20
130.9945012534786031
 30
0.0
 40
0.0295856712987925
 50
183.7859374524120142
 51
227.4124518962402135
  0
ARC
  5
6A83
  8
0
 10
2286.1161740035868206
 20
135.9156884829351952
 30
0.0
 40
0.2163348588852404
 50
97.3999535860514385
 51
162.1563343082426059
  0
ARC
  5
6A84
  8
0
 10
2285.7624381098380582
 20
136.0715761149135119
 30
0.0
 40
0.172843579581666
 50
287.4660996125072074
 51
328.7765588095306271
  0
ARC
  5
6A85
  8
0
 10
2285.5248278485551054
 20
136.6364896468234917
 30
0.0
 40
0.7851075460867035
 50
277.0124547192518776
 51
291.6369281126627016
  0
ARC
  5
6A86
  8
0
 10
2285.4289216142237819
 20
136.233355739113108
 30
0.0
 40
0.4221637121261841
 50
274.3159143093869829
 51
297.0149056193563979
  0
ARC
  5
6A87
  8
0
 10
2285.3398545766917778
 20
137.4010038336724904
 30
0.0
 40
1.593203751844958
 50
270.5648571048740223
 51
274.3498016584761103
  0
ARC
  5
6A88
  8
0
 10
2285.5461079407559737
 20
135.9506114292609027
 30
0.0
 40
0.1194825737122828
 50
308.6166290321473866
 51
320.1299967748935842
  0
ARC
  5
6A89
  8
0
 10
2285.5022290927618087
 20
135.9891959814414122
 30
0.0
 40
0.1779003739812901
 50
319.651646827200409
 51
337.4364399328869126
  0
ARC
  5
6A8A
  8
0
 10
2285.5093294188977779
 20
135.9860029854621928
 30
0.0
 40
0.1701185155517916
 50
337.511928025072109
 51
351.9321961144539728
  0
ARC
  5
6A8B
  8
0
 10
2285.6256237668098947
 20
135.954542994270895
 30
0.0
 40
0.0526892266126192
 50
8.2766050221352376
 51
74.8612949934898211
  0
ARC
  5
6A8C
  8
0
 10
2285.446603973568017
 20
135.5411158939591019
 30
0.0
 40
0.5027198880726828
 50
67.4509718170809407
 51
84.2407174339479212
  0
ARC
  5
6A8D
  8
0
 10
2285.3322041261008053
 20
134.4996153490997983
 30
0.0
 40
1.5504711060423739
 50
83.8967279695692838
 51
89.1368384563824065
  0
ARC
  5
6A8E
  8
0
 10
2285.6094795540798259
 20
135.8837768428134893
 30
0.0
 40
0.0274295167933807
 50
317.3858211136220007
 51
348.0707394389792739
  0
ARC
  5
6A8F
  8
0
 10
2285.6118104663728445
 20
135.8810336023321952
 30
0.0
 40
0.0246803506421062
 50
353.1899571726622185
 51
45.2001417719338008
  0
ARC
  5
6A90
  8
0
 10
2285.5239922878981815
 20
135.7714723501308072
 30
0.0
 40
0.1649746038620919
 50
50.3774664373032905
 51
78.3785421040829675
  0
ARC
  5
6A91
  8
0
 10
2285.3877468082891937
 20
135.2591466358566095
 30
0.0
 40
0.6949021128202232
 50
75.883833033505141
 51
85.9529991236508693
  0
ARC
  5
6A92
  8
0
 10
2285.3536527400110572
 20
134.8649439213677113
 30
0.0
 40
1.090545618599968
 50
85.6278731793954506
 51
89.899736964886884
  0
ARC
  5
6A93
  8
0
 10
2285.3695922211541074
 20
136.590128876311411
 30
0.0
 40
0.7755043304529511
 50
274.4282178733549244
 51
278.2345257973815933
  0
ARC
  5
6A94
  8
0
 10
2285.3660725756249121
 20
136.4366450315345958
 30
0.0
 40
0.607188456329003
 50
274.5921014603349022
 51
278.1467378675567943
  0
ARC
  5
6A95
  8
0
 10
2285.3958423117360326
 20
136.2423583979168029
 30
0.0
 40
0.4106183068737481
 50
278.8387621379417283
 51
283.4646377542453024
  0
ARC
  5
6A96
  8
0
 10
2285.4077494810831013
 20
136.3427017178480014
 30
0.0
 40
0.5251379936345132
 50
278.7332139008603917
 51
283.6686856954656264
  0
ARC
  5
6A97
  8
0
 10
2285.4515703156598647
 20
136.0315636551549972
 30
0.0
 40
0.1925012691625402
 50
285.3685563903184743
 51
293.0809118512744931
  0
ARC
  5
6A98
  8
0
 10
2285.4748225351067958
 20
136.0857592077690867
 30
0.0
 40
0.2595130270845076
 50
285.2262723218918836
 51
293.062428102324418
  0
ARC
  5
6A99
  8
0
 10
2285.5418865718570487
 20
135.9351649244082125
 30
0.0
 40
0.094594182787892
 50
294.0385204901709812
 51
309.5226643749330151
  0
ARC
  5
6A9A
  8
0
 10
2285.5889630848519118
 20
135.8831593617136093
 30
0.0
 40
0.0241631358017502
 50
315.3755661375553245
 51
354.0401954135933238
  0
ARC
  5
6A9B
  8
0
 10
2285.5851278890231697
 20
135.8783938473966941
 30
0.0
 40
0.0282007521245663
 50
8.8139889737378976
 51
41.7702497810961972
  0
ARC
  5
6A9C
  8
0
 10
2285.5414231189811289
 20
135.8274524890123018
 30
0.0
 40
0.0954662073134718
 50
50.5484824369301293
 51
65.8903330435875745
  0
ARC
  5
6A9D
  8
0
 10
2285.4758787751388809
 20
135.6806488651212987
 30
0.0
 40
0.2562999068082793
 50
66.8883745006963153
 51
74.8229250750710833
  0
ARC
  5
6A9E
  8
0
 10
2285.4073342369911188
 20
135.4185667754130122
 30
0.0
 40
0.5272736969934987
 50
76.3413160540396234
 51
81.2567845982233763
  0
ARC
  5
6A9F
  8
0
 10
2285.3681399851629976
 20
135.160148095730591
 30
0.0
 40
0.7886659884528712
 50
81.7972463960250025
 51
85.5400099332345007
  0
ARC
  5
6AA0
  8
0
 10
2285.3579683597090479
 20
135.0647105122683911
 30
0.0
 40
0.8845768196248007
 50
86.351574808332856
 51
89.9274355550824538
  0
ARC
  5
6AA1
  8
0
 10
2285.357277249397157
 20
135.2440030006260088
 30
0.0
 40
0.6903162651720169
 50
86.4955494018575308
 51
89.8496535035835535
  0
ARC
  5
6AA2
  8
0
 10
2285.3662367086080849
 20
135.3281907835456934
 30
0.0
 40
0.6057096747881161
 50
81.8489215846835805
 51
85.4122390874368307
  0
ARC
  5
6AA3
  8
0
 10
2285.3953345941567932
 20
135.5184315003301094
 30
0.0
 40
0.4132413022969317
 50
76.5500512219366698
 51
81.1465488861987865
  0
ARC
  5
6AA4
  8
0
 10
2285.4498382270799084
 20
135.7268348215702929
 30
0.0
 40
0.1977499975421058
 50
67.0215884486455877
 51
74.5289433097587164
  0
ARC
  5
6AA5
  8
0
 10
2285.5012849246709266
 20
135.8410499288835922
 30
0.0
 40
0.072421066464076
 50
50.9498124467921087
 51
65.7984956943558501
  0
ARC
  5
6AA6
  8
0
 10
2285.5374428296431688
 20
135.8805831011588907
 30
0.0
 40
0.0185803359742307
 50
6.5884993556703702
 51
43.2052287590893727
  0
ARC
  5
6AA7
  8
0
 10
2285.5376496972271525
 20
135.8826863405286929
 30
0.0
 40
0.0183639582415651
 50
316.571248679628809
 51
353.6350232138696015
  0
ARC
  5
6AA8
  8
0
 10
2285.4998475130419138
 20
135.9246496432967888
 30
0.0
 40
0.0751401361727157
 50
294.4715982008439141
 51
308.7800935313371156
  0
ARC
  5
6AA9
  8
0
 10
2285.3575317139298022
 20
136.4969920198342095
 30
0.0
 40
0.666396607266784
 50
270.133864502302572
 51
277.9033744503639127
  0
ARC
  5
6AAA
  8
0
 10
2285.3608400522070951
 20
136.2788332148676034
 30
0.0
 40
0.4330864317013563
 50
269.7682972320779982
 51
277.9328846962628745
  0
ARC
  5
6AAB
  8
0
 10
2285.3982416885851308
 20
136.0540440593875076
 30
0.0
 40
0.205207135570254
 50
278.1775893830420046
 51
291.2056945445381189
  0
ARC
  5
6AAC
  8
0
 10
2285.4159054554929753
 20
136.1252035291473135
 30
0.0
 40
0.290028319339179
 50
277.9426834004445936
 51
291.4406005027469178
  0
ARC
  5
6AAD
  8
0
 10
2285.4699290428839049
 20
135.8876276455841889
 30
0.0
 40
0.0239982811716214
 50
285.6570128619525235
 51
343.0979860078280126
  0
ARC
  5
6AAE
  8
0
 10
2285.5144937761388064
 20
135.8927892926704999
 30
0.0
 40
0.0375180039514201
 50
287.6325183507041174
 51
341.1224804770765218
  0
ARC
  5
6AAF
  8
0
 10
2285.5141184479589356
 20
135.8701925861041104
 30
0.0
 40
0.0379980154763608
 50
19.2416803354751309
 51
72.0033210793048966
  0
ARC
  5
6AB0
  8
0
 10
2285.413390049975078
 20
135.628568064714301
 30
0.0
 40
0.2998799921639272
 50
68.7820972104621973
 51
81.834619048942784
  0
ARC
  5
6AB1
  8
0
 10
2285.3576655373649373
 20
135.2682782906238117
 30
0.0
 40
0.664491454502077
 50
82.0854705221559158
 51
89.8772906517598074
  0
ARC
  5
6AB2
  8
0
 10
2285.3567093386532179
 20
135.4439027709950949
 30
0.0
 40
0.4738996091158672
 50
82.2504297610697819
 51
89.7123315324523247
  0
ARC
  5
6AB3
  8
0
 10
2285.3982592696670508
 20
135.7093884481045905
 30
0.0
 40
0.2051382618446802
 50
68.7921089328020372
 51
81.8246071424888441
  0
ARC
  5
6AB4
  8
0
 10
2285.4683797272641641
 20
135.8741544542552901
 30
0.0
 40
0.0259628416803865
 50
19.2518873106600594
 51
71.9931159179175637
  0
ARC
  5
6AB5
  8
0
 10
2285.4603781788100605
 20
135.8716321323632883
 30
0.0
 40
0.0288205997393536
 50
22.6155334521317499
 51
72.4630861839035987
  0
ARC
  5
6AB6
  8
0
 10
2285.3974941397841576
 20
135.721830392567
 30
0.0
 40
0.1911837442271765
 50
68.0162972775926846
 51
81.8865181231147119
  0
ARC
  5
6AB7
  8
0
 10
2285.4561722610110337
 20
135.8953780583541118
 30
0.0
 40
0.0341493968297871
 50
283.051906365082516
 51
334.4518851682649938
  0
ARC
  5
6AB8
  8
0
 10
2285.3957837455291155
 20
136.0508930791849878
 30
0.0
 40
0.2006898349632272
 50
278.2198392604968831
 51
289.8362164486854908
  0
ARC
  5
6AB9
  8
0
 10
2285.3117418618089687
 20
136.9748600406446997
 30
0.0
 40
1.128608200505216
 50
272.2251202890622039
 51
275.3849229554475073
  0
ARC
  5
6ABA
  8
0
 10
2285.3548867955350943
 20
136.1175216072520868
 30
0.0
 40
0.2539036758215935
 50
270.152164910317822
 51
277.0692957278523068
  0
ARC
  5
6ABB
  8
0
 10
2285.3356867054008035
 20
136.4054955509269007
 30
0.0
 40
0.5406937205932991
 50
272.1065084494981079
 51
275.0388617983907125
  0
ARC
  5
6ABC
  8
0
 10
2285.3553200425399154
 20
135.9728594085003124
 30
0.0
 40
0.0984018616802027
 50
270.1403629294708821
 51
275.8679726982944089
  0
ARC
  5
6ABD
  8
0
 10
2285.3758896795147848
 20
135.9727715273025979
 30
0.0
 40
0.1075534767514532
 50
279.1289227559192909
 51
289.2323466397002107
  0
ARC
  5
6ABE
  8
0
 10
2285.40441750782702
 20
135.8936125201119864
 30
0.0
 40
0.0234310456096205
 50
287.1270888261549885
 51
326.4132335861347087
  0
ARC
  5
6ABF
  8
0
 10
2285.4016735848122153
 20
135.8661284124451925
 30
0.0
 40
0.0277625806952191
 50
36.6869724195180709
 51
72.410972388348128
  0
ARC
  5
6AC0
  8
0
 10
2285.3754840543801947
 20
135.7884740592591868
 30
0.0
 40
0.1097108659800879
 50
71.6281211921168364
 51
80.8375717388781254
  0
ARC
  5
6AC1
  8
0
 10
2285.3748277774579947
 20
135.9620948327784902
 30
0.0
 40
0.0953848797389638
 50
279.1499041665946947
 51
289.5970723478504283
  0
ARC
  5
6AC2
  8
0
 10
2285.400933846782209
 20
135.8917309536790867
 30
0.0
 40
0.0203650437464736
 50
286.8005924658405092
 51
327.0373278234706049
  0
ARC
  5
6AC3
  8
0
 10
2285.3972718698751123
 20
135.8667651127204863
 30
0.0
 40
0.0261707659361789
 50
37.5499691181947171
 51
71.7933223628656947
  0
ARC
  5
6AC4
  8
0
 10
2285.3736965403400063
 20
135.7962436357007903
 30
0.0
 40
0.1005282872249096
 50
71.587617656345202
 51
80.6691592103062476
  0
ARC
  5
6AC5
  8
0
 10
2285.3455548763349725
 20
135.4979591961806022
 30
0.0
 40
0.4019120093536649
 50
84.2051551385212349
 51
88.5733842236953564
  0
ARC
  5
6AC6
  8
0
 10
2285.351877689543926
 20
135.3919794790593869
 30
0.0
 40
0.5242960905173277
 50
82.7924888322280452
 51
89.5974679232580513
  0
ARC
  5
6AC7
  8
0
 10
2285.3527480282818942
 20
135.6311297541288923
 30
0.0
 40
0.2670832900005178
 50
83.458137009656113
 51
89.3965159640593185
  0
ARC
  5
6AC8
  8
0
 10
2285.3553091391340786
 20
135.7903020569623891
 30
0.0
 40
0.0986058951456772
 50
84.1378429134633734
 51
89.8535919724062779
  0
ARC
  5
6AC9
  8
0
 10
2285.3701661408417749
 20
135.8692982638413866
 30
0.0
 40
0.01817587162926
 50
47.5749198422862065
 51
83.5771091514210127
  0
ARC
  5
6ACA
  8
0
 10
2285.3705373024317851
 20
135.8932498772759061
 30
0.0
 40
0.0173243908169901
 50
275.5054169327999034
 51
313.3425540734904189
  0
ARC
  5
6ACB
  8
0
 10
2285.8479379894201884
 20
135.9923394506915031
 30
0.0
 40
0.0631633504826306
 50
350.5583989423545859
 51
57.9082024251378087
  0
ARC
  5
6ACC
  8
0
 10
2285.6727928945019812
 20
135.6591926589204888
 30
0.0
 40
0.4393877401677046
 50
61.6416616607914278
 51
83.3698079134446459
  0
ARC
  5
6ACD
  8
0
 10
2285.3873226455048098
 20
133.7990527440618109
 30
0.0
 40
2.3210672604210751
 50
81.6715160127770048
 51
86.8734584439507955
  0
ARC
  5
6ACE
  8
0
 10
2285.3517193995148773
 20
133.452206471314895
 30
0.0
 40
2.6693909256317072
 50
86.5164502887478761
 51
89.9175416075216987
  0
ARC
  5
6ACF
  8
0
 10
2285.613014088239197
 20
136.0370608649604094
 30
0.0
 40
0.1278570849961929
 50
294.7348427589861899
 51
309.1244874375522045
  0
ARC
  5
6AD0
  8
0
 10
2285.6671525417300472
 20
135.9727045920346882
 30
0.0
 40
0.0437912840840216
 50
307.3054376037272277
 51
340.2638568637817116
  0
ARC
  5
6AD1
  8
0
 10
2285.6769782883188782
 20
135.9648191402617101
 30
0.0
 40
0.0321429932343515
 50
347.5997248009314262
 51
54.5682732645233699
  0
ARC
  5
6AD2
  8
0
 10
2285.5423309717189113
 20
135.7721264458936901
 30
0.0
 40
0.2672172236890447
 50
54.9968196524026212
 51
80.6135088508357143
  0
ARC
  5
6AD3
  8
0
 10
2285.3815638007267808
 20
135.07328142363491
 30
0.0
 40
0.9839382595327016
 50
78.0133196020057653
 51
86.770482916419283
  0
ARC
  5
6AD4
  8
0
 10
2285.2586789553829476
 20
131.5794964691363873
 30
0.0
 40
4.479710953644588
 50
87.7187264748119446
 51
88.7607746915360138
  0
ARC
  5
6AD5
  8
0
 10
2285.6837159823048751
 20
136.0123897136137998
 30
0.0
 40
0.0379309168878257
 50
355.4374389287626741
 51
57.210012786131621
  0
ARC
  5
6AD6
  8
0
 10
2285.541983914472894
 20
135.794830281617493
 30
0.0
 40
0.297584264813787
 50
56.9545378487229428
 51
80.49592127950514
  0
ARC
  5
6AD7
  8
0
 10
2285.4043675513958078
 20
135.2212554047362119
 30
0.0
 40
0.8869581329268449
 50
77.8451638290413825
 51
83.7117812690849235
  0
ARC
  5
6AD8
  8
0
 10
2285.3332454719061388
 20
133.7519500967034105
 30
0.0
 40
2.3569414495003591
 50
85.9059649544231689
 51
89.4575127033132134
  0
ARC
  5
6AD9
  8
0
 10
2285.4093850085209851
 20
134.8452621496473114
 30
0.0
 40
1.2609851772409819
 50
79.0988501405000761
 51
85.8100812475564823
  0
ARC
  5
6ADA
  8
0
 10
2285.5637584493279064
 20
135.5624913447059043
 30
0.0
 40
0.5277451339348707
 50
62.6447054966272034
 51
80.8306351315373632
  0
ARC
  5
6ADB
  8
0
 10
2285.7614081478391199
 20
135.9464199885042035
 30
0.0
 40
0.0959321674545516
 50
31.2410346150529286
 51
62.1247849882993108
  0
ARC
  5
6ADC
  8
0
 10
2285.8104008875639011
 20
135.9794389784115936
 30
0.0
 40
0.0370264186673595
 50
321.4090281429943161
 51
26.8708223344036305
  0
ARC
  5
6ADD
  8
0
 10
2285.7056691872680858
 20
136.0782425463642937
 30
0.0
 40
0.1809078318048113
 50
285.0530676007144848
 51
317.6375366930619748
  0
ARC
  5
6ADE
  8
0
 10
2285.5102041921309137
 20
136.6084759488192049
 30
0.0
 40
0.7454615160190442
 50
279.8563266363822777
 51
288.9797349190317277
  0
ARC
  5
6ADF
  8
0
 10
2285.6144906298209207
 20
136.2314847323773961
 30
0.0
 40
0.3041073003712208
 50
285.0962737692584028
 51
304.5591258055980006
  0
ARC
  5
6AE0
  8
0
 10
2285.7673931688559605
 20
136.0173535341058084
 30
0.0
 40
0.0412675755569879
 50
298.3627739865871717
 51
19.6355874370217087
  0
ARC
  5
6AE1
  8
0
 10
2285.7566660506058724
 20
136.0563077898113988
 30
0.0
 40
0.0811496118734826
 50
291.9483850409321803
 51
330.3939745494329259
  0
ENDSEC
  0
EOF
