  0
SECTION
  2
HEADER
  9
$ACADVER
  1
AC1009
  9
$INSBASE
 10
2262.2533223661939701
 20
126.1947665212434941
 30
0.0
  9
$EXTMIN
 10
2255.7852166147899879
 20
126.1800339667375965
 30
-0.0015258207003583
  9
$EXTMAX
 10
2268.7668055862450274
 20
132.2224238613958107
 30
0.0000000349246037
  9
$LIMMIN
 10
0.0
 20
0.0
  9
$LIMMAX
 10
11.6929133858000007
 20
8.2677165353999982
  9
$ORTHOMODE
 70
     1
  9
$REGENMODE
 70
     1
  9
$FILLMODE
 70
     1
  9
$QTEXTMODE
 70
     0
  9
$MIRRTEXT
 70
     0
  9
$DRAGMODE
 70
     2
  9
$LTSCALE
 40
0.6431102362
  9
$OSMODE
 70
  4095
  9
$ATTMODE
 70
     1
  9
$TEXTSIZE
 40
0.2
  9
$TRACEWID
 40
0.05
  9
$TEXTSTYLE
  7
STANDARD
  9
$CLAYER
  8
0
  9
$CELTYPE
  6
BYLAYER
  9
$CECOLOR
 62
   256
  9
$DIMSCALE
 40
1.0
  9
$DIMASZ
 40
0.1875
  9
$DIMEXO
 40
0.0625
  9
$DIMDLI
 40
0.4443307087
  9
$DIMRND
 40
0.0
  9
$DIMDLE
 40
0.0
  9
$DIMEXE
 40
0.125
  9
$DIMTP
 40
0.01
  9
$DIMTM
 40
0.01
  9
$DIMTXT
 40
2.0
  9
$DIMCEN
 40
0.1052362205
  9
$DIMTSZ
 40
0.0
  9
$DIMTOL
 70
     1
  9
$DIMLIM
 70
     0
  9
$DIMTIH
 70
     1
  9
$DIMTOH
 70
     1
  9
$DIMSE1
 70
     0
  9
$DIMSE2
 70
     0
  9
$DIMTAD
 70
     0
  9
$DIMZIN
 70
     0
  9
$DIMBLK
  1

  9
$DIMASO
 70
     1
  9
$DIMSHO
 70
     1
  9
$DIMPOST
  1
\X
  9
$DIMAPOST
  1

  9
$DIMALT
 70
     1
  9
$DIMALTD
 70
     2
  9
$DIMALTF
 40
25.3999999999999986
  9
$DIMLFAC
 40
1.0
  9
$DIMTOFL
 70
     0
  9
$DIMTVP
 40
0.0
  9
$DIMTIX
 70
     0
  9
$DIMSOXD
 70
     0
  9
$DIMSAH
 70
     0
  9
$DIMBLK1
  1

  9
$DIMBLK2
  1

  9
$DIMSTYLE
  2
STANDARD
  9
$DIMCLRD
 70
     0
  9
$DIMCLRE
 70
     0
  9
$DIMCLRT
 70
     0
  9
$DIMTFAC
 40
1.0
  9
$DIMGAP
 40
0.09
  9
$LUNITS
 70
     2
  9
$LUPREC
 70
     4
  9
$SKETCHINC
 40
0.1
  9
$FILLETRAD
 40
0.0
  9
$AUNITS
 70
     0
  9
$AUPREC
 70
     0
  9
$MENU
  1
.
  9
$ELEVATION
 40
0.0
  9
$PELEVATION
 40
0.0
  9
$THICKNESS
 40
0.0
  9
$LIMCHECK
 70
     0
  9
$BLIPMODE
 70
     0
  9
$CHAMFERA
 40
0.0
  9
$CHAMFERB
 40
0.0
  9
$SKPOLY
 70
     0
  9
$TDCREATE
 40
2458060.468368056230247
  9
$TDUPDATE
 40
2459566.9338078699074686
  9
$TDINDWG
 40
0.2939653935
  9
$TDUSRTIMER
 40
0.2939653935
  9
$USRTIMER
 70
     1
  9
$ANGBASE
 50
0.0
  9
$ANGDIR
 70
     0
  9
$PDMODE
 70
     0
  9
$PDSIZE
 40
0.3125
  9
$PLINEWID
 40
0.0
  9
$COORDS
 70
     1
  9
$SPLFRAME
 70
     0
  9
$SPLINETYPE
 70
     6
  9
$SPLINESEGS
 70
     8
  9
$ATTDIA
 70
     1
  9
$ATTREQ
 70
     1
  9
$HANDLING
 70
     1
  9
$HANDSEED
  5
6934
  9
$SURFTAB1
 70
     6
  9
$SURFTAB2
 70
     6
  9
$SURFTYPE
 70
     6
  9
$SURFU
 70
     6
  9
$SURFV
 70
     6
  9
$UCSNAME
  2

  9
$UCSORG
 10
0.0
 20
0.0
 30
0.0
  9
$UCSXDIR
 10
1.0
 20
0.0
 30
0.0
  9
$UCSYDIR
 10
0.0
 20
1.0
 30
0.0
  9
$PUCSNAME
  2

  9
$PUCSORG
 10
0.0
 20
0.0
 30
0.0
  9
$PUCSXDIR
 10
1.0
 20
0.0
 30
0.0
  9
$PUCSYDIR
 10
0.0
 20
1.0
 30
0.0
  9
$USERI1
 70
     0
  9
$USERI2
 70
     0
  9
$USERI3
 70
     0
  9
$USERI4
 70
     0
  9
$USERI5
 70
     0
  9
$USERR1
 40
0.0
  9
$USERR2
 40
0.0
  9
$USERR3
 40
0.0
  9
$USERR4
 40
0.0
  9
$USERR5
 40
0.0
  9
$WORLDVIEW
 70
     1
  9
$SHADEDGE
 70
     3
  9
$SHADEDIF
 70
    70
  9
$TILEMODE
 70
     1
  9
$MAXACTVP
 70
    64
  9
$PLIMCHECK
 70
     0
  9
$PEXTMIN
 10
1.0000000000000000E+20
 20
1.0000000000000000E+20
 30
1.0000000000000000E+20
  9
$PEXTMAX
 10
-1.0000000000000000E+20
 20
-1.0000000000000000E+20
 30
-1.0000000000000000E+20
  9
$PLIMMIN
 10
0.0
 20
0.0
  9
$PLIMMAX
 10
12.0
 20
9.0
  9
$UNITMODE
 70
     0
  9
$VISRETAIN
 70
     1
  9
$PLINEGEN
 70
     0
  9
$PSLTSCALE
 70
     1
  0
ENDSEC
  0
SECTION
  2
TABLES
  0
TABLE
  2
VPORT
 70
     1
  0
VPORT
  2
*ACTIVE
 70
     0
 10
0.0
 20
0.0
 11
1.0
 21
1.0
 12
0.0227152020797803
 22
-0.0027379283115465
 13
0.0
 23
0.0
 14
1.0
 24
1.0
 15
0.0
 25
0.0
 16
0.0
 26
0.0
 36
46.829272328579151
 17
2262.2532958984379547
 27
129.2039668423782075
 37
0.0
 40
7.8082901667911102
 41
1.67063492063492
 42
50.0
 43
0.0
 44
0.0
 50
0.0
 51
0.0
 71
     0
 72
   100
 73
     1
 74
     1
 75
     0
 76
     0
 77
     0
 78
     0
  0
ENDTAB
  0
TABLE
  2
LTYPE
 70
     2
  0
LTYPE
  2
CONTINUOUS
 70
     0
  3
Solid line
 72
    65
 73
     0
 40
0.0
  0
LTYPE
  2
PHANTOM2
 70
     0
  3
___ _ _ ___ _ _ ___ _ _ ___ _ _
 72
    65
 73
     6
 40
1.25
 49
0.625
 49
-0.125
 49
0.125
 49
-0.125
 49
0.125
 49
-0.125
  0
ENDTAB
  0
TABLE
  2
LAYER
 70
     2
  0
LAYER
  2
0
 70
     0
 62
   255
  6
CONTINUOUS
  0
LAYER
  2
DEFPOINTS
 70
     0
 62
     7
  6
CONTINUOUS
  0
ENDTAB
  0
TABLE
  2
STYLE
 70
     1
  0
STYLE
  2
STANDARD
 70
     0
 40
0.0
 41
0.8
 50
0.0
 71
     0
 42
0.2
  3
txt
  4

  0
ENDTAB
  0
TABLE
  2
VIEW
 70
     0
  0
ENDTAB
  0
TABLE
  2
UCS
 70
     0
  0
ENDTAB
  0
TABLE
  2
APPID
 70
     9
  0
APPID
  2
ACAD
 70
     0
  0
APPID
  2
ACAD_MLEADERVER
 70
     0
  0
APPID
  2
ACAD_EXEMPT_FROM_CAD_STANDARDS
 70
     0
  0
APPID
  2
ACAD_NAV_VCDISPLAY
 70
     0
  0
APPID
  2
ACAECLAYERSTANDARD
 70
     0
  0
APPID
  2
ACCMTRANSPARENCY
 70
     0
  0
APPID
  2
ACAD_DSTYLE_DIMJAG
 70
     0
  0
APPID
  2
ACAD_DSTYLE_DIMTALN
 70
     0
  0
APPID
  2
ACDBATTR
 70
     0
  0
ENDTAB
  0
TABLE
  2
DIMSTYLE
 70
     1
  0
DIMSTYLE
  2
STANDARD
 70
     0
  3

  4

  5

  6

  7

 40
1.0
 41
0.1875
 42
0.0625
 43
0.38
 44
0.125
 45
0.0
 46
0.0
 47
0.01
 48
0.01
140
0.15625
141
0.09
142
0.0
143
25.3999999999999986
144
1.0
145
0.0
146
1.0
147
0.09
 71
     1
 72
     0
 73
     1
 74
     1
 75
     0
 76
     0
 77
     0
 78
     4
170
     0
171
     2
172
     0
173
     0
174
     0
175
     0
176
     0
177
     0
178
     0
  0
ENDTAB
  0
ENDSEC
  0
SECTION
  2
BLOCKS
  0
BLOCK
  8
0
  2
$MODEL_SPACE
 70
     0
 10
0.0
 20
0.0
 30
0.0
  3
$MODEL_SPACE
  1

  0
ENDBLK
  5
21
  8
0
  0
BLOCK
 67
     1
  8
0
  2
$PAPER_SPACE
 70
     0
 10
0.0
 20
0.0
 30
0.0
  3
$PAPER_SPACE
  1

  0
ENDBLK
  5
1D
 67
     1
  8
0
  0
ENDSEC
  0
SECTION
  2
ENTITIES
  0
ATTDEF
  5
3930
  8
DEFPOINTS
 10
2262.2478629502861622
 20
126.1928832290273021
 30
0.0
 40
0.001
  1
K-23484-4
  3

  2
MODELNUMBER
 70
     0
1001
ACDBATTR
1070
     0
1070
     1
  0
ATTDEF
  5
3931
  8
DEFPOINTS
 10
2262.2478629502861622
 20
126.1912165623606938
 30
0.0
 40
0.001
  1
PARALLEL
  3

  2
TRADENAME
 70
     0
1001
ACDBATTR
1070
     0
1070
     1
  0
ATTDEF
  5
3932
  8
DEFPOINTS
 10
2262.2478629502861622
 20
126.1895498956940003
 30
0.0
 40
0.001
  1
BATHROOM SINK FAUCET
  3

  2
PRODUCT
 70
     0
1001
ACDBATTR
1070
     0
1070
     1
  0
LINE
  5
653F
  8
0
 10
2255.8253678989440232
 20
128.7575730469434916
 30
0.0
 11
2255.8091657068439417
 21
128.5893068486435027
 31
0.0
  0
LINE
  5
6540
  8
0
 10
2257.2497948071450082
 20
126.2046090409434953
 30
0.0
 11
2257.2497948071450082
 21
126.4309869937435025
 31
0.0
  0
LINE
  5
6541
  8
0
 10
2257.7168660572451699
 20
128.358577083743512
 30
0.0
 11
2257.7027043094449255
 21
126.5295426188434931
 31
0.0
  0
LINE
  5
6542
  8
0
 10
2258.8049129174100926
 20
126.5293901687435039
 30
0.0
 11
2258.8049129174100926
 21
128.7537996887434986
 31
0.0
  0
LINE
  5
6543
  8
0
 10
2259.2576688228450621
 20
126.4309869937435025
 30
0.0
 11
2259.2576688228450621
 21
126.2046090409434953
 31
0.0
  0
LINE
  5
6544
  8
0
 10
2259.2478263031448478
 20
126.1947665212434941
 30
0.0
 11
2257.2596373268452226
 21
126.1947665212434941
 31
0.0
  0
LINE
  5
6545
  8
0
 10
2261.2690074055449259
 20
126.1947665212434941
 30
0.0
 11
2263.2376373268439238
 21
126.1947665212434941
 31
0.0
  0
LINE
  5
6546
  8
0
 10
2261.2893223661440061
 20
126.4703570724435053
 30
0.0
 11
2263.2173223662439341
 21
126.4703570724435053
 31
0.0
  0
LINE
  5
6547
  8
0
 10
2259.2182987441451587
 20
126.4703570724435053
 30
0.0
 11
2257.2891648858449116
 21
126.4703570724435053
 31
0.0
  0
LINE
  5
6548
  8
0
 10
2258.785210495344927
 20
126.5097048222435063
 30
0.0
 11
2257.7224305054451179
 21
126.509705103943503
 31
0.0
  0
LINE
  5
6549
  8
0
 10
2262.1214002859451284
 20
131.3606380748435072
 30
0.0
 11
2262.1499478662449292
 21
131.3736022442435001
 31
0.0
  0
LINE
  5
654A
  8
0
 10
2262.1529012071441684
 20
131.3749434300434871
 30
0.0
 11
2262.1814527555447967
 21
131.3879094013435065
 31
0.0
  0
LINE
  5
654B
  8
0
 10
2262.1844067714441735
 20
131.3892508937435082
 30
0.0
 11
2262.2159297362450161
 21
131.4035662594434939
 31
0.0
  0
LINE
  5
654C
  8
0
 10
2262.2188877791450068
 20
131.4049095806435048
 30
0.0
 11
2262.2366840708450582
 21
131.4129913212435099
 31
0.0
  0
LINE
  5
654D
  8
0
 10
2262.2435031684449314
 20
131.4119590803435074
 30
0.0
 11
2262.22570687674488
 21
131.4038773397435023
 31
0.0
  0
LINE
  5
654E
  8
0
 10
2262.2227488338448893
 20
131.4025340186435074
 30
0.0
 11
2262.1912258691450006
 21
131.3882186529434932
 31
0.0
  0
LINE
  5
654F
  8
0
 10
2262.188271853245169
 20
131.3868771605434915
 30
0.0
 11
2262.1597203048449956
 21
131.3739111892435005
 31
0.0
  0
LINE
  5
6550
  8
0
 10
2262.1567669639439373
 20
131.3725700033434975
 30
0.0
 11
2262.1282193835440921
 21
131.3596058340434922
 31
0.0
  0
LINE
  5
6551
  8
0
 10
2262.1794145142439447
 20
131.3539254641434866
 30
0.0
 11
2262.1941984713448619
 21
131.3683916154434996
 31
0.0
  0
LINE
  5
6552
  8
0
 10
2262.2094099017440385
 20
131.3673229611434863
 30
0.0
 11
2262.1946259445448959
 21
131.3528568097435141
 31
0.0
  0
LINE
  5
6553
  8
0
 10
2261.249322366144952
 20
126.2144515606434965
 30
0.0
 11
2261.249322366144952
 21
126.4303570724434991
 31
0.0
  0
LINE
  5
6554
  8
0
 10
2261.4761727598452126
 20
126.4801995921435065
 30
0.0
 11
2261.4761727598452126
 21
132.1868925055435113
 31
0.0
  0
LINE
  5
6555
  8
0
 10
2255.8385573268451481
 20
128.5569491984435047
 30
0.0
 11
2257.6707472926450464
 21
128.5569491984435047
 31
0.0
  0
LINE
  5
6556
  8
0
 10
2258.7655108313451819
 20
128.793169670843497
 30
0.0
 11
2255.8645567256448885
 21
128.793169670843497
 31
0.0
  0
LINE
  5
6557
  8
0
 10
2262.002722842843923
 20
131.4176364051434973
 30
0.0
 11
2262.002722842843923
 21
131.4031717263434871
 31
0.0
  0
LINE
  5
6558
  8
0
 10
2262.0284638910447939
 20
131.4007055044399124
 30
0.0
 11
2262.0284638910447939
 21
131.3857606446435113
 31
0.0
  0
LINE
  5
6559
  8
0
 10
2262.0529830152440809
 20
131.4197008868434864
 30
0.0
 11
2262.0529830152440809
 21
131.430634618692892
 31
0.0
  0
LINE
  5
655A
  8
0
 10
2262.0619732125451264
 20
131.4342776444435117
 30
0.0
 11
2262.0619732125451264
 21
131.44650417397051
 31
0.0
  0
LINE
  5
655B
  8
0
 10
2262.0659046037449116
 20
131.3890443740885985
 30
0.0
 11
2262.0659046037449116
 21
131.3723420017435046
 31
0.0
  0
LINE
  5
655C
  8
0
 10
2262.081846758544998
 20
131.445879674243514
 30
0.0
 11
2262.081846758544998
 21
131.4608154296763871
 31
0.0
  0
LINE
  5
655D
  8
0
 10
2262.0830250871449607
 20
131.4176364051434973
 30
0.0
 11
2262.0830250871449607
 21
131.3940198453435073
 31
0.0
  0
LINE
  5
655E
  8
0
 10
2262.1159927938451801
 20
131.4197008868434864
 30
0.0
 11
2262.1159927938451801
 21
131.4383269601966049
 31
0.0
  0
LINE
  5
655F
  8
0
 10
2262.1174306656448607
 20
131.4573249504435069
 30
0.0
 11
2262.1174306656448607
 21
131.4760732207768115
 31
0.0
  0
LINE
  5
6560
  8
0
 10
2262.1214002859451284
 20
131.3790827232097911
 30
0.0
 11
2262.1214002859451284
 21
131.3606380748435072
 31
0.0
  0
LINE
  5
6561
  8
0
 10
2262.1364148275451953
 20
131.4376194331435102
 30
0.0
 11
2262.1364148275451953
 21
131.4595569252925884
 31
0.0
  0
LINE
  5
6562
  8
0
 10
2262.1529012071441684
 20
131.3941137678436064
 30
0.0
 11
2262.1529012071441684
 21
131.3749434300434871
 31
0.0
  0
LINE
  5
6563
  8
0
 10
2262.1567669639439373
 20
131.4647672885434986
 30
0.0
 11
2262.1567669639439373
 21
131.4813163824435094
 31
0.0
  0
LINE
  5
6564
  8
0
 10
2262.1794139350631667
 20
131.3697612246166102
 30
0.0
 11
2262.1794145142439447
 21
131.3539254641434866
 31
0.0
  0
LINE
  5
6565
  8
0
 10
2262.1844067714441735
 20
131.4176364051434973
 30
0.0
 11
2262.1844067714441735
 21
131.3892508937435082
 31
0.0
  0
LINE
  5
6566
  8
0
 10
2262.1849467551442103
 20
131.4197008868434864
 30
0.0
 11
2262.1849467551442103
 21
131.4478411780575016
 31
0.0
  0
LINE
  5
6567
  8
0
 10
2262.188271853245169
 20
131.4504601314434922
 30
0.0
 11
2262.188271853245169
 21
131.4667955100435108
 31
0.0
  0
LINE
  5
6568
  8
0
 10
2262.2094099017440385
 20
131.4700143308434974
 30
0.0
 11
2262.2094099017440385
 21
131.4852989824250074
 31
0.0
  0
LINE
  5
6569
  8
0
 10
2262.2188877791450068
 20
131.4176364051434973
 30
0.0
 11
2262.2188877791450068
 21
131.4049095806435048
 31
0.0
  0
LINE
  5
656A
  8
0
 10
2262.2227488338448893
 20
131.4348032733435048
 30
0.0
 11
2262.2227488338448893
 21
131.4521411358709031
 31
0.0
  0
LINE
  5
656B
  8
0
 10
2262.2264554243452039
 20
131.4197008868434864
 30
0.0
 11
2262.2264554243452039
 21
131.428991054566211
 31
0.0
  0
LINE
  5
656C
  8
0
 10
2262.2435031684449314
 20
131.4253782115434888
 30
0.0
 11
2262.2435060924440222
 21
131.4349001996938
 31
0.0
  0
LINE
  5
656D
  8
0
 10
2262.2497948071450082
 20
131.3510647497435002
 30
0.0
 11
2262.2497948071450082
 21
131.3660344830435065
 31
0.0
  0
LINE
  5
656E
  8
0
 10
2262.2497948071450082
 20
131.3675831510435046
 30
0.0
 11
2262.2497948071450082
 21
131.3827362441161029
 31
0.0
  0
LINE
  5
656F
  8
0
 10
2262.2497948071450082
 20
131.4547823267434978
 30
0.0
 11
2262.2497948071450082
 21
131.4697541408434915
 31
0.0
  0
LINE
  5
6570
  8
0
 10
2262.2497948071450082
 20
131.4713028088434896
 30
0.0
 11
2262.2497948071450082
 21
131.4862725421434959
 31
0.0
  0
LINE
  5
6571
  8
0
 10
2262.1941984713448619
 20
131.4689456764434965
 30
0.0
 11
2262.1794145142439447
 21
131.4834118278434971
 31
0.0
  0
LINE
  5
6572
  8
0
 10
2262.1946259445448959
 20
131.4844804821435105
 30
0.0
 11
2262.2094099017440385
 21
131.4700143308434974
 31
0.0
  0
LINE
  5
6573
  8
0
 10
2262.1174306656448607
 20
131.3800123415435053
 30
0.0
 11
2262.0770401436438988
 21
131.3694223837435118
 31
0.0
  0
LINE
  5
6574
  8
0
 10
2262.0659046037449116
 20
131.3723420017435046
 30
0.0
 11
2262.1062951258440989
 21
131.3829319595434981
 31
0.0
  0
LINE
  5
6575
  8
0
 10
2262.1364148275451953
 20
131.399717858743486
 30
0.0
 11
2262.0869620950447825
 21
131.3922319517434971
 31
0.0
  0
LINE
  5
6576
  8
0
 10
2262.081846758544998
 20
131.3914576176435105
 30
0.0
 11
2262.0324008989450704
 21
131.3839727510435011
 31
0.0
  0
LINE
  5
6577
  8
0
 10
2262.0284638910447939
 20
131.3857606446435113
 30
0.0
 11
2262.0779097506451762
 21
131.3932455113435083
 31
0.0
  0
LINE
  5
6578
  8
0
 10
2262.0830250871449607
 20
131.3940198453435073
 30
0.0
 11
2262.1324778196440093
 21
131.4015057523434962
 31
0.0
  0
LINE
  5
6579
  8
0
 10
2262.0619732125451264
 20
131.4030596474435129
 30
0.0
 11
2262.0067987333450219
 21
131.3991834539434933
 31
0.0
  0
LINE
  5
657A
  8
0
 10
2262.002722842843923
 20
131.4031717263434871
 30
0.0
 11
2262.057897322044937
 21
131.4070479199434942
 31
0.0
  0
LINE
  5
657B
  8
0
 10
2262.2264554243452039
 20
131.4176364051434973
 30
0.0
 11
2262.1908628408441473
 21
131.4176364051434973
 31
0.0
  0
LINE
  5
657C
  8
0
 10
2262.1849467551442103
 20
131.4176364051434973
 30
0.0
 11
2262.1219008256439338
 21
131.4176364051434973
 31
0.0
  0
LINE
  5
657D
  8
0
 10
2262.1159927938451801
 20
131.4176364051434973
 30
0.0
 11
2262.0588896970439237
 21
131.4176364051434973
 31
0.0
  0
LINE
  5
657E
  8
0
 10
2262.0529830152440809
 20
131.4176364051434973
 30
0.0
 11
2261.9958878544439358
 21
131.4176364051434973
 31
0.0
  0
LINE
  5
657F
  8
0
 10
2261.9958878544439358
 20
131.4197008868434864
 30
0.0
 11
2262.0529830152440809
 21
131.4197008868434864
 31
0.0
  0
LINE
  5
6580
  8
0
 10
2262.0588896970439237
 20
131.4197008868434864
 30
0.0
 11
2262.1159927938451801
 21
131.4197008868434864
 31
0.0
  0
LINE
  5
6581
  8
0
 10
2262.1219008256439338
 20
131.4197008868434864
 30
0.0
 11
2262.1849467551442103
 21
131.4197008868434864
 31
0.0
  0
LINE
  5
6582
  8
0
 10
2262.1908628408441473
 20
131.4197008868434864
 30
0.0
 11
2262.2264554243452039
 21
131.4197008868434864
 31
0.0
  0
LINE
  5
6583
  8
0
 10
2262.057897322044937
 20
131.4302893720434895
 30
0.0
 11
2262.002722842843923
 21
131.434165565543509
 31
0.0
  0
LINE
  5
6584
  8
0
 10
2262.0067987333450219
 20
131.4381538380434904
 30
0.0
 11
2262.0619732125451264
 21
131.4342776444435117
 31
0.0
  0
LINE
  5
6585
  8
0
 10
2262.1324778196440093
 20
131.4358315395435
 30
0.0
 11
2262.0830250871449607
 21
131.4433174465434888
 31
0.0
  0
LINE
  5
6586
  8
0
 10
2262.0779097506451762
 20
131.4440917806435039
 30
0.0
 11
2262.0284638910447939
 21
131.4515766472435132
 31
0.0
  0
LINE
  5
6587
  8
0
 10
2262.0324008989450704
 20
131.453364540843495
 30
0.0
 11
2262.081846758544998
 21
131.445879674243514
 31
0.0
  0
LINE
  5
6588
  8
0
 10
2262.0869620950447825
 20
131.4451053402434866
 30
0.0
 11
2262.1364148275451953
 21
131.4376194331435102
 31
0.0
  0
LINE
  5
6589
  8
0
 10
2262.1062951258440989
 20
131.454405332343498
 30
0.0
 11
2262.0659046037449116
 21
131.4649952901434915
 31
0.0
  0
LINE
  5
658A
  8
0
 10
2262.0770401436438988
 20
131.4679149082435003
 30
0.0
 11
2262.1174306656448607
 21
131.4573249504435069
 31
0.0
  0
LINE
  5
658B
  8
0
 10
2262.2366840708450582
 20
131.4243459707435022
 30
0.0
 11
2262.2188877791450068
 21
131.4324277112434913
 31
0.0
  0
LINE
  5
658C
  8
0
 10
2262.2159297362450161
 20
131.4337710324435022
 30
0.0
 11
2262.1844067714441735
 21
131.4480863981434879
 31
0.0
  0
LINE
  5
658D
  8
0
 10
2262.1814527555447967
 20
131.4494278905434896
 30
0.0
 11
2262.1529012071441684
 21
131.4623938618435091
 31
0.0
  0
LINE
  5
658E
  8
0
 10
2262.1499478662449292
 20
131.463735047743512
 30
0.0
 11
2262.1214002859451284
 21
131.4766992170434889
 31
0.0
  0
LINE
  5
658F
  8
0
 10
2262.1282193835440921
 20
131.4777314579434915
 30
0.0
 11
2262.1567669639439373
 21
131.4647672885434986
 31
0.0
  0
LINE
  5
6590
  8
0
 10
2262.1597203048449956
 20
131.4634261027435116
 30
0.0
 11
2262.188271853245169
 21
131.4504601314434922
 31
0.0
  0
LINE
  5
6591
  8
0
 10
2262.1912258691450006
 20
131.4491186390434905
 30
0.0
 11
2262.2227488338448893
 21
131.4348032733435048
 31
0.0
  0
LINE
  5
6592
  8
0
 10
2262.22570687674488
 20
131.4334599521434939
 30
0.0
 11
2262.2435031684449314
 21
131.4253782115434888
 31
0.0
  0
LINE
  5
6593
  8
0
 10
2261.5076688228450621
 20
131.667207466143509
 30
0.0
 11
2262.9989759095451518
 21
131.667207466143509
 31
0.0
  0
LINE
  5
6594
  8
0
 10
2261.5076688228450621
 20
132.218388568543503
 30
0.0
 11
2262.9989759095451518
 21
132.218388568543503
 31
0.0
  0
ARC
  5
6595
  8
0
 10
2257.4927319678549793
 20
128.3330221372405902
 30
0.0
 40
0.2255862259034507
 50
6.5045657529601089
 51
83.0466733312090497
  0
ARC
  5
6596
  8
0
 10
2257.7960328970229966
 20
126.5146729363482052
 30
0.0
 40
0.0445906847381663
 50
276.3644912161099114
 51
353.6033777246473733
  0
ARC
  5
6597
  8
0
 10
2258.7104277805660786
 20
126.5136694432853943
 30
0.0
 40
0.0434912122263936
 50
185.2302530430993954
 51
264.8021969388840944
  0
ARC
  5
6598
  8
0
 10
2257.2891648858449116
 20
126.4309869937435025
 30
0.0
 40
0.0393700787
 50
90.0
 51
180.0
  0
ARC
  5
6599
  8
0
 10
2255.8693020711430108
 20
128.748575374171196
 30
0.0
 40
0.044846065597732
 50
96.0740716266277843
 51
168.4259283733715904
  0
ARC
  5
659A
  8
0
 10
2258.760653373473815
 20
128.7489061528401066
 30
0.0
 40
0.0445292479500198
 50
6.3092553086002781
 51
83.7374470733575151
  0
ARC
  5
659B
  8
0
 10
2255.839168515773963
 20
128.5870319224789
 30
0.0
 40
0.0300889321395643
 50
175.6639148427686905
 51
268.8360851572435877
  0
ARC
  5
659C
  8
0
 10
2257.7245520202609441
 20
126.5315412221412998
 30
0.0
 40
0.0219389353220767
 50
185.2268040286732003
 51
264.4507749357813964
  0
ARC
  5
659D
  8
0
 10
2258.7819263622168364
 20
126.5326942335812959
 30
0.0
 40
0.023222802674466
 50
278.1299350660843857
 51
351.8203866814595813
  0
ARC
  5
659E
  8
0
 10
2257.2613122392172045
 20
126.2062839533159035
 30
0.0
 40
0.011638581227854
 50
188.2741854369959924
 51
261.7258145629916157
  0
ARC
  5
659F
  8
0
 10
2261.2988375218078545
 20
126.420841916779807
 30
0.0
 40
0.0504211148995191
 50
100.877727310759596
 51
169.1222726892422941
  0
ARC
  5
65A0
  8
0
 10
2259.2153631573110033
 20
126.4280514069096029
 30
0.0
 40
0.0424073932979672
 50
3.9693870191132028
 51
86.0306129808909787
  0
ARC
  5
65A1
  8
0
 10
2261.2720248679961514
 20
126.2174690230949068
 30
0.0
 40
0.0229021542646143
 50
187.5709913707904093
 51
262.4290086292143087
  0
ARC
  5
65A2
  8
0
 10
2259.2470544259090275
 20
126.2053809181795003
 30
0.0
 40
0.0106424253242823
 50
274.159218611919016
 51
355.8407813880876915
  0
ARC
  5
65A3
  8
0
 10
2261.4878368486170075
 20
126.4820211612157976
 30
0.0
 40
0.0118054682572594
 50
188.8761287063038026
 51
261.1238712937006881
  0
ARC
  5
65A4
  8
0
 10
2262.2531571808449371
 20
132.3046632766435096
 30
0.0
 40
0.9536044546999999
 50
266.4810335414002225
 51
269.7979768028934018
  0
ARC
  5
65A5
  8
0
 10
2262.2535843022451445
 20
132.1183474751435085
 30
0.0
 40
0.7523225361
 50
266.633806344293987
 51
269.7113963928111957
  0
ARC
  5
65A6
  8
0
 10
2261.5128145555631818
 20
132.1817467728251927
 30
0.0
 40
0.0370013480655904
 50
97.993964754256254
 51
172.0060352457441866
  0
ARC
  5
65A7
  8
0
 10
2261.5115910508898196
 20
131.7026257571882866
 30
0.0
 40
0.0356348034001326
 50
186.319197475741106
 51
263.6808025242625035
  0
ARC
  5
65A8
  8
0
 10
2262.4855854346910746
 20
131.6718934037681947
 30
0.0
 40
0.6112582002824382
 50
191.8512538341086895
 51
196.8311070892619057
  0
LINE
  5
65A9
  8
0
 10
2258.5189959465451466
 20
128.7540928166434924
 30
0.0
 11
2258.5200432738452037
 21
126.529533660843498
 31
0.0
  0
LINE
  5
65AA
  8
0
 10
2257.9881400610452147
 20
126.5295430787435009
 30
0.0
 11
2257.9876591010311131
 21
128.4047688662668065
 31
0.0
  0
ARC
  5
65AB
  8
0
 10
2257.6560915238442249
 20
128.1203582202151949
 30
0.0
 40
0.4368368961403152
 50
40.6221940140398985
 51
88.0773801083724663
  0
ARC
  5
65AC
  8
0
 10
2258.4638659273050507
 20
128.7521032899504121
 30
0.0
 40
0.0551659064807314
 50
2.0667875297756102
 51
48.1089582896219028
  0
ARC
  5
65AD
  8
0
 10
2258.019074954745065
 20
126.5321505196503011
 30
0.0
 40
0.0310445872306057
 50
184.817959602605697
 51
226.3033981423903072
  0
ARC
  5
65AE
  8
0
 10
2258.4905221672279367
 20
126.5314871731411017
 30
0.0
 40
0.0295856712987925
 50
312.5875481037597865
 51
356.2140625475879006
  0
ARC
  5
65AF
  8
0
 10
2261.4927094693221079
 20
131.4526744025976939
 30
0.0
 40
0.2163348588852404
 50
17.8436656917573906
 51
82.6000464139485757
  0
ARC
  5
65B0
  8
0
 10
2261.8464453630708704
 20
131.6085620345760958
 30
0.0
 40
0.172843579581666
 50
211.2234411904694014
 51
252.5339003874927926
  0
ARC
  5
65B1
  8
0
 10
2262.0840556243538231
 20
132.1734755664859904
 30
0.0
 40
0.7851075460867035
 50
248.3630718873372984
 51
262.9875452807481224
  0
ARC
  5
65B2
  8
0
 10
2262.1799618586851466
 20
131.7703416587756067
 30
0.0
 40
0.4221637121261841
 50
242.9850943806434884
 51
265.6840856906130171
  0
ARC
  5
65B3
  8
0
 10
2262.2690289009110529
 20
132.9379898322629003
 30
0.0
 40
1.5932038309014691
 50
265.6501983884800779
 51
269.435142754343417
  0
ARC
  5
65B4
  8
0
 10
2262.0627755321520453
 20
131.4875973489234866
 30
0.0
 40
0.1194825737122828
 50
219.8700032251063874
 51
231.3833709678521018
  0
ARC
  5
65B5
  8
0
 10
2262.1066543801471198
 20
131.5261819011039961
 30
0.0
 40
0.1779003739812901
 50
202.5635600671130874
 51
220.3483531727997047
  0
ARC
  5
65B6
  8
0
 10
2262.0995540540111506
 20
131.5229889051246914
 30
0.0
 40
0.1701185155517916
 50
188.0678038855459135
 51
202.488071974927891
  0
ARC
  5
65B7
  8
0
 10
2261.9832597060999433
 20
131.4915289139333936
 30
0.0
 40
0.0526892266126192
 50
105.1387050065101931
 51
171.7233949778647002
  0
ARC
  5
65B8
  8
0
 10
2262.1622794993400021
 20
131.0781018136216005
 30
0.0
 40
0.5027198880726828
 50
95.759282566052093
 51
112.5490281829190025
  0
ARC
  5
65B9
  8
0
 10
2262.2766793468081232
 20
130.036601268762297
 30
0.0
 40
1.5504711060423739
 50
90.8631615436175792
 51
96.1032720304307304
  0
ARC
  5
65BA
  8
0
 10
2261.9994039188291026
 20
131.420762762475988
 30
0.0
 40
0.0274295167933807
 50
191.9292605610199018
 51
222.6141788863779993
  0
ARC
  5
65BB
  8
0
 10
2261.997073006536084
 20
131.4180195219946938
 30
0.0
 40
0.0246803506421062
 50
134.7998582280656024
 51
186.81004282733781
  0
ARC
  5
65BC
  8
0
 10
2262.0848911850112017
 20
131.3084582697933911
 30
0.0
 40
0.1649746038620919
 50
101.6214578959170041
 51
129.6225335626967023
  0
ARC
  5
65BD
  8
0
 10
2262.2211366646188253
 20
130.7961325555191081
 30
0.0
 40
0.6949021128202232
 50
94.0470008763491165
 51
104.1161669664948022
  0
ARC
  5
65BE
  8
0
 10
2262.2552307328969619
 20
130.4019298410302099
 30
0.0
 40
1.090545618599968
 50
90.100263035113116
 51
94.3721268206045352
  0
ARC
  5
65BF
  8
0
 10
2262.2392912517548211
 20
132.1271147959739096
 30
0.0
 40
0.7755043304529511
 50
261.765474202618293
 51
265.5717821266450756
  0
ARC
  5
65C0
  8
0
 10
2262.2428108972840164
 20
131.9736309511970944
 30
0.0
 40
0.607188456329003
 50
261.8532621324432057
 51
265.4078985396650978
  0
ARC
  5
65C1
  8
0
 10
2262.213041161172896
 20
131.7793443175793868
 30
0.0
 40
0.4106183068737481
 50
256.5353622457546976
 51
261.1612378620582717
  0
ARC
  5
65C2
  8
0
 10
2262.2011339918258273
 20
131.8796876375106137
 30
0.0
 40
0.5251379936345132
 50
256.3313143045343736
 51
261.2667860991396083
  0
ARC
  5
65C3
  8
0
 10
2262.1573131572490638
 20
131.5685495748176095
 30
0.0
 40
0.1925012691625402
 50
246.9190881487255069
 51
254.6314436096814973
  0
ARC
  5
65C4
  8
0
 10
2262.1340609378021327
 20
131.6227451274316991
 30
0.0
 40
0.2595130270845076
 50
246.9375718976756104
 51
254.773727678108088
  0
ARC
  5
65C5
  8
0
 10
2262.0669969010518798
 20
131.4721508440707964
 30
0.0
 40
0.094594182787892
 50
230.4773356250668996
 51
245.9614795098289903
  0
ARC
  5
65C6
  8
0
 10
2262.0199203880570167
 20
131.4201452813761932
 30
0.0
 40
0.0241631358017502
 50
185.9598045864067046
 51
224.6244338624447039
  0
ARC
  5
65C7
  8
0
 10
2262.0237555838862136
 20
131.4153797670593065
 30
0.0
 40
0.0282007521245663
 50
138.2297502189038028
 51
171.1860110262620935
  0
ARC
  5
65C8
  8
0
 10
2262.0674603539277996
 20
131.3644384086749142
 30
0.0
 40
0.0954662073134718
 50
114.1096669564123971
 51
129.4515175630698138
  0
ARC
  5
65C9
  8
0
 10
2262.1330046977691381
 20
131.2176347847837974
 30
0.0
 40
0.2562999068082793
 50
105.1770749249289025
 51
113.1116254993036989
  0
ARC
  5
65CA
  8
0
 10
2262.2015492359178097
 20
130.9555526950755109
 30
0.0
 40
0.5272736969934987
 50
98.7432154017766379
 51
103.658683945960405
  0
ARC
  5
65CB
  8
0
 10
2262.2407434877459309
 20
130.6971340153932033
 30
0.0
 40
0.7886659884528712
 50
94.4599900667655277
 51
98.202753603975026
  0
ARC
  5
65CC
  8
0
 10
2262.2509151131998806
 20
130.6016964319310034
 30
0.0
 40
0.8845768196248007
 50
90.072564444917532
 51
93.6484251916671582
  0
ARC
  5
65CD
  8
0
 10
2262.2516062235122263
 20
130.7809889202885927
 30
0.0
 40
0.6903162651720169
 50
90.1503464964164039
 51
93.5044505981424834
  0
ARC
  5
65CE
  8
0
 10
2262.2426467643008436
 20
130.8651767032083058
 30
0.0
 40
0.6057096747881161
 50
94.5877609125631551
 51
98.1510784153164337
  0
ARC
  5
65CF
  8
0
 10
2262.2135488787521354
 20
131.0554174199926081
 30
0.0
 40
0.4132413022969317
 50
98.8534511138012562
 51
103.4499487780633018
  0
ARC
  5
65D0
  8
0
 10
2262.1590452458281106
 20
131.2638207412327915
 30
0.0
 40
0.1977499975421058
 50
105.4710566902412978
 51
112.9784115513543981
  0
ARC
  5
65D1
  8
0
 10
2262.107598548238002
 20
131.3780358485460908
 30
0.0
 40
0.072421066464076
 50
114.2015043056440931
 51
129.0501875532077918
  0
ARC
  5
65D2
  8
0
 10
2262.0714406432662145
 20
131.4175690208213894
 30
0.0
 40
0.0185803359742307
 50
136.7947712409105918
 51
173.4115006443296068
  0
ARC
  5
65D3
  8
0
 10
2262.071233775681776
 20
131.4196722601911915
 30
0.0
 40
0.0183639582415651
 50
186.3649767861303985
 51
223.428751320371191
  0
ARC
  5
65D4
  8
0
 10
2262.1090359598670148
 20
131.4616355629592874
 30
0.0
 40
0.0751401361727157
 50
231.2199064686629129
 51
245.5284017991560859
  0
ARC
  5
65D5
  8
0
 10
2262.2513517589791263
 20
132.0339779394967081
 30
0.0
 40
0.666396607266784
 50
262.0966255496360873
 51
269.866135497697428
  0
ARC
  5
65D6
  8
0
 10
2262.2480434207018334
 20
131.815819134530102
 30
0.0
 40
0.4330864317013563
 50
262.0671153037371255
 51
270.2317027679220018
  0
ARC
  5
65D7
  8
0
 10
2262.2106417843237978
 20
131.5910299790500915
 30
0.0
 40
0.205207135570254
 50
248.7943054554619096
 51
261.8224106169581091
  0
ARC
  5
65D8
  8
0
 10
2262.1929780174168627
 20
131.6621894488098974
 30
0.0
 40
0.290028319339179
 50
248.5593994972531959
 51
262.0573165995554064
  0
ARC
  5
65D9
  8
0
 10
2262.1389544300250236
 20
131.4246135652466876
 30
0.0
 40
0.0239982811716214
 50
196.9020139921719874
 51
254.3429871380475049
  0
ARC
  5
65DA
  8
0
 10
2262.0943896967701221
 20
131.4297752123329985
 30
0.0
 40
0.0375180039514201
 50
198.877519522923393
 51
252.367481649295911
  0
ARC
  5
65DB
  8
0
 10
2262.0947650249499929
 20
131.4071785057666943
 30
0.0
 40
0.0379980154763608
 50
107.9966789206951034
 51
160.7583196645248051
  0
ARC
  5
65DC
  8
0
 10
2262.195493422932941
 20
131.1655539843767997
 30
0.0
 40
0.2998799921639272
 50
98.165380951057216
 51
111.2179027895378027
  0
ARC
  5
65DD
  8
0
 10
2262.2512179355439912
 20
130.8052642102863103
 30
0.0
 40
0.664491454502077
 50
90.1227093482402069
 51
97.9145294778440842
  0
ARC
  5
65DE
  8
0
 10
2262.2521741342561654
 20
130.9808886906575935
 30
0.0
 40
0.4738996091158672
 50
90.2876684675476753
 51
97.7495702389302465
  0
ARC
  5
65DF
  8
0
 10
2262.2106242032418777
 20
131.2463743677670891
 30
0.0
 40
0.2051382618446802
 50
98.1753928575111701
 51
111.207891067197906
  0
ARC
  5
65E0
  8
0
 10
2262.1405037456452192
 20
131.4111403739177888
 30
0.0
 40
0.0259628416803865
 50
108.0068840821072058
 51
160.748112689339905
  0
ARC
  5
65E1
  8
0
 10
2262.148505294098868
 20
131.4086180520259006
 30
0.0
 40
0.0288205997393536
 50
107.5369138160964013
 51
157.3844665478682998
  0
ARC
  5
65E2
  8
0
 10
2262.2113893331252257
 20
131.2588163122294986
 30
0.0
 40
0.1911837442271765
 50
98.1134818768853023
 51
111.9837027224075996
  0
ARC
  5
65E3
  8
0
 10
2262.1527112118978948
 20
131.4323639780166957
 30
0.0
 40
0.0341493968297871
 50
205.5481148317350915
 51
256.948093634917484
  0
ARC
  5
65E4
  8
0
 10
2262.2130997273811772
 20
131.5878789988476001
 30
0.0
 40
0.2006898349632272
 50
250.1637835513143955
 51
261.7801607395031169
  0
ARC
  5
65E5
  8
0
 10
2262.2971416110999598
 20
132.511845960307312
 30
0.0
 40
1.128608200505216
 50
264.6150770445524927
 51
267.7748797109376824
  0
ARC
  5
65E6
  8
0
 10
2262.2539966773738342
 20
131.6545075269146992
 30
0.0
 40
0.2539036758215935
 50
262.9307042721475796
 51
269.847835089682178
  0
ARC
  5
65E7
  8
0
 10
2262.2731967675072156
 20
131.942481470589513
 30
0.0
 40
0.5406937205932991
 50
264.9611382016094012
 51
267.8934915505017784
  0
ARC
  5
65E8
  8
0
 10
2262.2535634303681036
 20
131.509845328162811
 30
0.0
 40
0.0984018616802027
 50
264.1320273017055911
 51
269.8596370705291179
  0
ARC
  5
65E9
  8
0
 10
2262.2329937933941437
 20
131.5097574469650965
 30
0.0
 40
0.1075534767514532
 50
250.7676533602997893
 51
260.8710772440804817
  0
ARC
  5
65EA
  8
0
 10
2262.2044659650819085
 20
131.4305984397745135
 30
0.0
 40
0.0234310456096205
 50
213.586766413865405
 51
252.8729111738200004
  0
ARC
  5
65EB
  8
0
 10
2262.2072098880980775
 20
131.4031143321078048
 30
0.0
 40
0.0277625806952191
 50
107.589027611651801
 51
143.3130275804819007
  0
ARC
  5
65EC
  8
0
 10
2262.2333994185278243
 20
131.3254599789217139
 30
0.0
 40
0.1097108659800879
 50
99.1624282611218746
 51
108.3718788078831068
  0
ARC
  5
65ED
  8
0
 10
2262.2340556954518433
 20
131.4990807524411025
 30
0.0
 40
0.0953848797389638
 50
250.4029276521496001
 51
260.8500958334051916
  0
ARC
  5
65EE
  8
0
 10
2262.2079496261280838
 20
131.4287168733416991
 30
0.0
 40
0.0203650437464736
 50
212.9626721765293951
 51
253.1994075341594908
  0
ARC
  5
65EF
  8
0
 10
2262.2116116030329067
 20
131.4037510323830134
 30
0.0
 40
0.0261707659361789
 50
108.2066776371343053
 51
142.4500308818053043
  0
ARC
  5
65F0
  8
0
 10
2262.2351869325689222
 20
131.3332295553632889
 30
0.0
 40
0.1005282872249096
 50
99.3308407896937382
 51
108.412382343654798
  0
ARC
  5
65F1
  8
0
 10
2262.263328596573956
 20
131.0349451158431862
 30
0.0
 40
0.4019120093536649
 50
91.4266157763046579
 51
95.7948448614787651
  0
ARC
  5
65F2
  8
0
 10
2262.2570057833640931
 20
130.9289653987219992
 30
0.0
 40
0.5242960905173277
 50
90.4025320767419345
 51
97.2075111677719832
  0
ARC
  5
65F3
  8
0
 10
2262.2561354446261248
 20
131.1681156737913909
 30
0.0
 40
0.2670832900005178
 50
90.6034840359406957
 51
96.541862990343887
  0
ARC
  5
65F4
  8
0
 10
2262.2535743337748499
 20
131.3272879766250014
 30
0.0
 40
0.0986058951456772
 50
90.1464080275937079
 51
95.8621570865366266
  0
ARC
  5
65F5
  8
0
 10
2262.2387173320671536
 20
131.4062841835039137
 30
0.0
 40
0.01817587162926
 50
96.4228908485790015
 51
132.4250801577138077
  0
ARC
  5
65F6
  8
0
 10
2262.2383461704771435
 20
131.4302357969384047
 30
0.0
 40
0.0173243908169901
 50
226.6574459265096095
 51
264.4945830671999829
  0
ARC
  5
65F7
  8
0
 10
2261.7609454834891949
 20
131.529325370354087
 30
0.0
 40
0.0631633504826306
 50
122.0917975748621984
 51
189.4416010576454141
  0
ARC
  5
65F8
  8
0
 10
2261.9360905784069473
 20
131.1961785785831012
 30
0.0
 40
0.4393877401677046
 50
96.6301920865553967
 51
118.3583383392086006
  0
ARC
  5
65F9
  8
0
 10
2262.2215608274041188
 20
129.3360386637243096
 30
0.0
 40
2.3210672604210751
 50
93.1265415560491903
 51
98.328483987222981
  0
ARC
  5
65FA
  8
0
 10
2262.2571640733940512
 20
128.9891923909773936
 30
0.0
 40
2.6693909256317072
 50
90.0824583924783155
 51
93.4835497112521665
  0
ARC
  5
65FB
  8
0
 10
2261.9958693846701863
 20
131.5740467846229933
 30
0.0
 40
0.1278570849961929
 50
230.8755125624477955
 51
245.2651572410136964
  0
ARC
  5
65FC
  8
0
 10
2261.9417309311779718
 20
131.5096905116973005
 30
0.0
 40
0.0437912840840216
 50
199.7361431362182884
 51
232.6945623962728007
  0
ARC
  5
65FD
  8
0
 10
2261.9319051845900503
 20
131.5018050599242088
 30
0.0
 40
0.0321429932343515
 50
125.4317267354766017
 51
192.4002751990686022
  0
ARC
  5
65FE
  8
0
 10
2262.0665525011891077
 20
131.3091123655561887
 30
0.0
 40
0.2672172236890447
 50
99.3864911491642857
 51
125.0031803475973931
  0
ARC
  5
65FF
  8
0
 10
2262.2273196721807835
 20
130.6102673432974939
 30
0.0
 40
0.9839382595327016
 50
93.2295170835807454
 51
101.9866803979942063
  0
ARC
  5
6600
  8
0
 10
2262.3502045175259809
 20
127.1164823887989002
 30
0.0
 40
4.479710953644588
 50
91.2392253084639862
 51
92.2812735251880838
  0
ARC
  5
6601
  8
0
 10
2261.9251674906049629
 20
131.5493756332762985
 30
0.0
 40
0.0379309168878257
 50
122.7899872138684003
 51
184.5625610712372975
  0
ARC
  5
6602
  8
0
 10
2262.0668995584360346
 20
131.3318162012799917
 30
0.0
 40
0.297584264813787
 50
99.5040787204948742
 51
123.0454621512769933
  0
ARC
  5
6603
  8
0
 10
2262.2045159215131207
 20
130.7582413243987105
 30
0.0
 40
0.8869581329268449
 50
96.2882187309150765
 51
102.1548361709586032
  0
ARC
  5
6604
  8
0
 10
2262.2756380010018802
 20
129.2889360163659092
 30
0.0
 40
2.3569414495003591
 50
90.5424872966868008
 51
94.0940350455768311
  0
ARC
  5
6605
  8
0
 10
2262.1994984643879434
 20
130.38224806930981
 30
0.0
 40
1.2609851772409819
 50
94.1899187524694952
 51
100.9011498594998955
  0
ARC
  5
6606
  8
0
 10
2262.0451250235810221
 20
131.099477264368403
 30
0.0
 40
0.5277451339348707
 50
99.1693648684626652
 51
117.3552945033728037
  0
ARC
  5
6607
  8
0
 10
2261.8474753250698086
 20
131.4834059081667874
 30
0.0
 40
0.0959321674545516
 50
117.8752150117007034
 51
148.7589653849470892
  0
ARC
  5
6608
  8
0
 10
2261.7984825853450275
 20
131.5164248980742059
 30
0.0
 40
0.0370264186673595
 50
153.1291776655963872
 51
218.5909718570057123
  0
ARC
  5
6609
  8
0
 10
2261.9032142856408427
 20
131.6152284660269061
 30
0.0
 40
0.1809078318048113
 50
222.3624633069379968
 51
254.9469323992854868
  0
ARC
  5
660A
  8
0
 10
2262.0986792807789243
 20
132.1454618684817035
 30
0.0
 40
0.7454615160190442
 50
251.0202650809683007
 51
260.1436733636177223
  0
ARC
  5
660B
  8
0
 10
2261.9943928430870983
 20
131.7684706520398947
 30
0.0
 40
0.3041073003712208
 50
235.4408741944019994
 51
254.9037262307415972
  0
ARC
  5
660C
  8
0
 10
2261.841490304052968
 20
131.5543394537683071
 30
0.0
 40
0.0412675755569879
 50
160.3644125629782877
 51
241.6372260134127998
  0
ARC
  5
660D
  8
0
 10
2261.8522174223030561
 20
131.5932937094740112
 30
0.0
 40
0.0811496118734826
 50
209.6060254505671026
 51
248.0516149590677912
  0
LINE
  5
660E
  8
0
 10
2268.6812768334448265
 20
128.7575730469434916
 30
0.0
 11
2268.6974790255439984
 21
128.5893068486435027
 31
0.0
  0
LINE
  5
660F
  8
0
 10
2267.2568499252452057
 20
126.2046090409434953
 30
0.0
 11
2267.2568499252452057
 21
126.4309869937435025
 31
0.0
  0
LINE
  5
6610
  8
0
 10
2266.7897786751441345
 20
128.358577083743512
 30
0.0
 11
2266.8039404229439242
 21
126.5295426188434931
 31
0.0
  0
LINE
  5
6611
  8
0
 10
2265.7017318149801213
 20
126.5293901687435039
 30
0.0
 11
2265.7017318149801213
 21
128.7537996887434986
 31
0.0
  0
LINE
  5
6612
  8
0
 10
2265.2489759095451518
 20
126.4309869937435025
 30
0.0
 11
2265.2489759095451518
 21
126.2046090409434953
 31
0.0
  0
LINE
  5
6613
  8
0
 10
2265.2588184292449114
 20
126.1947665212434941
 30
0.0
 11
2267.2470074055449913
 21
126.1947665212434941
 31
0.0
  0
LINE
  5
6614
  8
0
 10
2265.2883459882450552
 20
126.4703570724435053
 30
0.0
 11
2267.2174798465448475
 21
126.4703570724435053
 31
0.0
  0
LINE
  5
6615
  8
0
 10
2265.7214342370448321
 20
126.5097048222435063
 30
0.0
 11
2266.7842142269441865
 21
126.509705103943503
 31
0.0
  0
LINE
  5
6616
  8
0
 10
2262.3852444464450855
 20
131.3606380748435072
 30
0.0
 11
2262.3566968661439205
 21
131.3736022442435001
 31
0.0
  0
LINE
  5
6617
  8
0
 10
2262.353743525245136
 20
131.3749434300434871
 30
0.0
 11
2262.3251919768449625
 21
131.3879094013435065
 31
0.0
  0
LINE
  5
6618
  8
0
 10
2262.3222379609451309
 20
131.3892508937435082
 30
0.0
 11
2262.2907149961451978
 21
131.4035662594434939
 31
0.0
  0
LINE
  5
6619
  8
0
 10
2262.2877569532452071
 20
131.4049095806435048
 30
0.0
 11
2262.2699606615451557
 21
131.4129913212435099
 31
0.0
  0
LINE
  5
661A
  8
0
 10
2262.2631415639439183
 20
131.4119590803435074
 30
0.0
 11
2262.2809378556439697
 21
131.4038773397435023
 31
0.0
  0
LINE
  5
661B
  8
0
 10
2262.2838958985439604
 20
131.4025340186435074
 30
0.0
 11
2262.3154188632452133
 21
131.3882186529434932
 31
0.0
  0
LINE
  5
661C
  8
0
 10
2262.3183728791441354
 20
131.3868771605434915
 30
0.0
 11
2262.3469244275452184
 21
131.3739111892435005
 31
0.0
  0
LINE
  5
661D
  8
0
 10
2262.3498777684440029
 20
131.3725700033434975
 30
0.0
 11
2262.3784253488452123
 21
131.3596058340434922
 31
0.0
  0
LINE
  5
661E
  8
0
 10
2262.3272302181439954
 20
131.3539254641434866
 30
0.0
 11
2262.3124462610448973
 21
131.3683916154434996
 31
0.0
  0
LINE
  5
661F
  8
0
 10
2262.2972348306439017
 20
131.3673229611434863
 30
0.0
 11
2262.3120187878448633
 21
131.3528568097435141
 31
0.0
  0
LINE
  5
6620
  8
0
 10
2263.2573223662448072
 20
126.2144515606434965
 30
0.0
 11
2263.2573223662448072
 21
126.4303570724434991
 31
0.0
  0
LINE
  5
6621
  8
0
 10
2263.0304719725450013
 20
126.4801995921435065
 30
0.0
 11
2263.0304719725450013
 21
132.1868925055435113
 31
0.0
  0
LINE
  5
6622
  8
0
 10
2268.6680874055450658
 20
128.5569491984435047
 30
0.0
 11
2266.8358974397451675
 21
128.5569491984435047
 31
0.0
  0
LINE
  5
6623
  8
0
 10
2265.741133901045032
 20
128.793169670843497
 30
0.0
 11
2268.6420880067439612
 21
128.793169670843497
 31
0.0
  0
LINE
  5
6624
  8
0
 10
2262.5039218895440172
 20
131.4176364051434973
 30
0.0
 11
2262.5039218895440172
 21
131.4031717263434871
 31
0.0
  0
LINE
  5
6625
  8
0
 10
2262.4781808413449653
 20
131.4007055044399124
 30
0.0
 11
2262.4781808413449653
 21
131.3857606446435113
 31
0.0
  0
LINE
  5
6626
  8
0
 10
2262.4536617171452235
 20
131.4197008868434864
 30
0.0
 11
2262.4536617171452235
 21
131.430634618692892
 31
0.0
  0
LINE
  5
6627
  8
0
 10
2262.444671519844178
 20
131.4342776444435117
 30
0.0
 11
2262.444671519844178
 21
131.44650417397051
 31
0.0
  0
LINE
  5
6628
  8
0
 10
2262.4407401286439381
 20
131.3890443740885985
 30
0.0
 11
2262.4407401286439381
 21
131.3723420017435046
 31
0.0
  0
LINE
  5
6629
  8
0
 10
2262.4247979738452159
 20
131.445879674243514
 30
0.0
 11
2262.4247979738452159
 21
131.4608154296763871
 31
0.0
  0
LINE
  5
662A
  8
0
 10
2262.423619645243889
 20
131.4176364051434973
 30
0.0
 11
2262.423619645243889
 21
131.3940198453435073
 31
0.0
  0
LINE
  5
662B
  8
0
 10
2262.3906519385450338
 20
131.4197008868434864
 30
0.0
 11
2262.3906519385450338
 21
131.4383269601966049
 31
0.0
  0
LINE
  5
662C
  8
0
 10
2262.389214066743989
 20
131.4573249504435069
 30
0.0
 11
2262.389214066743989
 21
131.4760732207768115
 31
0.0
  0
LINE
  5
662D
  8
0
 10
2262.3852444464450855
 20
131.3790827232097911
 30
0.0
 11
2262.3852444464450855
 21
131.3606380748435072
 31
0.0
  0
LINE
  5
662E
  8
0
 10
2262.3702299048450186
 20
131.4376194331435102
 30
0.0
 11
2262.3702299048450186
 21
131.4595569252925884
 31
0.0
  0
LINE
  5
662F
  8
0
 10
2262.353743525245136
 20
131.3941137678436064
 30
0.0
 11
2262.353743525245136
 21
131.3749434300434871
 31
0.0
  0
LINE
  5
6630
  8
0
 10
2262.3498777684440029
 20
131.4647672885434986
 30
0.0
 11
2262.3498777684440029
 21
131.4813163824435094
 31
0.0
  0
LINE
  5
6631
  8
0
 10
2262.3272307973261377
 20
131.3697612246166102
 30
0.0
 11
2262.3272302181439954
 21
131.3539254641434866
 31
0.0
  0
LINE
  5
6632
  8
0
 10
2262.3222379609451309
 20
131.4176364051434973
 30
0.0
 11
2262.3222379609451309
 21
131.3892508937435082
 31
0.0
  0
LINE
  5
6633
  8
0
 10
2262.3216979772450941
 20
131.4197008868434864
 30
0.0
 11
2262.3216979772450941
 21
131.4478411780575016
 31
0.0
  0
LINE
  5
6634
  8
0
 10
2262.3183728791441354
 20
131.4504601314434922
 30
0.0
 11
2262.3183728791441354
 21
131.4667955100435108
 31
0.0
  0
LINE
  5
6635
  8
0
 10
2262.2972348306439017
 20
131.4700143308434974
 30
0.0
 11
2262.2972348306439017
 21
131.4852989824250074
 31
0.0
  0
LINE
  5
6636
  8
0
 10
2262.2877569532452071
 20
131.4176364051434973
 30
0.0
 11
2262.2877569532452071
 21
131.4049095806435048
 31
0.0
  0
LINE
  5
6637
  8
0
 10
2262.2838958985439604
 20
131.4348032733435048
 30
0.0
 11
2262.2838958985439604
 21
131.4521411358709031
 31
0.0
  0
LINE
  5
6638
  8
0
 10
2262.28018930804501
 20
131.4197008868434864
 30
0.0
 11
2262.28018930804501
 21
131.428991054566211
 31
0.0
  0
LINE
  5
6639
  8
0
 10
2262.2631415639439183
 20
131.4253782115434888
 30
0.0
 11
2262.2631386399461917
 21
131.4349001996938
 31
0.0
  0
LINE
  5
663A
  8
0
 10
2262.2568499252452057
 20
131.3510647497435002
 30
0.0
 11
2262.2568499252452057
 21
131.3660344830435065
 31
0.0
  0
LINE
  5
663B
  8
0
 10
2262.2568499252452057
 20
131.3675831510435046
 30
0.0
 11
2262.2568499252452057
 21
131.3827362441161029
 31
0.0
  0
LINE
  5
663C
  8
0
 10
2262.2568499252452057
 20
131.4547823267434978
 30
0.0
 11
2262.2568499252452057
 21
131.4697541408434915
 31
0.0
  0
LINE
  5
663D
  8
0
 10
2262.2568499252452057
 20
131.4713028088434896
 30
0.0
 11
2262.2568499252452057
 21
131.4862725421434959
 31
0.0
  0
LINE
  5
663E
  8
0
 10
2262.3124462610448973
 20
131.4689456764434965
 30
0.0
 11
2262.3272302181439954
 21
131.4834118278434971
 31
0.0
  0
LINE
  5
663F
  8
0
 10
2262.3120187878448633
 20
131.4844804821435105
 30
0.0
 11
2262.2972348306439017
 21
131.4700143308434974
 31
0.0
  0
LINE
  5
6640
  8
0
 10
2262.389214066743989
 20
131.3800123415435053
 30
0.0
 11
2262.4296045887440414
 21
131.3694223837435118
 31
0.0
  0
LINE
  5
6641
  8
0
 10
2262.4407401286439381
 20
131.3723420017435046
 30
0.0
 11
2262.4003496065452055
 21
131.3829319595434981
 31
0.0
  0
LINE
  5
6642
  8
0
 10
2262.3702299048450186
 20
131.399717858743486
 30
0.0
 11
2262.4196826373449767
 21
131.3922319517434971
 31
0.0
  0
LINE
  5
6643
  8
0
 10
2262.4247979738452159
 20
131.3914576176435105
 30
0.0
 11
2262.4742438334451435
 21
131.3839727510435011
 31
0.0
  0
LINE
  5
6644
  8
0
 10
2262.4781808413449653
 20
131.3857606446435113
 30
0.0
 11
2262.4287349817450377
 21
131.3932455113435083
 31
0.0
  0
LINE
  5
6645
  8
0
 10
2262.423619645243889
 20
131.3940198453435073
 30
0.0
 11
2262.3741669127439309
 21
131.4015057523434962
 31
0.0
  0
LINE
  5
6646
  8
0
 10
2262.444671519844178
 20
131.4030596474435129
 30
0.0
 11
2262.499845999045192
 21
131.3991834539434933
 31
0.0
  0
LINE
  5
6647
  8
0
 10
2262.5039218895440172
 20
131.4031717263434871
 30
0.0
 11
2262.4487474103439126
 21
131.4070479199434942
 31
0.0
  0
LINE
  5
6648
  8
0
 10
2262.28018930804501
 20
131.4176364051434973
 30
0.0
 11
2262.3157818915451571
 21
131.4176364051434973
 31
0.0
  0
LINE
  5
6649
  8
0
 10
2262.3216979772450941
 20
131.4176364051434973
 30
0.0
 11
2262.3847439067449159
 21
131.4176364051434973
 31
0.0
  0
LINE
  5
664A
  8
0
 10
2262.3906519385450338
 20
131.4176364051434973
 30
0.0
 11
2262.4477550353440165
 21
131.4176364051434973
 31
0.0
  0
LINE
  5
664B
  8
0
 10
2262.4536617171452235
 20
131.4176364051434973
 30
0.0
 11
2262.5107568779449139
 21
131.4176364051434973
 31
0.0
  0
LINE
  5
664C
  8
0
 10
2262.5107568779449139
 20
131.4197008868434864
 30
0.0
 11
2262.4536617171452235
 21
131.4197008868434864
 31
0.0
  0
LINE
  5
664D
  8
0
 10
2262.4477550353440165
 20
131.4197008868434864
 30
0.0
 11
2262.3906519385450338
 21
131.4197008868434864
 31
0.0
  0
LINE
  5
664E
  8
0
 10
2262.3847439067449159
 20
131.4197008868434864
 30
0.0
 11
2262.3216979772450941
 21
131.4197008868434864
 31
0.0
  0
LINE
  5
664F
  8
0
 10
2262.3157818915451571
 20
131.4197008868434864
 30
0.0
 11
2262.28018930804501
 21
131.4197008868434864
 31
0.0
  0
LINE
  5
6650
  8
0
 10
2262.4487474103439126
 20
131.4302893720434895
 30
0.0
 11
2262.5039218895440172
 21
131.434165565543509
 31
0.0
  0
LINE
  5
6651
  8
0
 10
2262.499845999045192
 20
131.4381538380434904
 30
0.0
 11
2262.444671519844178
 21
131.4342776444435117
 31
0.0
  0
LINE
  5
6652
  8
0
 10
2262.3741669127439309
 20
131.4358315395435
 30
0.0
 11
2262.423619645243889
 21
131.4433174465434888
 31
0.0
  0
LINE
  5
6653
  8
0
 10
2262.4287349817450377
 20
131.4440917806435039
 30
0.0
 11
2262.4781808413449653
 21
131.4515766472435132
 31
0.0
  0
LINE
  5
6654
  8
0
 10
2262.4742438334451435
 20
131.453364540843495
 30
0.0
 11
2262.4247979738452159
 21
131.445879674243514
 31
0.0
  0
LINE
  5
6655
  8
0
 10
2262.4196826373449767
 20
131.4451053402434866
 30
0.0
 11
2262.3702299048450186
 21
131.4376194331435102
 31
0.0
  0
LINE
  5
6656
  8
0
 10
2262.4003496065452055
 20
131.454405332343498
 30
0.0
 11
2262.4407401286439381
 21
131.4649952901434915
 31
0.0
  0
LINE
  5
6657
  8
0
 10
2262.4296045887440414
 20
131.4679149082435003
 30
0.0
 11
2262.389214066743989
 21
131.4573249504435069
 31
0.0
  0
LINE
  5
6658
  8
0
 10
2262.2699606615451557
 20
131.4243459707435022
 30
0.0
 11
2262.2877569532452071
 21
131.4324277112434913
 31
0.0
  0
LINE
  5
6659
  8
0
 10
2262.2907149961451978
 20
131.4337710324435022
 30
0.0
 11
2262.3222379609451309
 21
131.4480863981434879
 31
0.0
  0
LINE
  5
665A
  8
0
 10
2262.3251919768449625
 20
131.4494278905434896
 30
0.0
 11
2262.353743525245136
 21
131.4623938618435091
 31
0.0
  0
LINE
  5
665B
  8
0
 10
2262.3566968661439205
 20
131.463735047743512
 30
0.0
 11
2262.3852444464450855
 21
131.4766992170434889
 31
0.0
  0
LINE
  5
665C
  8
0
 10
2262.3784253488452123
 20
131.4777314579434915
 30
0.0
 11
2262.3498777684440029
 21
131.4647672885434986
 31
0.0
  0
LINE
  5
665D
  8
0
 10
2262.3469244275452184
 20
131.4634261027435116
 30
0.0
 11
2262.3183728791441354
 21
131.4504601314434922
 31
0.0
  0
LINE
  5
665E
  8
0
 10
2262.3154188632452133
 20
131.4491186390434905
 30
0.0
 11
2262.2838958985439604
 21
131.4348032733435048
 31
0.0
  0
LINE
  5
665F
  8
0
 10
2262.2809378556439697
 20
131.4334599521434939
 30
0.0
 11
2262.2631415639439183
 21
131.4253782115434888
 31
0.0
  0
ARC
  5
6660
  8
0
 10
2267.0139127645338704
 20
128.3330221372405902
 30
0.0
 40
0.2255862259034507
 50
96.9533266687909361
 51
173.4954342470398956
  0
ARC
  5
6661
  8
0
 10
2266.7106118353672173
 20
126.5146729363482052
 30
0.0
 40
0.0445906847381663
 50
186.396622275352513
 51
263.6355087838900886
  0
ARC
  5
6662
  8
0
 10
2265.7962169518232258
 20
126.5136694432853943
 30
0.0
 40
0.0434912122263936
 50
275.1978030611159056
 51
354.7697469569005762
  0
ARC
  5
6663
  8
0
 10
2267.2174798465448475
 20
126.4309869937435025
 30
0.0
 40
0.0393700787
 50
0.0
 51
90.0
  0
ARC
  5
6664
  8
0
 10
2268.6373426612458388
 20
128.748575374171196
 30
0.0
 40
0.044846065597732
 50
11.5740716266283208
 51
83.9259283733722015
  0
ARC
  5
6665
  8
0
 10
2265.7459913589150347
 20
128.7489061528401066
 30
0.0
 40
0.0445292479500198
 50
96.2625529266424849
 51
173.6907446913996864
  0
ARC
  5
6666
  8
0
 10
2268.6674762166148867
 20
128.5870319224789
 30
0.0
 40
0.0300889321395643
 50
271.1639148427564123
 51
4.3360851572312971
  0
ARC
  5
6667
  8
0
 10
2266.7820927121279055
 20
126.5315412221412998
 30
0.0
 40
0.0219389353220767
 50
275.5492250642186036
 51
354.773195971326686
  0
ARC
  5
6668
  8
0
 10
2265.7247183701720132
 20
126.5326942335812959
 30
0.0
 40
0.023222802674466
 50
188.1796133185403903
 51
261.8700649339155007
  0
ARC
  5
6669
  8
0
 10
2267.2453324931720999
 20
126.2062839533159035
 30
0.0
 40
0.011638581227854
 50
278.2741854370083843
 51
351.7258145630038939
  0
ARC
  5
666A
  8
0
 10
2263.2078072105809952
 20
126.420841916779807
 30
0.0
 40
0.0504211148995191
 50
10.8777273107577006
 51
79.1222726892403898
  0
ARC
  5
666B
  8
0
 10
2265.2912815750792106
 20
126.4280514069096029
 30
0.0
 40
0.0424073932979672
 50
93.9693870191090355
 51
176.0306129808867865
  0
ARC
  5
666C
  8
0
 10
2263.234619864393153
 20
126.2174690230949068
 30
0.0
 40
0.0229021542646143
 50
277.5709913707856913
 51
352.4290086292095907
  0
ARC
  5
666D
  8
0
 10
2265.2595903064811864
 20
126.2053809181795003
 30
0.0
 40
0.0106424253242823
 50
184.1592186119123085
 51
265.840781388080984
  0
ARC
  5
666E
  8
0
 10
2263.0188078837718422
 20
126.4820211612157976
 30
0.0
 40
0.0118054682572594
 50
278.8761287062993119
 51
351.1238712936960837
  0
ARC
  5
666F
  8
0
 10
2262.2534875515448221
 20
132.3046632766435096
 30
0.0
 40
0.9536044546999999
 50
270.2020231971064845
 51
273.5189664585997775
  0
ARC
  5
6670
  8
0
 10
2262.2530604301450694
 20
132.1183474751435085
 30
0.0
 40
0.7523225361
 50
270.2886036071888043
 51
273.366193655706013
  0
ARC
  5
6671
  8
0
 10
2262.9938301768261226
 20
132.1817467728251927
 30
0.0
 40
0.0370013480655904
 50
7.993964754255793
 51
82.0060352457437745
  0
ARC
  5
6672
  8
0
 10
2262.9950536814999396
 20
131.7026257571882866
 30
0.0
 40
0.0356348034001326
 50
276.3191974757376101
 51
353.6808025242589224
  0
ARC
  5
6673
  8
0
 10
2262.021059297697775
 20
131.6718934037681947
 30
0.0
 40
0.6112582002824382
 50
343.168892910738009
 51
348.1487461658912821
  0
LINE
  5
6674
  8
0
 10
2265.9876487858450673
 20
128.7540928166434924
 30
0.0
 11
2265.9866014585450102
 21
126.529533660843498
 31
0.0
  0
LINE
  5
6675
  8
0
 10
2266.5185046713449992
 20
126.5295430787435009
 30
0.0
 11
2266.5189856313568271
 21
128.4047688662668065
 31
0.0
  0
ARC
  5
6676
  8
0
 10
2266.8505532085450795
 20
128.1203582202151949
 30
0.0
 40
0.4368368961403152
 50
91.9226198916275479
 51
139.3778059859600944
  0
ARC
  5
6677
  8
0
 10
2266.0427788050837989
 20
128.7521032899504121
 30
0.0
 40
0.0551659064807314
 50
131.8910417103780901
 51
177.9332124702243902
  0
ARC
  5
6678
  8
0
 10
2266.4875697776437846
 20
126.5321505196503011
 30
0.0
 40
0.0310445872306057
 50
313.6966018576097213
 51
355.1820403973941893
  0
ARC
  5
6679
  8
0
 10
2266.0161225651618224
 20
126.5314871731411017
 30
0.0
 40
0.0295856712987925
 50
183.7859374524120142
 51
227.4124518962402135
  0
ARC
  5
667A
  8
0
 10
2263.0139352630671965
 20
131.4526744025976939
 30
0.0
 40
0.2163348588852404
 50
97.3999535860514385
 51
162.1563343082426059
  0
ARC
  5
667B
  8
0
 10
2262.6601993693179793
 20
131.6085620345760958
 30
0.0
 40
0.172843579581666
 50
287.4660996125072074
 51
328.7765588095306271
  0
ARC
  5
667C
  8
0
 10
2262.4225891080350266
 20
132.1734755664859904
 30
0.0
 40
0.7851075460867035
 50
277.0124547192518776
 51
291.6369281126627016
  0
ARC
  5
667D
  8
0
 10
2262.3266828737041578
 20
131.7703416587756067
 30
0.0
 40
0.4221637121261841
 50
274.3159143093869829
 51
297.0149056193563979
  0
ARC
  5
667E
  8
0
 10
2262.2376158314777967
 20
132.9379898322629003
 30
0.0
 40
1.5932038309014811
 50
270.5648572456565262
 51
274.3498016115199221
  0
ARC
  5
667F
  8
0
 10
2262.4438692002358948
 20
131.4875973489234866
 30
0.0
 40
0.1194825737122828
 50
308.6166290321480119
 51
320.1299967748935842
  0
ARC
  5
6680
  8
0
 10
2262.3999903522421846
 20
131.5261819011039961
 30
0.0
 40
0.1779003739812901
 50
319.651646827200409
 51
337.4364399328869126
  0
ARC
  5
6681
  8
0
 10
2262.4070906783790633
 20
131.5229889051246914
 30
0.0
 40
0.1701185155517916
 50
337.511928025072109
 51
351.9321961144539728
  0
ARC
  5
6682
  8
0
 10
2262.5233850262898159
 20
131.4915289139333936
 30
0.0
 40
0.0526892266126192
 50
8.2766050221352376
 51
74.8612949934898211
  0
ARC
  5
6683
  8
0
 10
2262.3443652330488476
 20
131.0781018136216005
 30
0.0
 40
0.5027198880726828
 50
67.4509718170809407
 51
84.2407174339479212
  0
ARC
  5
6684
  8
0
 10
2262.2299653855811812
 20
130.036601268762297
 30
0.0
 40
1.5504711060423739
 50
83.8967279695692838
 51
89.1368384563824065
  0
ARC
  5
6685
  8
0
 10
2262.5072408135611113
 20
131.420762762475988
 30
0.0
 40
0.0274295167933807
 50
317.3858211136220007
 51
348.0707394389792739
  0
ARC
  5
6686
  8
0
 10
2262.5095717258532204
 20
131.4180195219946938
 30
0.0
 40
0.0246803506421062
 50
353.1899571726622185
 51
45.2001417719343692
  0
ARC
  5
6687
  8
0
 10
2262.4217535473781027
 20
131.3084582697933911
 30
0.0
 40
0.1649746038620919
 50
50.3774664373032905
 51
78.3785421040829675
  0
ARC
  5
6688
  8
0
 10
2262.2855080677700244
 20
130.7961325555191081
 30
0.0
 40
0.6949021128202232
 50
75.883833033505141
 51
85.9529991236508693
  0
ARC
  5
6689
  8
0
 10
2262.2514139994918878
 20
130.4019298410302099
 30
0.0
 40
1.090545618599968
 50
85.6278731793954506
 51
89.899736964886884
  0
ARC
  5
668A
  8
0
 10
2262.2673534806340285
 20
132.1271147959739096
 30
0.0
 40
0.7755043304529511
 50
274.4282178733549244
 51
278.2345257973815933
  0
ARC
  5
668B
  8
0
 10
2262.2638338351048333
 20
131.9736309511970944
 30
0.0
 40
0.607188456329003
 50
274.5921014603349022
 51
278.1467378675567943
  0
ARC
  5
668C
  8
0
 10
2262.2936035712168632
 20
131.7793443175793868
 30
0.0
 40
0.4106183068737481
 50
278.8387621379417283
 51
283.4646377542453024
  0
ARC
  5
668D
  8
0
 10
2262.3055107405630224
 20
131.8796876375106137
 30
0.0
 40
0.5251379936345132
 50
278.7332139008603917
 51
283.6686856954656264
  0
ARC
  5
668E
  8
0
 10
2262.3493315751411501
 20
131.5685495748176095
 30
0.0
 40
0.1925012691625402
 50
285.3685563903184743
 51
293.0809118512744931
  0
ARC
  5
668F
  8
0
 10
2262.3725837945871717
 20
131.6227451274316991
 30
0.0
 40
0.2595130270845076
 50
285.2262723218918836
 51
293.062428102324418
  0
ARC
  5
6690
  8
0
 10
2262.4396478313369698
 20
131.4721508440707964
 30
0.0
 40
0.094594182787892
 50
294.0385204901709812
 51
309.5226643749330151
  0
ARC
  5
6691
  8
0
 10
2262.486724344331833
 20
131.4201452813761932
 30
0.0
 40
0.0241631358017502
 50
315.3755661375553245
 51
354.0401954135933238
  0
ARC
  5
6692
  8
0
 10
2262.4828891485040003
 20
131.4153797670593065
 30
0.0
 40
0.0282007521245663
 50
8.8139889737378976
 51
41.7702497810961972
  0
ARC
  5
6693
  8
0
 10
2262.4391843784610501
 20
131.3644384086749142
 30
0.0
 40
0.0954662073134718
 50
50.5484824369301293
 51
65.8903330435875745
  0
ARC
  5
6694
  8
0
 10
2262.3736400346201663
 20
131.2176347847837974
 30
0.0
 40
0.2562999068082793
 50
66.8883745006963153
 51
74.8229250750710833
  0
ARC
  5
6695
  8
0
 10
2262.30509549647104
 20
130.9555526950755109
 30
0.0
 40
0.5272736969934987
 50
76.3413160540396234
 51
81.2567845982233763
  0
ARC
  5
6696
  8
0
 10
2262.2659012446429188
 20
130.6971340153932033
 30
0.0
 40
0.7886659884528712
 50
81.7972463960250025
 51
85.5400099332345007
  0
ARC
  5
6697
  8
0
 10
2262.2557296191889691
 20
130.6016964319310034
 30
0.0
 40
0.8845768196248007
 50
86.351574808332856
 51
89.9274355550824538
  0
ARC
  5
6698
  8
0
 10
2262.2550385088770781
 20
130.7809889202885927
 30
0.0
 40
0.6903162651720169
 50
86.4955494018575308
 51
89.8496535035835535
  0
ARC
  5
6699
  8
0
 10
2262.263997968088006
 20
130.8651767032083058
 30
0.0
 40
0.6057096747881161
 50
81.8489215846835805
 51
85.4122390874368307
  0
ARC
  5
669A
  8
0
 10
2262.2930958536371691
 20
131.0554174199926081
 30
0.0
 40
0.4132413022969317
 50
76.5500512219366698
 51
81.1465488861987865
  0
ARC
  5
669B
  8
0
 10
2262.3475994865611938
 20
131.2638207412327915
 30
0.0
 40
0.1977499975421058
 50
67.0215884486455877
 51
74.5289433097587164
  0
ARC
  5
669C
  8
0
 10
2262.3990461841508477
 20
131.3780358485460908
 30
0.0
 40
0.072421066464076
 50
50.9498124467921087
 51
65.7984956943558501
  0
ARC
  5
669D
  8
0
 10
2262.4352040891239994
 20
131.4175690208213894
 30
0.0
 40
0.0185803359742307
 50
6.5884993556703702
 51
43.2052287590893727
  0
ARC
  5
669E
  8
0
 10
2262.4354109567079831
 20
131.4196722601911915
 30
0.0
 40
0.0183639582415651
 50
316.571248679628809
 51
353.6350232138696015
  0
ARC
  5
669F
  8
0
 10
2262.3976087725218349
 20
131.4616355629592874
 30
0.0
 40
0.0751401361727157
 50
294.4715982008439141
 51
308.7800935313371156
  0
ARC
  5
66A0
  8
0
 10
2262.2552929734101781
 20
132.0339779394967081
 30
0.0
 40
0.666396607266784
 50
270.133864502302572
 51
277.9033744503639127
  0
ARC
  5
66A1
  8
0
 10
2262.2586013116879258
 20
131.815819134530102
 30
0.0
 40
0.4330864317013563
 50
269.7682972320779982
 51
277.9328846962628745
  0
ARC
  5
66A2
  8
0
 10
2262.2960029480650519
 20
131.5910299790500915
 30
0.0
 40
0.205207135570254
 50
278.1775893830420046
 51
291.2056945445381189
  0
ARC
  5
66A3
  8
0
 10
2262.3136667149728964
 20
131.6621894488098974
 30
0.0
 40
0.290028319339179
 50
277.9426834004445936
 51
291.4406005027469178
  0
ARC
  5
66A4
  8
0
 10
2262.367690302363826
 20
131.4246135652466876
 30
0.0
 40
0.0239982811716214
 50
285.6570128619525235
 51
343.0979860078280126
  0
ARC
  5
66A5
  8
0
 10
2262.4122550356191823
 20
131.4297752123329985
 30
0.0
 40
0.0375180039514201
 50
287.6325183507041174
 51
341.1224804770765218
  0
ARC
  5
66A6
  8
0
 10
2262.4118797074388567
 20
131.4071785057666943
 30
0.0
 40
0.0379980154763608
 50
19.2416803354751309
 51
72.0033210793048966
  0
ARC
  5
66A7
  8
0
 10
2262.3111513094559086
 20
131.1655539843767997
 30
0.0
 40
0.2998799921639272
 50
68.7820972104621973
 51
81.834619048942784
  0
ARC
  5
66A8
  8
0
 10
2262.2554267968462227
 20
130.8052642102863103
 30
0.0
 40
0.664491454502077
 50
82.0854705221559158
 51
89.8772906517598074
  0
ARC
  5
66A9
  8
0
 10
2262.254470598133139
 20
130.9808886906575935
 30
0.0
 40
0.4738996091158672
 50
82.2504297610697819
 51
89.7123315324523247
  0
ARC
  5
66AA
  8
0
 10
2262.296020529146972
 20
131.2463743677670891
 30
0.0
 40
0.2051382618446802
 50
68.7921089328020372
 51
81.8246071424888441
  0
ARC
  5
66AB
  8
0
 10
2262.3661409867440852
 20
131.4111403739177888
 30
0.0
 40
0.0259628416803865
 50
19.2518873106600594
 51
71.9931159179175637
  0
ARC
  5
66AC
  8
0
 10
2262.3581394382899816
 20
131.4086180520259006
 30
0.0
 40
0.0288205997393536
 50
22.6155334521317499
 51
72.4630861839035987
  0
ARC
  5
66AD
  8
0
 10
2262.2952553992640787
 20
131.2588163122294986
 30
0.0
 40
0.1911837442271765
 50
68.0162972775924004
 51
81.8865181231147119
  0
ARC
  5
66AE
  8
0
 10
2262.3539335204909548
 20
131.4323639780166957
 30
0.0
 40
0.0341493968297871
 50
283.051906365082516
 51
334.4518851682649938
  0
ARC
  5
66AF
  8
0
 10
2262.2935450050090367
 20
131.5878789988476001
 30
0.0
 40
0.2006898349632272
 50
278.2198392604968831
 51
289.8362164486854908
  0
ARC
  5
66B0
  8
0
 10
2262.2095031212888898
 20
132.511845960307312
 30
0.0
 40
1.128608200505216
 50
272.2251202890622039
 51
275.3849229554475073
  0
ARC
  5
66B1
  8
0
 10
2262.2526480550159249
 20
131.6545075269146992
 30
0.0
 40
0.2539036758215935
 50
270.152164910317822
 51
277.0692957278523068
  0
ARC
  5
66B2
  8
0
 10
2262.2334479648820889
 20
131.942481470589513
 30
0.0
 40
0.5406937205932991
 50
272.1065084494981079
 51
275.0388617983907125
  0
ARC
  5
66B3
  8
0
 10
2262.2530813020212008
 20
131.509845328162811
 30
0.0
 40
0.0984018616802027
 50
270.1403629294708821
 51
275.8679726982944089
  0
ARC
  5
66B4
  8
0
 10
2262.2736509389951607
 20
131.5097574469650965
 30
0.0
 40
0.1075534767514532
 50
279.1289227559192909
 51
289.2323466397002107
  0
ARC
  5
66B5
  8
0
 10
2262.3021787673069412
 20
131.4305984397745135
 30
0.0
 40
0.0234310456096205
 50
287.1270888261549885
 51
326.4132335861347087
  0
ARC
  5
66B6
  8
0
 10
2262.2994348442921364
 20
131.4031143321078048
 30
0.0
 40
0.0277625806952191
 50
36.6869724195180709
 51
72.410972388348128
  0
ARC
  5
66B7
  8
0
 10
2262.2732453138610254
 20
131.3254599789217139
 30
0.0
 40
0.1097108659800879
 50
71.6281211921168364
 51
80.8375717388781254
  0
ARC
  5
66B8
  8
0
 10
2262.2725890369379158
 20
131.4990807524411025
 30
0.0
 40
0.0953848797389638
 50
279.1499041665946947
 51
289.5970723478504283
  0
ARC
  5
66B9
  8
0
 10
2262.2986951062621301
 20
131.4287168733416991
 30
0.0
 40
0.0203650437464736
 50
286.8005924658405092
 51
327.0373278234706049
  0
ARC
  5
66BA
  8
0
 10
2262.2950331293559429
 20
131.4037510323830134
 30
0.0
 40
0.0261707659361789
 50
37.5499691181947171
 51
71.7933223628656947
  0
ARC
  5
66BB
  8
0
 10
2262.271457799820837
 20
131.3332295553632889
 30
0.0
 40
0.1005282872249096
 50
71.587617656345202
 51
80.6691592103062476
  0
ARC
  5
66BC
  8
0
 10
2262.2433161358158031
 20
131.0349451158431862
 30
0.0
 40
0.4019120093536649
 50
84.2051551385212349
 51
88.5733842236953564
  0
ARC
  5
66BD
  8
0
 10
2262.2496389490252113
 20
130.9289653987219992
 30
0.0
 40
0.5242960905173277
 50
82.7924888322280452
 51
89.5974679232580513
  0
ARC
  5
66BE
  8
0
 10
2262.2505092877631796
 20
131.1681156737913909
 30
0.0
 40
0.2670832900005178
 50
83.458137009656113
 51
89.3965159640593185
  0
ARC
  5
66BF
  8
0
 10
2262.2530703986139997
 20
131.3272879766250014
 30
0.0
 40
0.0986058951456772
 50
84.1378429134633734
 51
89.8535919724062779
  0
ARC
  5
66C0
  8
0
 10
2262.2679274003230603
 20
131.4062841835039137
 30
0.0
 40
0.01817587162926
 50
47.5749198422862065
 51
83.5771091514210127
  0
ARC
  5
66C1
  8
0
 10
2262.2682985619130704
 20
131.4302357969384047
 30
0.0
 40
0.0173243908169901
 50
275.5054169327999034
 51
313.3425540734904189
  0
ARC
  5
66C2
  8
0
 10
2262.7456992489001095
 20
131.529325370354087
 30
0.0
 40
0.0631633504826306
 50
350.5583989423545859
 51
57.9082024251378087
  0
ARC
  5
66C3
  8
0
 10
2262.5705541539819023
 20
131.1961785785831012
 30
0.0
 40
0.4393877401677046
 50
61.6416616607914278
 51
83.3698079134445749
  0
ARC
  5
66C4
  8
0
 10
2262.2850839049851857
 20
129.3360386637243096
 30
0.0
 40
2.3210672604210751
 50
81.6715160127770048
 51
86.8734584439507955
  0
ARC
  5
66C5
  8
0
 10
2262.2494806589961627
 20
128.9891923909773936
 30
0.0
 40
2.6693909256317072
 50
86.5164502887478761
 51
89.9175416075216987
  0
ARC
  5
66C6
  8
0
 10
2262.5107753477191181
 20
131.5740467846229933
 30
0.0
 40
0.1278570849961929
 50
294.7348427589861899
 51
309.1244874375522045
  0
ARC
  5
66C7
  8
0
 10
2262.5649138012108779
 20
131.5096905116973005
 30
0.0
 40
0.0437912840840216
 50
307.3054376037272277
 51
340.2638568637817116
  0
ARC
  5
66C8
  8
0
 10
2262.5747395477987993
 20
131.5018050599242088
 30
0.0
 40
0.0321429932343515
 50
347.5997248009314262
 51
54.5682732645233699
  0
ARC
  5
66C9
  8
0
 10
2262.4400922312001967
 20
131.3091123655561887
 30
0.0
 40
0.2672172236890447
 50
54.9968196524026212
 51
80.6135088508357143
  0
ARC
  5
66CA
  8
0
 10
2262.2793250602080661
 20
130.6102673432974939
 30
0.0
 40
0.9839382595327016
 50
78.0133196020057653
 51
86.770482916419283
  0
ARC
  5
66CB
  8
0
 10
2262.1564402148628687
 20
127.1164823887989002
 30
0.0
 40
4.479710953644588
 50
87.7187264748119446
 51
88.7607746915360138
  0
ARC
  5
66CC
  8
0
 10
2262.5814772417847962
 20
131.5493756332762985
 30
0.0
 40
0.0379309168878257
 50
355.4374389287626741
 51
57.210012786131621
  0
ARC
  5
66CD
  8
0
 10
2262.4397451739528151
 20
131.3318162012799917
 30
0.0
 40
0.297584264813787
 50
56.9545378487229428
 51
80.49592127950514
  0
ARC
  5
66CE
  8
0
 10
2262.3021288108761837
 20
130.7582413243987105
 30
0.0
 40
0.8869581329268449
 50
77.8451638290413825
 51
83.7117812690849235
  0
ARC
  5
66CF
  8
0
 10
2262.23100673138606
 20
129.2889360163659092
 30
0.0
 40
2.3569414495003591
 50
85.9059649544231689
 51
89.4575127033132134
  0
ARC
  5
66D0
  8
0
 10
2262.3071462680018158
 20
130.38224806930981
 30
0.0
 40
1.2609851772409819
 50
79.0988501405000761
 51
85.8100812475564823
  0
ARC
  5
66D1
  8
0
 10
2262.4615197088091918
 20
131.099477264368403
 30
0.0
 40
0.5277451339348707
 50
62.6447054966272034
 51
80.8306351315373632
  0
ARC
  5
66D2
  8
0
 10
2262.6591694073190411
 20
131.4834059081667874
 30
0.0
 40
0.0959321674545516
 50
31.2410346150529286
 51
62.1247849882993108
  0
ARC
  5
66D3
  8
0
 10
2262.7081621470438222
 20
131.5164248980742059
 30
0.0
 40
0.0370264186673595
 50
321.4090281429943161
 51
26.8708223344036305
  0
ARC
  5
66D4
  8
0
 10
2262.6034304467480069
 20
131.6152284660269061
 30
0.0
 40
0.1809078318048113
 50
285.0530676007144848
 51
317.6375366930619748
  0
ARC
  5
66D5
  8
0
 10
2262.4079654516108349
 20
132.1454618684817035
 30
0.0
 40
0.7454615160190442
 50
279.8563266363822777
 51
288.9797349190317277
  0
ARC
  5
66D6
  8
0
 10
2262.5122518893022061
 20
131.7684706520398947
 30
0.0
 40
0.3041073003712208
 50
285.0962737692584028
 51
304.5591258055980006
  0
ARC
  5
66D7
  8
0
 10
2262.6651544283358817
 20
131.5543394537683071
 30
0.0
 40
0.0412675755569879
 50
298.3627739865871717
 51
19.6355874370217087
  0
ARC
  5
66D8
  8
0
 10
2262.6544273100871578
 20
131.5932937094740112
 30
0.0
 40
0.0811496118734826
 50
291.9483850409321803
 51
330.3939745494329259
  0
ENDSEC
  0
EOF
