  0
SECTION
  2
HEADER
  9
$ACADVER
  1
AC1009
  9
$INSBASE
 10
2329.5431269289479133
 20
140.9848240659187013
 30
0.0
  9
$EXTMIN
 10
2328.6050820415480302
 20
140.9793269484904101
 30
0.0
  9
$EXTMAX
 10
2330.4811718163477963
 20
151.2485878463187987
 30
0.0
  9
$LIMMIN
 10
0.0
 20
0.0
  9
$LIMMAX
 10
11.6929133858000007
 20
8.2677165353999982
  9
$ORTHOMODE
 70
     1
  9
$REGENMODE
 70
     1
  9
$FILLMODE
 70
     1
  9
$QTEXTMODE
 70
     0
  9
$MIRRTEXT
 70
     0
  9
$DRAGMODE
 70
     2
  9
$LTSCALE
 40
0.6431102362
  9
$OSMODE
 70
  4095
  9
$ATTMODE
 70
     1
  9
$TEXTSIZE
 40
0.2
  9
$TRACEWID
 40
0.05
  9
$TEXTSTYLE
  7
STANDARD
  9
$CLAYER
  8
0
  9
$CELTYPE
  6
BYLAYER
  9
$CECOLOR
 62
   256
  9
$DIMSCALE
 40
1.0
  9
$DIMASZ
 40
0.1875
  9
$DIMEXO
 40
0.0625
  9
$DIMDLI
 40
0.4443307087
  9
$DIMRND
 40
0.0
  9
$DIMDLE
 40
0.0
  9
$DIMEXE
 40
0.125
  9
$DIMTP
 40
0.01
  9
$DIMTM
 40
0.01
  9
$DIMTXT
 40
2.0
  9
$DIMCEN
 40
0.1052362205
  9
$DIMTSZ
 40
0.0
  9
$DIMTOL
 70
     1
  9
$DIMLIM
 70
     0
  9
$DIMTIH
 70
     1
  9
$DIMTOH
 70
     1
  9
$DIMSE1
 70
     0
  9
$DIMSE2
 70
     0
  9
$DIMTAD
 70
     0
  9
$DIMZIN
 70
     0
  9
$DIMBLK
  1

  9
$DIMASO
 70
     1
  9
$DIMSHO
 70
     1
  9
$DIMPOST
  1
\X
  9
$DIMAPOST
  1

  9
$DIMALT
 70
     1
  9
$DIMALTD
 70
     2
  9
$DIMALTF
 40
25.3999999999999986
  9
$DIMLFAC
 40
1.0
  9
$DIMTOFL
 70
     0
  9
$DIMTVP
 40
0.0
  9
$DIMTIX
 70
     0
  9
$DIMSOXD
 70
     0
  9
$DIMSAH
 70
     0
  9
$DIMBLK1
  1

  9
$DIMBLK2
  1

  9
$DIMSTYLE
  2
STANDARD
  9
$DIMCLRD
 70
     0
  9
$DIMCLRE
 70
     0
  9
$DIMCLRT
 70
     0
  9
$DIMTFAC
 40
1.0
  9
$DIMGAP
 40
0.09
  9
$LUNITS
 70
     2
  9
$LUPREC
 70
     4
  9
$SKETCHINC
 40
0.1
  9
$FILLETRAD
 40
0.0
  9
$AUNITS
 70
     0
  9
$AUPREC
 70
     0
  9
$MENU
  1
.
  9
$ELEVATION
 40
0.0
  9
$PELEVATION
 40
0.0
  9
$THICKNESS
 40
0.0
  9
$LIMCHECK
 70
     0
  9
$BLIPMODE
 70
     0
  9
$CHAMFERA
 40
0.0
  9
$CHAMFERB
 40
0.0
  9
$SKPOLY
 70
     0
  9
$TDCREATE
 40
2458060.468368056230247
  9
$TDUPDATE
 40
2458726.8545833327807486
  9
$TDINDWG
 40
0.2943936343
  9
$TDUSRTIMER
 40
0.2943936343
  9
$USRTIMER
 70
     1
  9
$ANGBASE
 50
0.0
  9
$ANGDIR
 70
     0
  9
$PDMODE
 70
     0
  9
$PDSIZE
 40
0.3125
  9
$PLINEWID
 40
0.0
  9
$COORDS
 70
     1
  9
$SPLFRAME
 70
     0
  9
$SPLINETYPE
 70
     6
  9
$SPLINESEGS
 70
     8
  9
$ATTDIA
 70
     1
  9
$ATTREQ
 70
     1
  9
$HANDLING
 70
     1
  9
$HANDSEED
  5
7350
  9
$SURFTAB1
 70
     6
  9
$SURFTAB2
 70
     6
  9
$SURFTYPE
 70
     6
  9
$SURFU
 70
     6
  9
$SURFV
 70
     6
  9
$UCSNAME
  2

  9
$UCSORG
 10
0.0
 20
0.0
 30
0.0
  9
$UCSXDIR
 10
1.0
 20
0.0
 30
0.0
  9
$UCSYDIR
 10
0.0
 20
1.0
 30
0.0
  9
$PUCSNAME
  2

  9
$PUCSORG
 10
0.0
 20
0.0
 30
0.0
  9
$PUCSXDIR
 10
1.0
 20
0.0
 30
0.0
  9
$PUCSYDIR
 10
0.0
 20
1.0
 30
0.0
  9
$USERI1
 70
     0
  9
$USERI2
 70
     0
  9
$USERI3
 70
     0
  9
$USERI4
 70
     0
  9
$USERI5
 70
     0
  9
$USERR1
 40
0.0
  9
$USERR2
 40
0.0
  9
$USERR3
 40
0.0
  9
$USERR4
 40
0.0
  9
$USERR5
 40
0.0
  9
$WORLDVIEW
 70
     1
  9
$SHADEDGE
 70
     3
  9
$SHADEDIF
 70
    70
  9
$TILEMODE
 70
     1
  9
$MAXACTVP
 70
    64
  9
$PLIMCHECK
 70
     0
  9
$PEXTMIN
 10
1.0000000000000000E+20
 20
1.0000000000000000E+20
 30
1.0000000000000000E+20
  9
$PEXTMAX
 10
-1.0000000000000000E+20
 20
-1.0000000000000000E+20
 30
-1.0000000000000000E+20
  9
$PLIMMIN
 10
0.0
 20
0.0
  9
$PLIMMAX
 10
12.0
 20
9.0
  9
$UNITMODE
 70
     0
  9
$VISRETAIN
 70
     1
  9
$PLINEGEN
 70
     0
  9
$PSLTSCALE
 70
     1
  0
ENDSEC
  0
SECTION
  2
TABLES
  0
TABLE
  2
VPORT
 70
     1
  0
VPORT
  2
*ACTIVE
 70
     0
 10
0.0
 20
0.0
 11
1.0
 21
1.0
 12
0.0
 22
0.0
 13
0.0
 23
0.0
 14
1.0
 24
1.0
 15
0.0
 25
0.0
 16
0.0
 26
0.0
 36
29.8530885553989087
 17
2329.5430908203129547
 27
146.113953940553813
 37
0.0
 40
10.4393728544588402
 41
2.1433408577878099
 42
50.0
 43
0.0
 44
0.0
 50
0.0
 51
0.0
 71
     0
 72
   100
 73
     1
 74
     1
 75
     0
 76
     0
 77
     0
 78
     0
  0
ENDTAB
  0
TABLE
  2
LTYPE
 70
     2
  0
LTYPE
  2
CONTINUOUS
 70
     0
  3
Solid line
 72
    65
 73
     0
 40
0.0
  0
LTYPE
  2
PHANTOM2
 70
     0
  3
___ _ _ ___ _ _ ___ _ _ ___ _ _
 72
    65
 73
     6
 40
1.25
 49
0.625
 49
-0.125
 49
0.125
 49
-0.125
 49
0.125
 49
-0.125
  0
ENDTAB
  0
TABLE
  2
LAYER
 70
     2
  0
LAYER
  2
0
 70
     0
 62
   255
  6
CONTINUOUS
  0
LAYER
  2
DEFPOINTS
 70
     0
 62
     7
  6
CONTINUOUS
  0
ENDTAB
  0
TABLE
  2
STYLE
 70
     1
  0
STYLE
  2
STANDARD
 70
     0
 40
0.0
 41
0.8
 50
0.0
 71
     0
 42
0.2
  3
txt
  4

  0
ENDTAB
  0
TABLE
  2
VIEW
 70
     0
  0
ENDTAB
  0
TABLE
  2
UCS
 70
     0
  0
ENDTAB
  0
TABLE
  2
APPID
 70
     9
  0
APPID
  2
ACAD
 70
     0
  0
APPID
  2
ACAD_MLEADERVER
 70
     0
  0
APPID
  2
ACAD_EXEMPT_FROM_CAD_STANDARDS
 70
     0
  0
APPID
  2
ACAD_NAV_VCDISPLAY
 70
     0
  0
APPID
  2
ACAECLAYERSTANDARD
 70
     0
  0
APPID
  2
ACCMTRANSPARENCY
 70
     0
  0
APPID
  2
ACAD_DSTYLE_DIMJAG
 70
     0
  0
APPID
  2
ACAD_DSTYLE_DIMTALN
 70
     0
  0
APPID
  2
ACDBATTR
 70
     0
  0
ENDTAB
  0
TABLE
  2
DIMSTYLE
 70
     1
  0
DIMSTYLE
  2
STANDARD
 70
     0
  3

  4

  5

  6

  7

 40
1.0
 41
0.1875
 42
0.0625
 43
0.38
 44
0.125
 45
0.0
 46
0.0
 47
0.01
 48
0.01
140
0.15625
141
0.09
142
0.0
143
25.3999999999999986
144
1.0
145
0.0
146
1.0
147
0.09
 71
     1
 72
     0
 73
     1
 74
     1
 75
     0
 76
     0
 77
     0
 78
     4
170
     0
171
     2
172
     0
173
     0
174
     0
175
     0
176
     0
177
     0
178
     0
  0
ENDTAB
  0
ENDSEC
  0
SECTION
  2
BLOCKS
  0
BLOCK
  8
0
  2
$MODEL_SPACE
 70
     0
 10
0.0
 20
0.0
 30
0.0
  3
$MODEL_SPACE
  1

  0
ENDBLK
  5
21
  8
0
  0
BLOCK
 67
     1
  8
0
  2
$PAPER_SPACE
 70
     0
 10
0.0
 20
0.0
 30
0.0
  3
$PAPER_SPACE
  1

  0
ENDBLK
  5
1D
 67
     1
  8
0
  0
ENDSEC
  0
SECTION
  2
ENTITIES
  0
ATTDEF
  5
3930
  8
DEFPOINTS
 10
2329.5380726773478273
 20
140.9826602818237973
 30
0.0
 40
0.001
  1
K-23475-4
  3

  2
MODELNUMBER
 70
     0
1001
ACDBATTR
1070
     0
1070
     1
  0
ATTDEF
  5
3931
  8
DEFPOINTS
 10
2329.5380726773478273
 20
140.9809936151571037
 30
0.0
 40
0.001
  1
PARALLEL
  3

  2
TRADENAME
 70
     0
1001
ACDBATTR
1070
     0
1070
     1
  0
ATTDEF
  5
3932
  8
DEFPOINTS
 10
2329.5380726773478273
 20
140.9793269484904101
 30
0.0
 40
0.001
  1
BATHROOM SINK FAUCET
  3

  2
PRODUCT
 70
     0
1001
ACDBATTR
1070
     0
1070
     1
  0
LINE
  5
711E
  8
0
 10
2328.627772598248157
 20
140.9848240659187013
 30
0.0
 11
2330.4584812596481243
 21
140.9848240659187013
 31
0.0
  0
LINE
  5
711F
  8
0
 10
2328.6080875588481831
 20
141.0045091053189026
 30
0.0
 11
2328.6080875588481831
 21
149.8706508385187988
 31
0.0
  0
LINE
  5
7120
  8
0
 10
2328.8682706577478712
 20
149.941173415818696
 30
0.0
 11
2328.8686858115470386
 21
149.9887453267187141
 31
0.0
  0
LINE
  5
7121
  8
0
 10
2328.6395836987480834
 20
149.3509657991187112
 30
0.0
 11
2330.4466701591468336
 21
149.3509657991187112
 31
0.0
  0
LINE
  5
7122
  8
0
 10
2328.6395836218480326
 20
149.9021469015187051
 30
0.0
 11
2330.4466702360477939
 21
149.9021469015187051
 31
0.0
  0
LINE
  5
7123
  8
0
 10
2328.6346618108468647
 20
149.9887453267187141
 30
0.0
 11
2330.4515920470471428
 21
149.9887453267187141
 31
0.0
  0
LINE
  5
7124
  8
0
 10
2328.6348536002328729
 20
151.0714224920187121
 30
0.0
 11
2330.4514002576629537
 21
151.0714224920187121
 31
0.0
  0
ARC
  5
7125
  8
0
 10
2328.6296304260599754
 20
141.0063669331312894
 30
0.0
 40
0.021622827102815
 50
184.9289159316905113
 51
265.0710840683057086
  0
ARC
  5
7126
  8
0
 10
2328.648423097711202
 20
151.2052106170748118
 30
0.0
 40
0.0435587476450226
 50
95.2325236277125384
 51
174.2693789272827019
  0
ARC
  5
7127
  8
0
 10
2328.8264064265431443
 20
149.9440345060754964
 30
0.0
 40
0.0419618838046472
 50
273.4096356694620908
 51
356.0903643305201172
  0
ARC
  5
7128
  8
0
 10
2328.6435132981828247
 20
149.8667211621832962
 30
0.0
 40
0.0356430268574493
 50
96.3297799342671937
 51
173.6702200657211108
  0
ARC
  5
7129
  8
0
 10
2328.6422446273581954
 20
149.3851228741260968
 30
0.0
 40
0.034260565000094
 50
184.4546395565124044
 51
265.5455003352711856
  0
ARC
  5
712A
  8
0
 10
2328.6386469960789327
 20
151.1049858336758973
 30
0.0
 40
0.0337770299944051
 50
186.4239123636982072
 51
263.551680645679312
  0
ARC
  5
712B
  8
0
 10
2328.6369455208778163
 20
150.0205938292758105
 30
0.0
 40
0.0319302747660048
 50
183.7066828952902995
 51
265.8986021925032901
  0
LINE
  5
712C
  8
0
 10
2328.6050820415480302
 20
150.0185295784187076
 30
0.0
 11
2328.6050820415480302
 21
151.2095600247407958
 31
0.0
  0
LINE
  5
712D
  8
0
 10
2330.4781662990480982
 20
141.0045091053185899
 30
0.0
 11
2330.4781662990480982
 21
149.8706508385187988
 31
0.0
  0
LINE
  5
712E
  8
0
 10
2330.2179832001479554
 20
149.941173415818696
 30
0.0
 11
2330.2175680463469689
 21
149.9887453267187141
 31
0.0
  0
ARC
  5
712F
  8
0
 10
2330.4566234318349416
 20
141.0063669331312894
 30
0.0
 40
0.021622827102815
 50
274.9289159316941777
 51
355.0710840683095171
  0
ARC
  5
7130
  8
0
 10
2330.4378307601841698
 20
151.2052106170748118
 30
0.0
 40
0.0435587476450226
 50
5.730621072717307
 51
84.7674763722874758
  0
ARC
  5
7131
  8
0
 10
2330.2598474313517727
 20
149.9440345060754964
 30
0.0
 40
0.0419618838046472
 50
183.9096356694799113
 51
266.5903643305377955
  0
ARC
  5
7132
  8
0
 10
2330.4427405597120924
 20
149.8667211621832962
 30
0.0
 40
0.0356430268574493
 50
6.3297799342788981
 51
83.6702200657327921
  0
ARC
  5
7133
  8
0
 10
2330.4440092305380858
 20
149.3851228741260968
 30
0.0
 40
0.034260565000094
 50
274.4544996647288144
 51
355.5453604434874819
  0
ARC
  5
7134
  8
0
 10
2330.4476068618159843
 20
151.1049858336758973
 30
0.0
 40
0.0337770299944051
 50
276.448319354320688
 51
353.5760876363016791
  0
ARC
  5
7135
  8
0
 10
2330.4493083370171007
 20
150.0205938292758105
 30
0.0
 40
0.0319302747660048
 50
274.1013978074965962
 51
356.2933171047096721
  0
LINE
  5
7136
  8
0
 10
2330.4811718163477963
 20
150.0185295784187076
 30
0.0
 11
2330.4811718163477963
 21
151.2095600247407958
 31
0.0
  0
LINE
  5
7137
  8
0
 10
2328.6444506325419752
 20
151.2485878463187987
 30
0.0
 11
2330.4418032253529418
 21
151.2485878463187987
 31
0.0
  0
CIRCLE
  5
7138
  8
0
 10
2329.5431269289479133
 20
150.5517374527186973
 30
0.0
 40
0.1318897636999998
  0
LINE
  5
7139
  8
0
 10
2329.4112048486981621
 20
149.0557942110050078
 30
0.0
 11
2329.4397524289979629
 21
149.0687583804050007
 31
0.0
  0
LINE
  5
713A
  8
0
 10
2329.4427057698981116
 20
149.0700995662049877
 30
0.0
 11
2329.4712573182978304
 21
149.0830655375050071
 31
0.0
  0
LINE
  5
713B
  8
0
 10
2329.4742113341981167
 20
149.0844070299050088
 30
0.0
 11
2329.5057342989980498
 21
149.0987223956049945
 31
0.0
  0
LINE
  5
713C
  8
0
 10
2329.5086923418980405
 20
149.1000657168050054
 30
0.0
 11
2329.5264886335980918
 21
149.1081474574050105
 31
0.0
  0
LINE
  5
713D
  8
0
 10
2329.533307731197965
 20
149.107115216505008
 30
0.0
 11
2329.5155114394979137
 21
149.0990334759050029
 31
0.0
  0
LINE
  5
713E
  8
0
 10
2329.512553396597923
 20
149.097690154805008
 30
0.0
 11
2329.4810304318980343
 21
149.0833747891049939
 31
0.0
  0
LINE
  5
713F
  8
0
 10
2329.4780764159968385
 20
149.0820332967049922
 30
0.0
 11
2329.4495248675980292
 21
149.0690673254050012
 31
0.0
  0
LINE
  5
7140
  8
0
 10
2329.446571526696971
 20
149.0677261395049982
 30
0.0
 11
2329.4180239462971258
 21
149.0547619702049928
 31
0.0
  0
LINE
  5
7141
  8
0
 10
2329.4692190769969784
 20
149.0490816003049872
 30
0.0
 11
2329.4840030340978956
 21
149.0635477516050003
 31
0.0
  0
LINE
  5
7142
  8
0
 10
2329.4992144644970722
 20
149.0624790973049869
 30
0.0
 11
2329.4844305072979296
 21
149.0480129459049863
 31
0.0
  0
LINE
  5
7143
  8
0
 10
2329.2925274055978662
 20
149.1127925413049979
 30
0.0
 11
2329.2925274055978662
 21
149.0983278625049877
 31
0.0
  0
LINE
  5
7144
  8
0
 10
2329.3182684537978275
 20
149.095861640601413
 30
0.0
 11
2329.3182684537978275
 21
149.080916780805012
 31
0.0
  0
LINE
  5
7145
  8
0
 10
2329.3427875779971146
 20
149.114857023004987
 30
0.0
 11
2329.3427875779971146
 21
149.1257907548543926
 31
0.0
  0
LINE
  5
7146
  8
0
 10
2329.3517777752981601
 20
149.1294337806050123
 30
0.0
 11
2329.3517777752981601
 21
149.1416603101318969
 31
0.0
  0
LINE
  5
7147
  8
0
 10
2329.3557091664979453
 20
149.0842005102500991
 30
0.0
 11
2329.3557091664979453
 21
149.0674981379050053
 31
0.0
  0
LINE
  5
7148
  8
0
 10
2329.3716513212980317
 20
149.1410358104049863
 30
0.0
 11
2329.3716513212980317
 21
149.1559715658378025
 31
0.0
  0
LINE
  5
7149
  8
0
 10
2329.3728296498979944
 20
149.1127925413049979
 30
0.0
 11
2329.3728296498979944
 21
149.0891759815050079
 31
0.0
  0
LINE
  5
714A
  8
0
 10
2329.4057973565982138
 20
149.114857023004987
 30
0.0
 11
2329.4057973565982138
 21
149.1334830963579918
 31
0.0
  0
LINE
  5
714B
  8
0
 10
2329.4072352283978944
 20
149.1524810866050075
 30
0.0
 11
2329.4072352283978944
 21
149.1712293569383121
 31
0.0
  0
LINE
  5
714C
  8
0
 10
2329.4112048486981621
 20
149.0742388593712917
 30
0.0
 11
2329.4112048486981621
 21
149.0557942110050078
 31
0.0
  0
LINE
  5
714D
  8
0
 10
2329.4262193902968647
 20
149.1327755693050108
 30
0.0
 11
2329.4262193902968647
 21
149.154713061454089
 31
0.0
  0
LINE
  5
714E
  8
0
 10
2329.4427057698981116
 20
149.089269904005107
 30
0.0
 11
2329.4427057698981116
 21
149.0700995662049877
 31
0.0
  0
LINE
  5
714F
  8
0
 10
2329.446571526696971
 20
149.1599234247049992
 30
0.0
 11
2329.446571526696971
 21
149.17647251860501
 31
0.0
  0
LINE
  5
7150
  8
0
 10
2329.4692184978162004
 20
149.0649173607781108
 30
0.0
 11
2329.4692190769969784
 21
149.0490816003049872
 31
0.0
  0
LINE
  5
7151
  8
0
 10
2329.4742113341981167
 20
149.1127925413049979
 30
0.0
 11
2329.4742113341981167
 21
149.0844070299050088
 31
0.0
  0
LINE
  5
7152
  8
0
 10
2329.4747513178967893
 20
149.114857023004987
 30
0.0
 11
2329.4747513178967893
 21
149.1429973142190022
 31
0.0
  0
LINE
  5
7153
  8
0
 10
2329.4780764159968385
 20
149.1456162676049928
 30
0.0
 11
2329.4780764159968385
 21
149.1619516462050115
 31
0.0
  0
LINE
  5
7154
  8
0
 10
2329.4992144644970722
 20
149.165170467004998
 30
0.0
 11
2329.4992144644970722
 21
149.180455118586508
 31
0.0
  0
LINE
  5
7155
  8
0
 10
2329.5086923418980405
 20
149.1127925413049979
 30
0.0
 11
2329.5086923418980405
 21
149.1000657168050054
 31
0.0
  0
LINE
  5
7156
  8
0
 10
2329.512553396597923
 20
149.1299594095050054
 30
0.0
 11
2329.512553396597923
 21
149.1472972720324037
 31
0.0
  0
LINE
  5
7157
  8
0
 10
2329.5162599870968734
 20
149.114857023004987
 30
0.0
 11
2329.5162599870968734
 21
149.1241471907277116
 31
0.0
  0
LINE
  5
7158
  8
0
 10
2329.533307731197965
 20
149.1205343477049894
 30
0.0
 11
2329.5333106551970559
 21
149.1300563358553006
 31
0.0
  0
LINE
  5
7159
  8
0
 10
2329.5395993698980419
 20
149.0462208859050008
 30
0.0
 11
2329.5395993698980419
 21
149.0611906192050071
 31
0.0
  0
LINE
  5
715A
  8
0
 10
2329.5395993698980419
 20
149.0627392872050052
 30
0.0
 11
2329.5395993698980419
 21
149.0778923802776035
 31
0.0
  0
LINE
  5
715B
  8
0
 10
2329.5395993698980419
 20
149.1499384629049985
 30
0.0
 11
2329.5395993698980419
 21
149.1649102770049922
 31
0.0
  0
LINE
  5
715C
  8
0
 10
2329.5395993698980419
 20
149.1664589450049903
 30
0.0
 11
2329.5395993698980419
 21
149.1814286783049965
 31
0.0
  0
LINE
  5
715D
  8
0
 10
2329.4840030340978956
 20
149.1641018126049971
 30
0.0
 11
2329.4692190769969784
 21
149.1785679640049977
 31
0.0
  0
LINE
  5
715E
  8
0
 10
2329.4844305072979296
 20
149.1796366183050111
 30
0.0
 11
2329.4992144644970722
 21
149.165170467004998
 31
0.0
  0
LINE
  5
715F
  8
0
 10
2329.4072352283978944
 20
149.0751684777050059
 30
0.0
 11
2329.3668447063969325
 21
149.0645785199050124
 31
0.0
  0
LINE
  5
7160
  8
0
 10
2329.3557091664979453
 20
149.0674981379050053
 30
0.0
 11
2329.3960996885971326
 21
149.0780880957049988
 31
0.0
  0
LINE
  5
7161
  8
0
 10
2329.4262193902968647
 20
149.0948739949049866
 30
0.0
 11
2329.3767666577978162
 21
149.0873880879049977
 31
0.0
  0
LINE
  5
7162
  8
0
 10
2329.3716513212980317
 20
149.0866137538050111
 30
0.0
 11
2329.322205461698104
 21
149.0791288872050018
 31
0.0
  0
LINE
  5
7163
  8
0
 10
2329.3182684537978275
 20
149.080916780805012
 30
0.0
 11
2329.3677143133968457
 21
149.0884016475050089
 31
0.0
  0
LINE
  5
7164
  8
0
 10
2329.3728296498979944
 20
149.0891759815050079
 30
0.0
 11
2329.4222823823979525
 21
149.0966618885049968
 31
0.0
  0
LINE
  5
7165
  8
0
 10
2329.3517777752981601
 20
149.0982157836050135
 30
0.0
 11
2329.2966032960980556
 21
149.0943395901049939
 31
0.0
  0
LINE
  5
7166
  8
0
 10
2329.2925274055978662
 20
149.0983278625049877
 30
0.0
 11
2329.3477018847979707
 21
149.1022040561049948
 31
0.0
  0
LINE
  5
7167
  8
0
 10
2329.5162599870968734
 20
149.1127925413049979
 30
0.0
 11
2329.4806674035980905
 21
149.1127925413049979
 31
0.0
  0
LINE
  5
7168
  8
0
 10
2329.4747513178967893
 20
149.1127925413049979
 30
0.0
 11
2329.411705388397877
 21
149.1127925413049979
 31
0.0
  0
LINE
  5
7169
  8
0
 10
2329.4057973565982138
 20
149.1127925413049979
 30
0.0
 11
2329.3486942597978668
 21
149.1127925413049979
 31
0.0
  0
LINE
  5
716A
  8
0
 10
2329.3427875779971146
 20
149.1127925413049979
 30
0.0
 11
2329.2856924171969695
 21
149.1127925413049979
 31
0.0
  0
LINE
  5
716B
  8
0
 10
2329.2856924171969695
 20
149.114857023004987
 30
0.0
 11
2329.3427875779971146
 21
149.114857023004987
 31
0.0
  0
LINE
  5
716C
  8
0
 10
2329.3486942597978668
 20
149.114857023004987
 30
0.0
 11
2329.4057973565982138
 21
149.114857023004987
 31
0.0
  0
LINE
  5
716D
  8
0
 10
2329.411705388397877
 20
149.114857023004987
 30
0.0
 11
2329.4747513178967893
 21
149.114857023004987
 31
0.0
  0
LINE
  5
716E
  8
0
 10
2329.4806674035980905
 20
149.114857023004987
 30
0.0
 11
2329.5162599870968734
 21
149.114857023004987
 31
0.0
  0
LINE
  5
716F
  8
0
 10
2329.3477018847979707
 20
149.1254455082049901
 30
0.0
 11
2329.2925274055978662
 21
149.1293217017050097
 31
0.0
  0
LINE
  5
7170
  8
0
 10
2329.2966032960980556
 20
149.133309974204991
 30
0.0
 11
2329.3517777752981601
 21
149.1294337806050123
 31
0.0
  0
LINE
  5
7171
  8
0
 10
2329.4222823823979525
 20
149.1309876757050006
 30
0.0
 11
2329.3728296498979944
 21
149.1384735827049894
 31
0.0
  0
LINE
  5
7172
  8
0
 10
2329.3677143133968457
 20
149.1392479168050045
 30
0.0
 11
2329.3182684537978275
 21
149.1467327834050138
 31
0.0
  0
LINE
  5
7173
  8
0
 10
2329.322205461698104
 20
149.1485206770049956
 30
0.0
 11
2329.3716513212980317
 21
149.1410358104049863
 31
0.0
  0
LINE
  5
7174
  8
0
 10
2329.3767666577978162
 20
149.1402614764049872
 30
0.0
 11
2329.4262193902968647
 21
149.1327755693050108
 31
0.0
  0
LINE
  5
7175
  8
0
 10
2329.3960996885971326
 20
149.1495614685049986
 30
0.0
 11
2329.3557091664979453
 21
149.1601514263049921
 31
0.0
  0
LINE
  5
7176
  8
0
 10
2329.3668447063969325
 20
149.163071044405001
 30
0.0
 11
2329.4072352283978944
 21
149.1524810866050075
 31
0.0
  0
LINE
  5
7177
  8
0
 10
2329.5264886335980918
 20
149.1195021069050028
 30
0.0
 11
2329.5086923418980405
 21
149.127583847404992
 31
0.0
  0
LINE
  5
7178
  8
0
 10
2329.5057342989980498
 20
149.1289271686050029
 30
0.0
 11
2329.4742113341981167
 21
149.1432425343049886
 31
0.0
  0
LINE
  5
7179
  8
0
 10
2329.4712573182978304
 20
149.1445840267049903
 30
0.0
 11
2329.4427057698981116
 21
149.1575499980050097
 31
0.0
  0
LINE
  5
717A
  8
0
 10
2329.4397524289979629
 20
149.1588911839050127
 30
0.0
 11
2329.4112048486981621
 21
149.1718553532049896
 31
0.0
  0
LINE
  5
717B
  8
0
 10
2329.4180239462971258
 20
149.1728875941049921
 30
0.0
 11
2329.446571526696971
 21
149.1599234247049992
 31
0.0
  0
LINE
  5
717C
  8
0
 10
2329.4495248675980292
 20
149.1585822389050122
 30
0.0
 11
2329.4780764159968385
 21
149.1456162676049928
 31
0.0
  0
LINE
  5
717D
  8
0
 10
2329.4810304318980343
 20
149.1442747752049911
 30
0.0
 11
2329.512553396597923
 21
149.1299594095050054
 31
0.0
  0
LINE
  5
717E
  8
0
 10
2329.5155114394979137
 20
149.1286160883049945
 30
0.0
 11
2329.533307731197965
 21
149.1205343477049894
 31
0.0
  0
ARC
  5
717F
  8
0
 10
2329.5429617435979708
 20
149.9998194128050102
 30
0.0
 40
0.9536044546999999
 50
266.4810335414002225
 51
269.7979768028934018
  0
ARC
  5
7180
  8
0
 10
2329.5433888649981782
 20
149.8135036113050091
 30
0.0
 40
0.7523225361
 50
266.633806344293987
 51
269.7113963928113094
  0
ARC
  5
7181
  8
0
 10
2329.7753899974441083
 20
149.3670495399296954
 30
0.0
 40
0.6112582002824382
 50
191.8512538341078937
 51
196.8311070892627015
  0
ARC
  5
7182
  8
0
 10
2329.4697664214381803
 20
149.4654977949371073
 30
0.0
 40
0.4221637121261841
 50
242.9850943806438863
 51
265.6840856906130171
  0
ARC
  5
7183
  8
0
 10
2329.5588334700269115
 20
150.6331460754092859
 30
0.0
 40
1.5932039380608409
 50
265.6501984521336794
 51
269.4351425634804968
  0
ARC
  5
7184
  8
0
 10
2329.352580094905079
 20
149.182753485084902
 30
0.0
 40
0.1194825737122828
 50
219.8700032251063874
 51
231.3833709678521018
  0
ARC
  5
7185
  8
0
 10
2329.3964589429001535
 20
149.2213380372654115
 30
0.0
 40
0.1779003739812901
 50
202.5635600671122916
 51
220.3483531727997047
  0
ARC
  5
7186
  8
0
 10
2329.3893586167641843
 20
149.2181450412861921
 30
0.0
 40
0.1701185155517916
 50
188.0678038855459135
 51
202.488071974927891
  0
ARC
  5
7187
  8
0
 10
2329.273064268852977
 20
149.1866850500948942
 30
0.0
 40
0.0526892266126192
 50
105.1387050065101931
 51
171.7233949778656097
  0
ARC
  5
7188
  8
0
 10
2329.4520840620930358
 20
148.7732579497831011
 30
0.0
 40
0.5027198880726828
 50
95.759282566052093
 51
112.5490281829194004
  0
ARC
  5
7189
  8
0
 10
2329.5664839095611569
 20
147.7317574049237976
 30
0.0
 40
1.5504711060423739
 50
90.8631615436176219
 51
96.1032720304308157
  0
ARC
  5
718A
  8
0
 10
2329.2892084815821363
 20
149.1159188986374886
 30
0.0
 40
0.0274295167933807
 50
191.9292605610199018
 51
222.6141788863774025
  0
ARC
  5
718B
  8
0
 10
2329.2868775692891177
 20
149.1131756581561945
 30
0.0
 40
0.0246803506421062
 50
134.7998582280656024
 51
186.81004282733781
  0
ARC
  5
718C
  8
0
 10
2329.3746957477628712
 20
149.0036144059548917
 30
0.0
 40
0.1649746038620919
 50
101.621457895917203
 51
129.6225335626967023
  0
ARC
  5
718D
  8
0
 10
2329.510941227371859
 20
148.4912886916806087
 30
0.0
 40
0.6949021128202232
 50
94.0470008763491165
 51
104.1161669664948022
  0
ARC
  5
718E
  8
0
 10
2329.5450352956499955
 20
148.0970859771917105
 30
0.0
 40
1.090545618599968
 50
90.100263035113116
 51
94.3721268206046204
  0
ARC
  5
718F
  8
0
 10
2329.5290958145078548
 20
149.8222709321354102
 30
0.0
 40
0.7755043304529511
 50
261.7654742026181793
 51
265.5717821266450187
  0
ARC
  5
7190
  8
0
 10
2329.5326154600370501
 20
149.668787087358595
 30
0.0
 40
0.607188456329003
 50
261.8532621324433194
 51
265.4078985396650978
  0
ARC
  5
7191
  8
0
 10
2329.5028457239259296
 20
149.4745004537408875
 30
0.0
 40
0.4106183068737481
 50
256.5353622457546976
 51
261.1612378620582717
  0
ARC
  5
7192
  8
0
 10
2329.4909385545788609
 20
149.5748437736720007
 30
0.0
 40
0.5251379936345132
 50
256.3313143045347147
 51
261.2667860991396083
  0
ARC
  5
7193
  8
0
 10
2329.4471177200020975
 20
149.2637057109791101
 30
0.0
 40
0.1925012691625402
 50
246.9190881487255069
 51
254.6314436096814973
  0
ARC
  5
7194
  8
0
 10
2329.4238655005551664
 20
149.317901263593086
 30
0.0
 40
0.2595130270845076
 50
246.9375718976756104
 51
254.773727678108088
  0
ARC
  5
7195
  8
0
 10
2329.3568014638049135
 20
149.1673069802322118
 30
0.0
 40
0.094594182787892
 50
230.477335625066388
 51
245.9614795098289903
  0
ARC
  5
7196
  8
0
 10
2329.3097249508100504
 20
149.1153014175376939
 30
0.0
 40
0.0241631358017502
 50
185.9598045864067046
 51
224.6244338624451871
  0
ARC
  5
7197
  8
0
 10
2329.3135601466387925
 20
149.1105359032208071
 30
0.0
 40
0.0282007521245663
 50
138.2297502189038028
 51
171.1860110262620935
  0
ARC
  5
7198
  8
0
 10
2329.3572649166808333
 20
149.0595945448363864
 30
0.0
 40
0.0954662073134718
 50
114.1096669564120987
 51
129.4515175630698138
  0
ARC
  5
7199
  8
0
 10
2329.4228092605221718
 20
148.912790920945298
 30
0.0
 40
0.2562999068082793
 50
105.1770749249289025
 51
113.1116254993034005
  0
ARC
  5
719A
  8
0
 10
2329.4913537986708434
 20
148.6507088312370115
 30
0.0
 40
0.5272736969934987
 50
98.7432154017766379
 51
103.6586839459602061
  0
ARC
  5
719B
  8
0
 10
2329.5305480504989646
 20
148.3922901515547039
 30
0.0
 40
0.7886659884528712
 50
94.4599900667654424
 51
98.2027536039748838
  0
ARC
  5
719C
  8
0
 10
2329.5407196759529143
 20
148.296852568092504
 30
0.0
 40
0.8845768196248007
 50
90.072564444917532
 51
93.6484251916671582
  0
ARC
  5
719D
  8
0
 10
2329.5414107862648052
 20
148.4761450564500933
 30
0.0
 40
0.6903162651720169
 50
90.1503464964164465
 51
93.5044505981424123
  0
ARC
  5
719E
  8
0
 10
2329.5324513270538773
 20
148.5603328393698064
 30
0.0
 40
0.6057096747881161
 50
94.5877609125631125
 51
98.1510784153164337
  0
ARC
  5
719F
  8
0
 10
2329.503353441505169
 20
148.7505735561541087
 30
0.0
 40
0.4132413022969317
 50
98.853451113801114
 51
103.4499487780633018
  0
ARC
  5
71A0
  8
0
 10
2329.4488498085811443
 20
148.9589768773942922
 30
0.0
 40
0.1977499975421058
 50
105.4710566902410989
 51
112.9784115513543981
  0
ARC
  5
71A1
  8
0
 10
2329.3974031109910356
 20
149.0731919847075915
 30
0.0
 40
0.072421066464076
 50
114.2015043056440931
 51
129.0501875532077918
  0
ARC
  5
71A2
  8
0
 10
2329.3612452060187934
 20
149.11272515698289
 30
0.0
 40
0.0185803359742307
 50
136.794771240909995
 51
173.4115006443304026
  0
ARC
  5
71A3
  8
0
 10
2329.3610383384348097
 20
149.1148283963526922
 30
0.0
 40
0.0183639582415651
 50
186.3649767861303985
 51
223.428751320371191
  0
ARC
  5
71A4
  8
0
 10
2329.3988405226200484
 20
149.1567916991207881
 30
0.0
 40
0.0751401361727157
 50
231.2199064686629129
 51
245.5284017991560859
  0
ARC
  5
71A5
  8
0
 10
2329.54115632173216
 20
149.7291340756582088
 30
0.0
 40
0.666396607266784
 50
262.0966255496359736
 51
269.866135497697428
  0
ARC
  5
71A6
  8
0
 10
2329.5378479834548671
 20
149.5109752706916026
 30
0.0
 40
0.4330864317013563
 50
262.0671153037371255
 51
270.2317027679220018
  0
ARC
  5
71A7
  8
0
 10
2329.5004463470768314
 20
149.2861861152115921
 30
0.0
 40
0.205207135570254
 50
248.7943054554623075
 51
261.8224106169582228
  0
ARC
  5
71A8
  8
0
 10
2329.4827825801698964
 20
149.357345584971398
 30
0.0
 40
0.290028319339179
 50
248.5593994972533949
 51
262.0573165995554064
  0
ARC
  5
71A9
  8
0
 10
2329.4287589927780573
 20
149.1197697014081882
 30
0.0
 40
0.0239982811716214
 50
196.9020139921711916
 51
254.3429871380475049
  0
ARC
  5
71AA
  8
0
 10
2329.3841942595231558
 20
149.1249313484944992
 30
0.0
 40
0.0375180039514201
 50
198.877519522923393
 51
252.3674816492955983
  0
ARC
  5
71AB
  8
0
 10
2329.3845695877021171
 20
149.1023346419281097
 30
0.0
 40
0.0379980154763608
 50
107.9966789206949045
 51
160.7583196645248051
  0
ARC
  5
71AC
  8
0
 10
2329.4852979856868842
 20
148.8607101205383003
 30
0.0
 40
0.2998799921639272
 50
98.1653809510573439
 51
111.2179027895378027
  0
ARC
  5
71AD
  8
0
 10
2329.5410224982970249
 20
148.5004203464478962
 30
0.0
 40
0.664491454502077
 50
90.1227093482402069
 51
97.9145294778440842
  0
ARC
  5
71AE
  8
0
 10
2329.5419786970091991
 20
148.6760448268190942
 30
0.0
 40
0.4738996091158672
 50
90.2876684675476753
 51
97.7495702389302465
  0
ARC
  5
71AF
  8
0
 10
2329.5004287659949114
 20
148.9415305039285897
 30
0.0
 40
0.2051382618446802
 50
98.1753928575111701
 51
111.2078910671983039
  0
ARC
  5
71B0
  8
0
 10
2329.4303083083977981
 20
149.1062965100792894
 30
0.0
 40
0.0259628416803865
 50
108.0068840821068932
 51
160.7481126893407009
  0
ARC
  5
71B1
  8
0
 10
2329.4383098568519017
 20
149.1037741881872876
 30
0.0
 40
0.0288205997393536
 50
107.5369138160964013
 51
157.3844665478682998
  0
ARC
  5
71B2
  8
0
 10
2329.5011938958778046
 20
148.9539724483909993
 30
0.0
 40
0.1911837442271765
 50
98.1134818768851602
 51
111.9837027224075996
  0
ARC
  5
71B3
  8
0
 10
2329.4425157746509285
 20
149.1275201141781963
 30
0.0
 40
0.0341493968297871
 50
205.5481148317342956
 51
256.9480936349174272
  0
ARC
  5
71B4
  8
0
 10
2329.5029042901328467
 20
149.2830351350091007
 30
0.0
 40
0.2006898349632272
 50
250.1637835513143955
 51
261.7801607395031169
  0
ARC
  5
71B5
  8
0
 10
2329.5869461738529935
 20
150.2070020964688126
 30
0.0
 40
1.128608200505216
 50
264.6150770445524927
 51
267.7748797109376824
  0
ARC
  5
71B6
  8
0
 10
2329.5438012401268679
 20
149.3496636630761998
 30
0.0
 40
0.2539036758215935
 50
262.9307042721476932
 51
269.847835089682178
  0
ARC
  5
71B7
  8
0
 10
2329.5630013302597945
 20
149.6376376067510137
 30
0.0
 40
0.5406937205932991
 50
264.9611382016094012
 51
267.8934915505017784
  0
ARC
  5
71B8
  8
0
 10
2329.5433679931220468
 20
149.2050014643243117
 30
0.0
 40
0.0984018616802027
 50
264.1320273017055911
 51
269.8596370705291179
  0
ARC
  5
71B9
  8
0
 10
2329.5227983561471774
 20
149.2049135831265971
 30
0.0
 40
0.1075534767514532
 50
250.7676533602995903
 51
260.8710772440807091
  0
ARC
  5
71BA
  8
0
 10
2329.4942705278349422
 20
149.1257545759360141
 30
0.0
 40
0.0234310456096205
 50
213.5867664138646944
 51
252.8729111738198014
  0
ARC
  5
71BB
  8
0
 10
2329.4970144508502017
 20
149.0982704682691917
 30
0.0
 40
0.0277625806952191
 50
107.589027611651801
 51
143.3130275804819007
  0
ARC
  5
71BC
  8
0
 10
2329.523203981280858
 20
149.0206161150831861
 30
0.0
 40
0.1097108659800879
 50
99.1624282611218746
 51
108.3718788078834052
  0
ARC
  5
71BD
  8
0
 10
2329.523860258204877
 20
149.1942368886026031
 30
0.0
 40
0.0953848797389638
 50
250.4029276521494012
 51
260.8500958334054189
  0
ARC
  5
71BE
  8
0
 10
2329.4977541888802079
 20
149.1238730095031997
 30
0.0
 40
0.0203650437464736
 50
212.962672176528713
 51
253.1994075341592065
  0
ARC
  5
71BF
  8
0
 10
2329.5014161657859404
 20
149.098907168544514
 30
0.0
 40
0.0261707659361789
 50
108.2066776371345043
 51
142.4500308818059011
  0
ARC
  5
71C0
  8
0
 10
2329.5249914953219559
 20
149.0283856915247895
 30
0.0
 40
0.1005282872249096
 50
99.3308407896937382
 51
108.412382343654798
  0
ARC
  5
71C1
  8
0
 10
2329.5531331593269897
 20
148.7301012520046015
 30
0.0
 40
0.4019120093536649
 50
91.4266157763046579
 51
95.7948448614787651
  0
ARC
  5
71C2
  8
0
 10
2329.5468103461171268
 20
148.6241215348834999
 30
0.0
 40
0.5242960905173277
 50
90.4025320767419345
 51
97.2075111677719832
  0
ARC
  5
71C3
  8
0
 10
2329.5459400073791585
 20
148.8632718099530052
 30
0.0
 40
0.2670832900005178
 50
90.6034840359406672
 51
96.541862990343887
  0
ARC
  5
71C4
  8
0
 10
2329.5433788965278836
 20
149.0224441127863884
 30
0.0
 40
0.0986058951456772
 50
90.1464080275937079
 51
95.8621570865366266
  0
ARC
  5
71C5
  8
0
 10
2329.5285218948201873
 20
149.1014403196654996
 30
0.0
 40
0.01817587162926
 50
96.4228908485790015
 51
132.4250801577138077
  0
ARC
  5
71C6
  8
0
 10
2329.5281507332301771
 20
149.1253919330999054
 30
0.0
 40
0.0173243908169901
 50
226.6574459265090979
 51
264.4945830671999829
  0
ARC
  5
71C7
  8
0
 10
2329.2856739474232199
 20
149.2692029207844939
 30
0.0
 40
0.1278570849961929
 50
230.8755125624473123
 51
245.2651572410136964
  0
ARC
  5
71C8
  8
0
 10
2329.2315354939310055
 20
149.2048466478588011
 30
0.0
 40
0.0437912840840216
 50
199.7361431362182884
 51
232.6945623962722891
  0
ARC
  5
71C9
  8
0
 10
2329.221709747343084
 20
149.1969611960857094
 30
0.0
 40
0.0321429932343515
 50
125.4317267354766017
 51
192.4002751990678064
  0
ARC
  5
71CA
  8
0
 10
2329.3563570639421414
 20
149.0042685017176893
 30
0.0
 40
0.2672172236890447
 50
99.3864911491644136
 51
125.0031803475973931
  0
ARC
  5
71CB
  8
0
 10
2329.5171242349338172
 20
148.3054234794589945
 30
0.0
 40
0.9839382595327016
 50
93.2295170835807454
 51
101.9866803979942063
  0
ARC
  5
71CC
  8
0
 10
2329.6400090802790146
 20
144.8116385249603866
 30
0.0
 40
4.479710953644588
 50
91.2392253084640146
 51
92.281273525188027
  0
ARC
  5
71CD
  8
0
 10
2329.2149720533579966
 20
149.2445317694377991
 30
0.0
 40
0.0379309168878257
 50
122.7899872138687982
 51
184.562561071236388
  0
ARC
  5
71CE
  8
0
 10
2329.3584900232299333
 20
149.0239037549702061
 30
0.0
 40
0.3011303794191295
 50
111.8664303289802007
 51
123.0119177139462039
  0
LINE
  5
71CF
  8
0
 10
2329.6750490091981192
 20
149.0557942110050078
 30
0.0
 11
2329.6465014288969542
 21
149.0687583804050007
 31
0.0
  0
LINE
  5
71D0
  8
0
 10
2329.6435480879981696
 20
149.0700995662049877
 30
0.0
 11
2329.6149965395979962
 21
149.0830655375050071
 31
0.0
  0
LINE
  5
71D1
  8
0
 10
2329.6120425236981646
 20
149.0844070299050088
 30
0.0
 11
2329.5805195588968672
 21
149.0987223956049945
 31
0.0
  0
LINE
  5
71D2
  8
0
 10
2329.577561515997786
 20
149.1000657168050054
 30
0.0
 11
2329.5597652242981894
 21
149.1081474574050105
 31
0.0
  0
LINE
  5
71D3
  8
0
 10
2329.552946126696952
 20
149.107115216505008
 30
0.0
 11
2329.5707424183970033
 21
149.0990334759050029
 31
0.0
  0
LINE
  5
71D4
  8
0
 10
2329.573700461296994
 20
149.097690154805008
 30
0.0
 11
2329.6052234259977922
 21
149.0833747891049939
 31
0.0
  0
LINE
  5
71D5
  8
0
 10
2329.608177441897169
 20
149.0820332967049922
 30
0.0
 11
2329.6367289902977973
 21
149.0690673254050012
 31
0.0
  0
LINE
  5
71D6
  8
0
 10
2329.639682331197946
 20
149.0677261395049982
 30
0.0
 11
2329.6682299115977912
 21
149.0547619702049928
 31
0.0
  0
LINE
  5
71D7
  8
0
 10
2329.6170347808970291
 20
149.0490816003049872
 30
0.0
 11
2329.6022508237979309
 21
149.0635477516050003
 31
0.0
  0
LINE
  5
71D8
  8
0
 10
2329.5870393933969353
 20
149.0624790973049869
 30
0.0
 11
2329.6018233505978969
 21
149.0480129459049863
 31
0.0
  0
LINE
  5
71D9
  8
0
 10
2329.7937264522970509
 20
149.1127925413049979
 30
0.0
 11
2329.7937264522970509
 21
149.0983278625049877
 31
0.0
  0
LINE
  5
71DA
  8
0
 10
2329.767985404097999
 20
149.095861640601413
 30
0.0
 11
2329.767985404097999
 21
149.080916780805012
 31
0.0
  0
LINE
  5
71DB
  8
0
 10
2329.743466279896893
 20
149.114857023004987
 30
0.0
 11
2329.743466279896893
 21
149.1257907548543926
 31
0.0
  0
LINE
  5
71DC
  8
0
 10
2329.7344760825972116
 20
149.1294337806050123
 30
0.0
 11
2329.7344760825972116
 21
149.1416603101318969
 31
0.0
  0
LINE
  5
71DD
  8
0
 10
2329.7305446913969718
 20
149.0842005102500991
 30
0.0
 11
2329.7305446913969718
 21
149.0674981379050053
 31
0.0
  0
LINE
  5
71DE
  8
0
 10
2329.7146025365968853
 20
149.1410358104049863
 30
0.0
 11
2329.7146025365968853
 21
149.1559715658378025
 31
0.0
  0
LINE
  5
71DF
  8
0
 10
2329.7134242079969226
 20
149.1127925413049979
 30
0.0
 11
2329.7134242079969226
 21
149.0891759815050079
 31
0.0
  0
LINE
  5
71E0
  8
0
 10
2329.6804565012980675
 20
149.114857023004987
 30
0.0
 11
2329.6804565012980675
 21
149.1334830963579918
 31
0.0
  0
LINE
  5
71E1
  8
0
 10
2329.6790186294970226
 20
149.1524810866050075
 30
0.0
 11
2329.6790186294970226
 21
149.1712293569383121
 31
0.0
  0
LINE
  5
71E2
  8
0
 10
2329.6750490091981192
 20
149.0742388593712917
 30
0.0
 11
2329.6750490091981192
 21
149.0557942110050078
 31
0.0
  0
LINE
  5
71E3
  8
0
 10
2329.6600344675980523
 20
149.1327755693050108
 30
0.0
 11
2329.6600344675980523
 21
149.154713061454089
 31
0.0
  0
LINE
  5
71E4
  8
0
 10
2329.6435480879981696
 20
149.089269904005107
 30
0.0
 11
2329.6435480879981696
 21
149.0700995662049877
 31
0.0
  0
LINE
  5
71E5
  8
0
 10
2329.639682331197946
 20
149.1599234247049992
 30
0.0
 11
2329.639682331197946
 21
149.17647251860501
 31
0.0
  0
LINE
  5
71E6
  8
0
 10
2329.6170353600791714
 20
149.0649173607781108
 30
0.0
 11
2329.6170347808970291
 21
149.0490816003049872
 31
0.0
  0
LINE
  5
71E7
  8
0
 10
2329.6120425236981646
 20
149.1127925413049979
 30
0.0
 11
2329.6120425236981646
 21
149.0844070299050088
 31
0.0
  0
LINE
  5
71E8
  8
0
 10
2329.6115025399981278
 20
149.114857023004987
 30
0.0
 11
2329.6115025399981278
 21
149.1429973142190022
 31
0.0
  0
LINE
  5
71E9
  8
0
 10
2329.608177441897169
 20
149.1456162676049928
 30
0.0
 11
2329.608177441897169
 21
149.1619516462050115
 31
0.0
  0
LINE
  5
71EA
  8
0
 10
2329.5870393933969353
 20
149.165170467004998
 30
0.0
 11
2329.5870393933969353
 21
149.180455118586508
 31
0.0
  0
LINE
  5
71EB
  8
0
 10
2329.577561515997786
 20
149.1127925413049979
 30
0.0
 11
2329.577561515997786
 21
149.1000657168050054
 31
0.0
  0
LINE
  5
71EC
  8
0
 10
2329.573700461296994
 20
149.1299594095050054
 30
0.0
 11
2329.573700461296994
 21
149.1472972720324037
 31
0.0
  0
LINE
  5
71ED
  8
0
 10
2329.5699938707980436
 20
149.114857023004987
 30
0.0
 11
2329.5699938707980436
 21
149.1241471907277116
 31
0.0
  0
LINE
  5
71EE
  8
0
 10
2329.552946126696952
 20
149.1205343477049894
 30
0.0
 11
2329.5529432026978611
 21
149.1300563358553006
 31
0.0
  0
LINE
  5
71EF
  8
0
 10
2329.5466544879977846
 20
149.0462208859050008
 30
0.0
 11
2329.5466544879977846
 21
149.0611906192050071
 31
0.0
  0
LINE
  5
71F0
  8
0
 10
2329.5466544879977846
 20
149.0627392872050052
 30
0.0
 11
2329.5466544879977846
 21
149.0778923802776035
 31
0.0
  0
LINE
  5
71F1
  8
0
 10
2329.5466544879977846
 20
149.1499384629049985
 30
0.0
 11
2329.5466544879977846
 21
149.1649102770049922
 31
0.0
  0
LINE
  5
71F2
  8
0
 10
2329.5466544879977846
 20
149.1664589450049903
 30
0.0
 11
2329.5466544879977846
 21
149.1814286783049965
 31
0.0
  0
LINE
  5
71F3
  8
0
 10
2329.6022508237979309
 20
149.1641018126049971
 30
0.0
 11
2329.6170347808970291
 21
149.1785679640049977
 31
0.0
  0
LINE
  5
71F4
  8
0
 10
2329.6018233505978969
 20
149.1796366183050111
 30
0.0
 11
2329.5870393933969353
 21
149.165170467004998
 31
0.0
  0
LINE
  5
71F5
  8
0
 10
2329.6790186294970226
 20
149.0751684777050059
 30
0.0
 11
2329.7194091514970751
 21
149.0645785199050124
 31
0.0
  0
LINE
  5
71F6
  8
0
 10
2329.7305446913969718
 20
149.0674981379050053
 30
0.0
 11
2329.6901541692977844
 21
149.0780880957049988
 31
0.0
  0
LINE
  5
71F7
  8
0
 10
2329.6600344675980523
 20
149.0948739949049866
 30
0.0
 11
2329.7094872000980104
 21
149.0873880879049977
 31
0.0
  0
LINE
  5
71F8
  8
0
 10
2329.7146025365968853
 20
149.0866137538050111
 30
0.0
 11
2329.7640483961981772
 21
149.0791288872050018
 31
0.0
  0
LINE
  5
71F9
  8
0
 10
2329.767985404097999
 20
149.080916780805012
 30
0.0
 11
2329.7185395444980713
 21
149.0884016475050089
 31
0.0
  0
LINE
  5
71FA
  8
0
 10
2329.7134242079969226
 20
149.0891759815050079
 30
0.0
 11
2329.6639714754969646
 21
149.0966618885049968
 31
0.0
  0
LINE
  5
71FB
  8
0
 10
2329.7344760825972116
 20
149.0982157836050135
 30
0.0
 11
2329.7896505617982257
 21
149.0943395901049939
 31
0.0
  0
LINE
  5
71FC
  8
0
 10
2329.7937264522970509
 20
149.0983278625049877
 30
0.0
 11
2329.7385519730969463
 21
149.1022040561049948
 31
0.0
  0
LINE
  5
71FD
  8
0
 10
2329.5699938707980436
 20
149.1127925413049979
 30
0.0
 11
2329.6055864542981908
 21
149.1127925413049979
 31
0.0
  0
LINE
  5
71FE
  8
0
 10
2329.6115025399981278
 20
149.1127925413049979
 30
0.0
 11
2329.6745484694979496
 21
149.1127925413049979
 31
0.0
  0
LINE
  5
71FF
  8
0
 10
2329.6804565012980675
 20
149.1127925413049979
 30
0.0
 11
2329.7375595980979597
 21
149.1127925413049979
 31
0.0
  0
LINE
  5
7200
  8
0
 10
2329.743466279896893
 20
149.1127925413049979
 30
0.0
 11
2329.8005614406979475
 21
149.1127925413049979
 31
0.0
  0
LINE
  5
7201
  8
0
 10
2329.8005614406979475
 20
149.114857023004987
 30
0.0
 11
2329.743466279896893
 21
149.114857023004987
 31
0.0
  0
LINE
  5
7202
  8
0
 10
2329.7375595980979597
 20
149.114857023004987
 30
0.0
 11
2329.6804565012980675
 21
149.114857023004987
 31
0.0
  0
LINE
  5
7203
  8
0
 10
2329.6745484694979496
 20
149.114857023004987
 30
0.0
 11
2329.6115025399981278
 21
149.114857023004987
 31
0.0
  0
LINE
  5
7204
  8
0
 10
2329.6055864542981908
 20
149.114857023004987
 30
0.0
 11
2329.5699938707980436
 21
149.114857023004987
 31
0.0
  0
LINE
  5
7205
  8
0
 10
2329.7385519730969463
 20
149.1254455082049901
 30
0.0
 11
2329.7937264522970509
 21
149.1293217017050097
 31
0.0
  0
LINE
  5
7206
  8
0
 10
2329.7896505617982257
 20
149.133309974204991
 30
0.0
 11
2329.7344760825972116
 21
149.1294337806050123
 31
0.0
  0
LINE
  5
7207
  8
0
 10
2329.6639714754969646
 20
149.1309876757050006
 30
0.0
 11
2329.7134242079969226
 21
149.1384735827049894
 31
0.0
  0
LINE
  5
7208
  8
0
 10
2329.7185395444980713
 20
149.1392479168050045
 30
0.0
 11
2329.767985404097999
 21
149.1467327834050138
 31
0.0
  0
LINE
  5
7209
  8
0
 10
2329.7640483961981772
 20
149.1485206770049956
 30
0.0
 11
2329.7146025365968853
 21
149.1410358104049863
 31
0.0
  0
LINE
  5
720A
  8
0
 10
2329.7094872000980104
 20
149.1402614764049872
 30
0.0
 11
2329.6600344675980523
 21
149.1327755693050108
 31
0.0
  0
LINE
  5
720B
  8
0
 10
2329.6901541692977844
 20
149.1495614685049986
 30
0.0
 11
2329.7305446913969718
 21
149.1601514263049921
 31
0.0
  0
LINE
  5
720C
  8
0
 10
2329.7194091514970751
 20
149.163071044405001
 30
0.0
 11
2329.6790186294970226
 21
149.1524810866050075
 31
0.0
  0
LINE
  5
720D
  8
0
 10
2329.5597652242981894
 20
149.1195021069050028
 30
0.0
 11
2329.577561515997786
 21
149.127583847404992
 31
0.0
  0
LINE
  5
720E
  8
0
 10
2329.5805195588968672
 20
149.1289271686050029
 30
0.0
 11
2329.6120425236981646
 21
149.1432425343049886
 31
0.0
  0
LINE
  5
720F
  8
0
 10
2329.6149965395979962
 20
149.1445840267049903
 30
0.0
 11
2329.6435480879981696
 21
149.1575499980050097
 31
0.0
  0
LINE
  5
7210
  8
0
 10
2329.6465014288969542
 20
149.1588911839050127
 30
0.0
 11
2329.6750490091981192
 21
149.1718553532049896
 31
0.0
  0
LINE
  5
7211
  8
0
 10
2329.6682299115977912
 20
149.1728875941049921
 30
0.0
 11
2329.639682331197946
 21
149.1599234247049992
 31
0.0
  0
LINE
  5
7212
  8
0
 10
2329.6367289902977973
 20
149.1585822389050122
 30
0.0
 11
2329.608177441897169
 21
149.1456162676049928
 31
0.0
  0
LINE
  5
7213
  8
0
 10
2329.6052234259977922
 20
149.1442747752049911
 30
0.0
 11
2329.573700461296994
 21
149.1299594095050054
 31
0.0
  0
LINE
  5
7214
  8
0
 10
2329.5707424183970033
 20
149.1286160883049945
 30
0.0
 11
2329.552946126696952
 21
149.1205343477049894
 31
0.0
  0
ARC
  5
7215
  8
0
 10
2329.5432921142978557
 20
149.9998194128050102
 30
0.0
 40
0.9536044546999999
 50
270.2020231971064845
 51
273.5189664585997775
  0
ARC
  5
7216
  8
0
 10
2329.5428649928981031
 20
149.8135036113050091
 30
0.0
 40
0.7523225361
 50
270.2886036071888043
 51
273.366193655706013
  0
ARC
  5
7217
  8
0
 10
2329.3108638604508087
 20
149.3670495399296954
 30
0.0
 40
0.6112582002824382
 50
343.1688929107373269
 51
348.1487461658920211
  0
ARC
  5
7218
  8
0
 10
2329.6164874364571915
 20
149.4654977949371073
 30
0.0
 40
0.4221637121261841
 50
274.3159143093869829
 51
297.0149056193561137
  0
ARC
  5
7219
  8
0
 10
2329.527420387868915
 20
150.6331460754086038
 30
0.0
 40
1.5932039380601319
 50
270.5648574365195032
 51
274.3498015478663206
  0
ARC
  5
721A
  8
0
 10
2329.7336737629889285
 20
149.182753485084902
 30
0.0
 40
0.1194825737122828
 50
308.6166290321480119
 51
320.1299967748935842
  0
ARC
  5
721B
  8
0
 10
2329.6897949149952183
 20
149.2213380372654115
 30
0.0
 40
0.1779003739812901
 50
319.651646827200409
 51
337.4364399328861737
  0
ARC
  5
721C
  8
0
 10
2329.696895241132097
 20
149.2181450412861921
 30
0.0
 40
0.1701185155517916
 50
337.511928025072109
 51
351.9321961144539728
  0
ARC
  5
721D
  8
0
 10
2329.8131895890419401
 20
149.1866850500948942
 30
0.0
 40
0.0526892266126192
 50
8.2766050221344312
 51
74.8612949934898211
  0
ARC
  5
721E
  8
0
 10
2329.6341697958018813
 20
148.7732579497831011
 30
0.0
 40
0.5027198880726828
 50
67.4509718170806138
 51
84.2407174339479212
  0
ARC
  5
721F
  8
0
 10
2329.5197699483342149
 20
147.7317574049237976
 30
0.0
 40
1.5504711060423739
 50
83.8967279695691843
 51
89.1368384563823923
  0
ARC
  5
7220
  8
0
 10
2329.7970453763127807
 20
149.1159188986374886
 30
0.0
 40
0.0274295167933807
 50
317.3858211136226259
 51
348.0707394389800129
  0
ARC
  5
7221
  8
0
 10
2329.7993762886057993
 20
149.1131756581561945
 30
0.0
 40
0.0246803506421062
 50
353.1899571726622185
 51
45.2001417719343692
  0
ARC
  5
7222
  8
0
 10
2329.7115581101311363
 20
149.0036144059548917
 30
0.0
 40
0.1649746038620919
 50
50.3774664373032905
 51
78.3785421040828112
  0
ARC
  5
7223
  8
0
 10
2329.575312630523058
 20
148.4912886916806087
 30
0.0
 40
0.6949021128202232
 50
75.883833033505141
 51
85.9529991236508693
  0
ARC
  5
7224
  8
0
 10
2329.5412185622449215
 20
148.0970859771917105
 30
0.0
 40
1.090545618599968
 50
85.6278731793953938
 51
89.8997369648869125
  0
ARC
  5
7225
  8
0
 10
2329.5571580433870622
 20
149.8222709321354102
 30
0.0
 40
0.7755043304529511
 50
274.4282178733549813
 51
278.2345257973818207
  0
ARC
  5
7226
  8
0
 10
2329.5536383978578669
 20
149.668787087358595
 30
0.0
 40
0.607188456329003
 50
274.5921014603350159
 51
278.1467378675566238
  0
ARC
  5
7227
  8
0
 10
2329.5834081339698969
 20
149.4745004537408875
 30
0.0
 40
0.4106183068737481
 50
278.8387621379417283
 51
283.4646377542453024
  0
ARC
  5
7228
  8
0
 10
2329.5953153033160561
 20
149.5748437736720007
 30
0.0
 40
0.5251379936345132
 50
278.7332139008603917
 51
283.6686856954652853
  0
ARC
  5
7229
  8
0
 10
2329.6391361378928195
 20
149.2637057109791101
 30
0.0
 40
0.1925012691625402
 50
285.3685563903184743
 51
293.0809118512744931
  0
ARC
  5
722A
  8
0
 10
2329.6623883573402054
 20
149.317901263593086
 30
0.0
 40
0.2595130270845076
 50
285.2262723218918836
 51
293.062428102324418
  0
ARC
  5
722B
  8
0
 10
2329.7294523940900035
 20
149.1673069802322118
 30
0.0
 40
0.094594182787892
 50
294.0385204901709812
 51
309.5226643749335835
  0
ARC
  5
722C
  8
0
 10
2329.7765289070848667
 20
149.1153014175376939
 30
0.0
 40
0.0241631358017502
 50
315.3755661375546993
 51
354.0401954135933238
  0
ARC
  5
722D
  8
0
 10
2329.772693711257034
 20
149.1105359032208071
 30
0.0
 40
0.0282007521245663
 50
8.8139889737378976
 51
41.7702497810961972
  0
ARC
  5
722E
  8
0
 10
2329.7289889412140838
 20
149.0595945448363864
 30
0.0
 40
0.0954662073134718
 50
50.5484824369301293
 51
65.8903330435879013
  0
ARC
  5
722F
  8
0
 10
2329.6634445973731999
 20
148.912790920945298
 30
0.0
 40
0.2562999068082793
 50
66.8883745006966137
 51
74.8229250750710833
  0
ARC
  5
7230
  8
0
 10
2329.5949000592240736
 20
148.6507088312370115
 30
0.0
 40
0.5272736969934987
 50
76.3413160540398081
 51
81.2567845982233763
  0
ARC
  5
7231
  8
0
 10
2329.5557058073968619
 20
148.3922901515547039
 30
0.0
 40
0.7886659884528712
 50
81.7972463960251162
 51
85.5400099332345434
  0
ARC
  5
7232
  8
0
 10
2329.5455341819420028
 20
148.296852568092504
 30
0.0
 40
0.8845768196248007
 50
86.351574808332856
 51
89.9274355550824538
  0
ARC
  5
7233
  8
0
 10
2329.5448430716301118
 20
148.4761450564500933
 30
0.0
 40
0.6903162651720169
 50
86.4955494018575735
 51
89.8496535035835535
  0
ARC
  5
7234
  8
0
 10
2329.5538025308410397
 20
148.5603328393698064
 30
0.0
 40
0.6057096747881161
 50
81.8489215846835805
 51
85.4122390874369017
  0
ARC
  5
7235
  8
0
 10
2329.5829004163902027
 20
148.7505735561541087
 30
0.0
 40
0.4132413022969317
 50
76.5500512219366698
 51
81.1465488861989144
  0
ARC
  5
7236
  8
0
 10
2329.6374040493137727
 20
148.9589768773942922
 30
0.0
 40
0.1977499975421058
 50
67.0215884486455877
 51
74.5289433097589296
  0
ARC
  5
7237
  8
0
 10
2329.6888507469038814
 20
149.0731919847075915
 30
0.0
 40
0.072421066464076
 50
50.9498124467921087
 51
65.7984956943558501
  0
ARC
  5
7238
  8
0
 10
2329.7250086518761236
 20
149.11272515698289
 30
0.0
 40
0.0185803359742307
 50
6.588499355669561
 51
43.2052287590899695
  0
ARC
  5
7239
  8
0
 10
2329.7252155194610168
 20
149.1148283963526922
 30
0.0
 40
0.0183639582415651
 50
316.571248679628809
 51
353.6350232138696015
  0
ARC
  5
723A
  8
0
 10
2329.6874133352748686
 20
149.1567916991207881
 30
0.0
 40
0.0751401361727157
 50
294.4715982008439141
 51
308.7800935313371156
  0
ARC
  5
723B
  8
0
 10
2329.5450975361632118
 20
149.7291340756582088
 30
0.0
 40
0.666396607266784
 50
270.133864502302572
 51
277.9033744503640264
  0
ARC
  5
723C
  8
0
 10
2329.54840587444005
 20
149.5109752706916026
 30
0.0
 40
0.4330864317013563
 50
269.7682972320779982
 51
277.9328846962628745
  0
ARC
  5
723D
  8
0
 10
2329.5858075108180856
 20
149.2861861152115921
 30
0.0
 40
0.205207135570254
 50
278.1775893830417772
 51
291.2056945445377778
  0
ARC
  5
723E
  8
0
 10
2329.6034712777259301
 20
149.357345584971398
 30
0.0
 40
0.290028319339179
 50
277.9426834004445936
 51
291.4406005027465767
  0
ARC
  5
723F
  8
0
 10
2329.6574948651168597
 20
149.1197697014081882
 30
0.0
 40
0.0239982811716214
 50
285.6570128619525235
 51
343.0979860078288084
  0
ARC
  5
7240
  8
0
 10
2329.702059598372216
 20
149.1249313484944992
 30
0.0
 40
0.0375180039514201
 50
287.632518350704288
 51
341.1224804770765218
  0
ARC
  5
7241
  8
0
 10
2329.7016842701918904
 20
149.1023346419281097
 30
0.0
 40
0.0379980154763608
 50
19.2416803354751309
 51
72.0033210793051524
  0
ARC
  5
7242
  8
0
 10
2329.6009558722089423
 20
148.8607101205383003
 30
0.0
 40
0.2998799921639272
 50
68.7820972104621973
 51
81.8346190489429262
  0
ARC
  5
7243
  8
0
 10
2329.5452313595988016
 20
148.5004203464478962
 30
0.0
 40
0.664491454502077
 50
82.0854705221559158
 51
89.8772906517598074
  0
ARC
  5
7244
  8
0
 10
2329.5442751608861727
 20
148.6760448268190942
 30
0.0
 40
0.4738996091158672
 50
82.2504297610697819
 51
89.7123315324523247
  0
ARC
  5
7245
  8
0
 10
2329.5858250919000056
 20
148.9415305039285897
 30
0.0
 40
0.2051382618446802
 50
68.7921089328017246
 51
81.8246071424888441
  0
ARC
  5
7246
  8
0
 10
2329.6559455494971189
 20
149.1062965100792894
 30
0.0
 40
0.0259628416803865
 50
19.2518873106608304
 51
71.9931159179178195
  0
ARC
  5
7247
  8
0
 10
2329.6479440010430153
 20
149.1037741881872876
 30
0.0
 40
0.0288205997393536
 50
22.6155334521317499
 51
72.4630861839035987
  0
ARC
  5
7248
  8
0
 10
2329.5850599620171124
 20
148.9539724483909993
 30
0.0
 40
0.1911837442271765
 50
68.0162972775924004
 51
81.8865181231148256
  0
ARC
  5
7249
  8
0
 10
2329.6437380832439885
 20
149.1275201141781963
 30
0.0
 40
0.0341493968297871
 50
283.0519063650825728
 51
334.451885168264198
  0
ARC
  5
724A
  8
0
 10
2329.5833495677620704
 20
149.2830351350091007
 30
0.0
 40
0.2006898349632272
 50
278.2198392604968831
 51
289.8362164486854908
  0
ARC
  5
724B
  8
0
 10
2329.4993076840419235
 20
150.2070020964688126
 30
0.0
 40
1.128608200505216
 50
272.2251202890623176
 51
275.3849229554475073
  0
ARC
  5
724C
  8
0
 10
2329.5424526177689586
 20
149.3496636630761998
 30
0.0
 40
0.2539036758215935
 50
270.152164910317822
 51
277.0692957278523068
  0
ARC
  5
724D
  8
0
 10
2329.5232525276351225
 20
149.6376376067510137
 30
0.0
 40
0.5406937205932991
 50
272.1065084494981079
 51
275.0388617983907125
  0
ARC
  5
724E
  8
0
 10
2329.5428858647737798
 20
149.2050014643243117
 30
0.0
 40
0.0984018616802027
 50
270.1403629294708821
 51
275.8679726982944089
  0
ARC
  5
724F
  8
0
 10
2329.5634555017481944
 20
149.2049135831265971
 30
0.0
 40
0.1075534767514532
 50
279.1289227559192909
 51
289.2323466397003813
  0
ARC
  5
7250
  8
0
 10
2329.5919833300599748
 20
149.1257545759360141
 30
0.0
 40
0.0234310456096205
 50
287.127088826180227
 51
326.4132335861352772
  0
ARC
  5
7251
  8
0
 10
2329.5892394070451701
 20
149.0982704682691917
 30
0.0
 40
0.0277625806952191
 50
36.6869724195180709
 51
72.410972388348128
  0
ARC
  5
7252
  8
0
 10
2329.563049876614059
 20
149.0206161150831861
 30
0.0
 40
0.1097108659800879
 50
71.6281211921165664
 51
80.8375717388781254
  0
ARC
  5
7253
  8
0
 10
2329.5623935996909495
 20
149.1942368886026031
 30
0.0
 40
0.0953848797389638
 50
279.1499041665946947
 51
289.5970723478505988
  0
ARC
  5
7254
  8
0
 10
2329.5884996690151638
 20
149.1238730095031997
 30
0.0
 40
0.0203650437464736
 50
286.8005924658407935
 51
327.0373278234711734
  0
ARC
  5
7255
  8
0
 10
2329.5848376921089766
 20
149.098907168544514
 30
0.0
 40
0.0261707659361789
 50
37.5499691181940634
 51
71.7933223628654389
  0
ARC
  5
7256
  8
0
 10
2329.5612623625738706
 20
149.0283856915247895
 30
0.0
 40
0.1005282872249096
 50
71.587617656345202
 51
80.6691592103062476
  0
ARC
  5
7257
  8
0
 10
2329.5331206985679273
 20
148.7301012520046015
 30
0.0
 40
0.4019120093536649
 50
84.2051551385212349
 51
88.5733842236953564
  0
ARC
  5
7258
  8
0
 10
2329.5394435117777903
 20
148.6241215348834999
 30
0.0
 40
0.5242960905173277
 50
82.7924888322280452
 51
89.5974679232580513
  0
ARC
  5
7259
  8
0
 10
2329.5403138505162133
 20
148.8632718099530052
 30
0.0
 40
0.2670832900005178
 50
83.458137009656113
 51
89.3965159640593185
  0
ARC
  5
725A
  8
0
 10
2329.5428749613670334
 20
149.0224441127863884
 30
0.0
 40
0.0986058951456772
 50
84.1378429134633734
 51
89.8535919724062779
  0
ARC
  5
725B
  8
0
 10
2329.557731963076094
 20
149.1014403196654996
 30
0.0
 40
0.01817587162926
 50
47.5749198422862065
 51
83.5771091514210127
  0
ARC
  5
725C
  8
0
 10
2329.5581031246661041
 20
149.1253919330999054
 30
0.0
 40
0.0173243908169901
 50
275.5054169327999034
 51
313.3425540734908736
  0
ARC
  5
725D
  8
0
 10
2329.8005799104721518
 20
149.2692029207844939
 30
0.0
 40
0.1278570849961929
 50
294.7348427589861899
 51
309.1244874375527161
  0
ARC
  5
725E
  8
0
 10
2329.8547183639639115
 20
149.2048466478588011
 30
0.0
 40
0.0437912840840216
 50
307.3054376037276825
 51
340.2638568637817116
  0
ARC
  5
725F
  8
0
 10
2329.864544110551833
 20
149.1969611960857094
 30
0.0
 40
0.0321429932343515
 50
347.5997248009321083
 51
54.5682732645233699
  0
ARC
  5
7260
  8
0
 10
2329.7298967939527756
 20
149.0042685017176893
 30
0.0
 40
0.2672172236890447
 50
54.9968196524026212
 51
80.6135088508355864
  0
ARC
  5
7261
  8
0
 10
2329.5691296229610998
 20
148.3054234794589945
 30
0.0
 40
0.9839382595327016
 50
78.0133196020057653
 51
86.770482916419283
  0
ARC
  5
7262
  8
0
 10
2329.4462447776159024
 20
144.8116385249603866
 30
0.0
 40
4.479710953644588
 50
87.7187264748119446
 51
88.7607746915359854
  0
ARC
  5
7263
  8
0
 10
2329.8712818045369204
 20
149.2445317694377991
 30
0.0
 40
0.0379309168878257
 50
355.437438928761992
 51
57.2100127861312018
  0
ARC
  5
7264
  8
0
 10
2329.7277638467048746
 20
149.0239037781597915
 30
0.0
 40
0.3011303534136652
 50
56.9880818032613519
 51
68.1335701537673657
  0
ARC
  5
7265
  8
0
 10
2329.4347198728110016
 20
150.1754421510439101
 30
0.0
 40
1.109114837143784
 50
255.8389939651920031
 51
263.7885002466737205
  0
ARC
  5
7266
  8
0
 10
2329.2333502727228733
 20
149.4471956920966136
 30
0.0
 40
0.3541461330065777
 50
226.9269030517357066
 51
258.6044485806692137
  0
ARC
  5
7267
  8
0
 10
2328.6783375364279891
 20
148.9719415771006084
 30
0.0
 40
0.3807400405561866
 50
34.6650224980213935
 51
84.5583861161102419
  0
ARC
  5
7268
  8
0
 10
2329.0301143347392099
 20
149.2133360206406962
 30
0.0
 40
0.0459188499574619
 50
151.8017707178505873
 51
212.7457593140599101
  0
ARC
  5
7269
  8
0
 10
2329.1618467076459638
 20
149.0570086049569909
 30
0.0
 40
0.2476818649768945
 50
100.3217858949243038
 51
134.0473572671045872
  0
ARC
  5
726A
  8
0
 10
2329.4351871698509058
 20
147.9574986038066129
 30
0.0
 40
1.380249155877969
 50
93.2640820242857131
 51
103.3082423853634992
  0
ARC
  5
726B
  8
0
 10
2329.5784180604691755
 20
145.5161426255058075
 30
0.0
 40
3.8258019258969771
 50
90.5285327382449339
 51
93.3238696769181928
  0
ARC
  5
726C
  8
0
 10
2329.3777507792078723
 20
149.7225975478094142
 30
0.0
 40
0.6410078369433787
 50
243.4847624469886966
 51
261.0484309516002099
  0
ARC
  5
726D
  8
0
 10
2329.1279532794078477
 20
149.2235370362278104
 30
0.0
 40
0.0829252887959679
 50
205.9323215563341876
 51
243.9851675697771043
  0
ARC
  5
726E
  8
0
 10
2329.0905913085789507
 20
149.2007216270118022
 30
0.0
 40
0.0395692018608033
 50
133.2904506691245956
 51
199.8692554202332872
  0
ARC
  5
726F
  8
0
 10
2329.1954710491231708
 20
149.0911744731016029
 30
0.0
 40
0.19122680524949
 50
108.7612333484059945
 51
133.6573240524008099
  0
ARC
  5
7270
  8
0
 10
2329.3683537464939945
 20
148.6445260304913916
 30
0.0
 40
0.6700467895272905
 50
100.4923146204387052
 51
110.4754179977051933
  0
ARC
  5
7271
  8
0
 10
2329.5060223183600101
 20
147.9524081636511141
 30
0.0
 40
1.375693573232768
 50
93.7703243676271541
 51
100.8808779932489017
  0
ARC
  5
7272
  8
0
 10
2329.5606710903839485
 20
146.9725437925048936
 30
0.0
 40
2.357051530848044
 50
90.4264716635540253
 51
93.5296103474110367
  0
ARC
  5
7273
  8
0
 10
2329.251848086938935
 20
149.4208928182746092
 30
0.0
 40
0.268538109867515
 50
225.4495987587193042
 51
265.7989757966117281
  0
ARC
  5
7274
  8
0
 10
2329.6515339850839155
 20
150.1754421510439101
 30
0.0
 40
1.109114837143784
 50
276.2114997533262795
 51
284.1610060348079969
  0
ARC
  5
7275
  8
0
 10
2329.8529035851729532
 20
149.4471956920966136
 30
0.0
 40
0.3541461330065777
 50
281.3955514193307863
 51
313.0730969482642081
  0
ARC
  5
7276
  8
0
 10
2330.4079164816580487
 20
148.9719414044832888
 30
0.0
 40
0.3807402704924039
 50
95.4416348031244297
 51
145.3349698477952927
  0
ARC
  5
7277
  8
0
 10
2330.0561395231561619
 20
149.2133360206406962
 30
0.0
 40
0.0459188499574619
 50
327.2542406859399762
 51
28.1982292821494092
  0
ARC
  5
7278
  8
0
 10
2329.9244071502498628
 20
149.0570086049569909
 30
0.0
 40
0.2476818649768945
 50
45.9526427328953773
 51
79.6782141050757104
  0
ARC
  5
7279
  8
0
 10
2329.6510666880449207
 20
147.9574986038066129
 30
0.0
 40
1.380249155877969
 50
76.6917576146364723
 51
86.7359179757142869
  0
ARC
  5
727A
  8
0
 10
2329.507835797424832
 20
145.5161426255058075
 30
0.0
 40
3.8258019258969771
 50
86.6761303230818214
 51
89.4714672617550946
  0
ARC
  5
727B
  8
0
 10
2329.7085030786879543
 20
149.7225975478094142
 30
0.0
 40
0.6410078369433787
 50
278.9515690483999037
 51
296.5152375530112749
  0
ARC
  5
727C
  8
0
 10
2329.9583005784870693
 20
149.2235370362278104
 30
0.0
 40
0.0829252887959679
 50
296.0148324302228957
 51
334.067678443665784
  0
ARC
  5
727D
  8
0
 10
2329.9956625493168758
 20
149.2007216270118022
 30
0.0
 40
0.0395692018608033
 50
340.1307445797651212
 51
46.7095493308753333
  0
ARC
  5
727E
  8
0
 10
2329.890782808772201
 20
149.0911744731016029
 30
0.0
 40
0.19122680524949
 50
46.3426759475991901
 51
71.2387666515939628
  0
ARC
  5
727F
  8
0
 10
2329.7179001114009225
 20
148.6445260304913916
 30
0.0
 40
0.6700467895272905
 50
69.5245820022947356
 51
79.5076853795613516
  0
ARC
  5
7280
  8
0
 10
2329.5802315395349069
 20
147.9524081636511141
 30
0.0
 40
1.375693573232768
 50
79.1191220067510983
 51
86.2296756323728459
  0
ARC
  5
7281
  8
0
 10
2329.5255827675100591
 20
146.9725437925048936
 30
0.0
 40
2.357051530848044
 50
86.470389652588949
 51
89.5735283364459747
  0
ARC
  5
7282
  8
0
 10
2329.834405770955982
 20
149.4208928182746092
 30
0.0
 40
0.268538109867515
 50
274.2010242033882719
 51
314.5504012412794737
  0
ENDSEC
  0
EOF
