  0
SECTION
  2
HEADER
  9
$ACADVER
  1
AC1009
  9
$INSBASE
 10
2308.6803644157239432
 20
130.9927675809317122
 30
0.0
  9
$EXTMIN
 10
2307.7423195283240602
 20
130.9866568346552924
 30
0.0
  9
$EXTMAX
 10
2309.6184093031238262
 20
137.1029880533318135
 30
0.0
  9
$LIMMIN
 10
0.0
 20
0.0
  9
$LIMMAX
 10
11.6929133858000007
 20
8.2677165353999982
  9
$ORTHOMODE
 70
     0
  9
$REGENMODE
 70
     1
  9
$FILLMODE
 70
     1
  9
$QTEXTMODE
 70
     0
  9
$MIRRTEXT
 70
     0
  9
$DRAGMODE
 70
     2
  9
$LTSCALE
 40
0.6431102362
  9
$OSMODE
 70
  4095
  9
$ATTMODE
 70
     1
  9
$TEXTSIZE
 40
0.2
  9
$TRACEWID
 40
0.05
  9
$TEXTSTYLE
  7
STANDARD
  9
$CLAYER
  8
0
  9
$CELTYPE
  6
BYLAYER
  9
$CECOLOR
 62
   256
  9
$DIMSCALE
 40
1.0
  9
$DIMASZ
 40
0.1875
  9
$DIMEXO
 40
0.0625
  9
$DIMDLI
 40
0.4443307087
  9
$DIMRND
 40
0.0
  9
$DIMDLE
 40
0.0
  9
$DIMEXE
 40
0.125
  9
$DIMTP
 40
0.01
  9
$DIMTM
 40
0.01
  9
$DIMTXT
 40
2.0
  9
$DIMCEN
 40
0.1052362205
  9
$DIMTSZ
 40
0.0
  9
$DIMTOL
 70
     1
  9
$DIMLIM
 70
     0
  9
$DIMTIH
 70
     1
  9
$DIMTOH
 70
     1
  9
$DIMSE1
 70
     0
  9
$DIMSE2
 70
     0
  9
$DIMTAD
 70
     0
  9
$DIMZIN
 70
     0
  9
$DIMBLK
  1

  9
$DIMASO
 70
     1
  9
$DIMSHO
 70
     1
  9
$DIMPOST
  1
\X
  9
$DIMAPOST
  1

  9
$DIMALT
 70
     1
  9
$DIMALTD
 70
     2
  9
$DIMALTF
 40
25.3999999999999986
  9
$DIMLFAC
 40
1.0
  9
$DIMTOFL
 70
     0
  9
$DIMTVP
 40
0.0
  9
$DIMTIX
 70
     0
  9
$DIMSOXD
 70
     0
  9
$DIMSAH
 70
     0
  9
$DIMBLK1
  1

  9
$DIMBLK2
  1

  9
$DIMSTYLE
  2
STANDARD
  9
$DIMCLRD
 70
     0
  9
$DIMCLRE
 70
     0
  9
$DIMCLRT
 70
     0
  9
$DIMTFAC
 40
1.0
  9
$DIMGAP
 40
0.09
  9
$LUNITS
 70
     2
  9
$LUPREC
 70
     4
  9
$SKETCHINC
 40
0.1
  9
$FILLETRAD
 40
0.0
  9
$AUNITS
 70
     0
  9
$AUPREC
 70
     0
  9
$MENU
  1
.
  9
$ELEVATION
 40
0.0
  9
$PELEVATION
 40
0.0
  9
$THICKNESS
 40
0.0
  9
$LIMCHECK
 70
     0
  9
$BLIPMODE
 70
     0
  9
$CHAMFERA
 40
0.0
  9
$CHAMFERB
 40
0.0
  9
$SKPOLY
 70
     0
  9
$TDCREATE
 40
2458060.468368056230247
  9
$TDUPDATE
 40
2459562.678437499795109
  9
$TDINDWG
 40
0.3030394676
  9
$TDUSRTIMER
 40
0.3030394676
  9
$USRTIMER
 70
     1
  9
$ANGBASE
 50
0.0
  9
$ANGDIR
 70
     0
  9
$PDMODE
 70
     0
  9
$PDSIZE
 40
0.3125
  9
$PLINEWID
 40
0.0
  9
$COORDS
 70
     1
  9
$SPLFRAME
 70
     0
  9
$SPLINETYPE
 70
     6
  9
$SPLINESEGS
 70
     8
  9
$ATTDIA
 70
     1
  9
$ATTREQ
 70
     1
  9
$HANDLING
 70
     1
  9
$HANDSEED
  5
7460
  9
$SURFTAB1
 70
     6
  9
$SURFTAB2
 70
     6
  9
$SURFTYPE
 70
     6
  9
$SURFU
 70
     6
  9
$SURFV
 70
     6
  9
$UCSNAME
  2

  9
$UCSORG
 10
0.0
 20
0.0
 30
0.0
  9
$UCSXDIR
 10
1.0
 20
0.0
 30
0.0
  9
$UCSYDIR
 10
0.0
 20
1.0
 30
0.0
  9
$PUCSNAME
  2

  9
$PUCSORG
 10
0.0
 20
0.0
 30
0.0
  9
$PUCSXDIR
 10
1.0
 20
0.0
 30
0.0
  9
$PUCSYDIR
 10
0.0
 20
1.0
 30
0.0
  9
$USERI1
 70
     0
  9
$USERI2
 70
     0
  9
$USERI3
 70
     0
  9
$USERI4
 70
     0
  9
$USERI5
 70
     0
  9
$USERR1
 40
0.0
  9
$USERR2
 40
0.0
  9
$USERR3
 40
0.0
  9
$USERR4
 40
0.0
  9
$USERR5
 40
0.0
  9
$WORLDVIEW
 70
     1
  9
$SHADEDGE
 70
     3
  9
$SHADEDIF
 70
    70
  9
$TILEMODE
 70
     1
  9
$MAXACTVP
 70
    64
  9
$PLIMCHECK
 70
     0
  9
$PEXTMIN
 10
1.0000000000000000E+20
 20
1.0000000000000000E+20
 30
1.0000000000000000E+20
  9
$PEXTMAX
 10
-1.0000000000000000E+20
 20
-1.0000000000000000E+20
 30
-1.0000000000000000E+20
  9
$PLIMMIN
 10
0.0
 20
0.0
  9
$PLIMMAX
 10
12.0
 20
9.0
  9
$UNITMODE
 70
     0
  9
$VISRETAIN
 70
     1
  9
$PLINEGEN
 70
     0
  9
$PSLTSCALE
 70
     1
  0
ENDSEC
  0
SECTION
  2
TABLES
  0
TABLE
  2
VPORT
 70
     1
  0
VPORT
  2
*ACTIVE
 70
     0
 10
0.0
 20
0.0
 11
1.0
 21
1.0
 12
0.0
 22
0.0
 13
0.0
 23
0.0
 14
1.0
 24
1.0
 15
0.0
 25
0.0
 16
0.0
 26
0.0
 36
21.0554032249035608
 17
2308.680419921875
 27
134.0448192010190098
 37
0.0
 40
6.398567397380365
 41
2.5429292929292919
 42
50.0
 43
0.0
 44
0.0
 50
0.0
 51
0.0
 71
     0
 72
   100
 73
     1
 74
     1
 75
     0
 76
     0
 77
     0
 78
     0
  0
ENDTAB
  0
TABLE
  2
LTYPE
 70
     2
  0
LTYPE
  2
CONTINUOUS
 70
     0
  3
Solid line
 72
    65
 73
     0
 40
0.0
  0
LTYPE
  2
PHANTOM2
 70
     0
  3
___ _ _ ___ _ _ ___ _ _ ___ _ _
 72
    65
 73
     6
 40
1.25
 49
0.625
 49
-0.125
 49
0.125
 49
-0.125
 49
0.125
 49
-0.125
  0
ENDTAB
  0
TABLE
  2
LAYER
 70
     2
  0
LAYER
  2
0
 70
     0
 62
   255
  6
CONTINUOUS
  0
LAYER
  2
DEFPOINTS
 70
     0
 62
     7
  6
CONTINUOUS
  0
ENDTAB
  0
TABLE
  2
STYLE
 70
     1
  0
STYLE
  2
STANDARD
 70
     0
 40
0.0
 41
0.8
 50
0.0
 71
     0
 42
0.2
  3
txt
  4

  0
ENDTAB
  0
TABLE
  2
VIEW
 70
     0
  0
ENDTAB
  0
TABLE
  2
UCS
 70
     0
  0
ENDTAB
  0
TABLE
  2
APPID
 70
     9
  0
APPID
  2
ACAD
 70
     0
  0
APPID
  2
ACAD_MLEADERVER
 70
     0
  0
APPID
  2
ACAD_EXEMPT_FROM_CAD_STANDARDS
 70
     0
  0
APPID
  2
ACAD_NAV_VCDISPLAY
 70
     0
  0
APPID
  2
ACAECLAYERSTANDARD
 70
     0
  0
APPID
  2
ACCMTRANSPARENCY
 70
     0
  0
APPID
  2
ACAD_DSTYLE_DIMJAG
 70
     0
  0
APPID
  2
ACAD_DSTYLE_DIMTALN
 70
     0
  0
APPID
  2
ACDBATTR
 70
     0
  0
ENDTAB
  0
TABLE
  2
DIMSTYLE
 70
     1
  0
DIMSTYLE
  2
STANDARD
 70
     0
  3

  4

  5

  6

  7

 40
1.0
 41
0.1875
 42
0.0625
 43
0.38
 44
0.125
 45
0.0
 46
0.0
 47
0.01
 48
0.01
140
0.15625
141
0.09
142
0.0
143
25.3999999999999986
144
1.0
145
0.0
146
1.0
147
0.09
 71
     1
 72
     0
 73
     1
 74
     1
 75
     0
 76
     0
 77
     0
 78
     4
170
     0
171
     2
172
     0
173
     0
174
     0
175
     0
176
     0
177
     0
178
     0
  0
ENDTAB
  0
ENDSEC
  0
SECTION
  2
BLOCKS
  0
BLOCK
  8
0
  2
$MODEL_SPACE
 70
     0
 10
0.0
 20
0.0
 30
0.0
  3
$MODEL_SPACE
  1

  0
ENDBLK
  5
21
  8
0
  0
BLOCK
 67
     1
  8
0
  2
$PAPER_SPACE
 70
     0
 10
0.0
 20
0.0
 30
0.0
  3
$PAPER_SPACE
  1

  0
ENDBLK
  5
1D
 67
     1
  8
0
  0
BLOCK
  8
0
  2
_FILLED
 70
     0
 10
0.0
 20
0.0
 30
0.0
  3
_FILLED
  1

  0
SOLID
  5
6F2D
  8
0
  6
BYBLOCK
 62
     0
 10
0.0
 20
0.0
 30
0.0
 11
-1.0
 21
0.1666666667
 31
0.0
 12
-1.0
 22
-0.1666666667
 32
0.0
 13
-1.0
 23
-0.1666666667
 33
0.0
  0
ENDBLK
  5
6F2E
  8
0
  6
BYBLOCK
 62
     0
  0
ENDSEC
  0
SECTION
  2
ENTITIES
  0
ATTDEF
  5
3930
  8
DEFPOINTS
 10
2308.677442247460931
 20
130.9899901679885943
 30
0.0
 40
0.001
  1
K-23472BR-4ND
  3

  2
MODELNUMBER
 70
     0
1001
ACDBATTR
1070
     0
1070
     1
  0
ATTDEF
  5
3931
  8
DEFPOINTS
 10
2308.677442247460931
 20
130.988323501321986
 30
0.0
 40
0.001
  1
PARALLEL
  3

  2
TRADENAME
 70
     0
1001
ACDBATTR
1070
     0
1070
     1
  0
ATTDEF
  5
3932
  8
DEFPOINTS
 10
2308.677442247460931
 20
130.9866568346552924
 30
0.0
 40
0.001
  1
BATHROOM SINK FAUCET
  3

  2
PRODUCT
 70
     0
1001
ACDBATTR
1070
     0
1070
     1
  0
LINE
  5
7099
  8
0
 10
2307.765010085024187
 20
130.9927675809317122
 30
0.0
 11
2309.59571874642279
 21
130.9927675809317122
 31
0.0
  0
LINE
  5
709A
  8
0
 10
2307.7453250456242131
 20
131.0124526203316861
 30
0.0
 11
2307.7453250456242131
 21
135.7250510455316999
 31
0.0
  0
LINE
  5
709B
  8
0
 10
2308.0055081445239011
 20
135.7955736228317107
 30
0.0
 11
2308.0059232983239781
 21
135.8431455337317004
 31
0.0
  0
LINE
  5
709C
  8
0
 10
2307.7768211855241134
 20
135.2053660061316975
 30
0.0
 11
2309.5839076459237731
 21
135.2053660061316975
 31
0.0
  0
LINE
  5
709D
  8
0
 10
2307.7768211086240626
 20
135.7565471085316915
 30
0.0
 11
2309.5839077228238239
 21
135.7565471085316915
 31
0.0
  0
LINE
  5
709E
  8
0
 10
2307.7718992976238042
 20
135.8431455337317004
 30
0.0
 11
2309.5888295338240823
 21
135.8431455337317004
 31
0.0
  0
LINE
  5
709F
  8
0
 10
2307.7720910870089028
 20
136.9258226990316984
 30
0.0
 11
2309.5886377444389836
 21
136.9258226990316984
 31
0.0
  0
ARC
  5
70A0
  8
0
 10
2307.7668679128369149
 20
131.0143104481443004
 30
0.0
 40
0.021622827102815
 50
184.9289159316913072
 51
265.0710840683057086
  0
ARC
  5
70A1
  8
0
 10
2307.7856605844867772
 20
137.0596108240877129
 30
0.0
 40
0.0435587476450226
 50
95.2325236277125384
 51
174.2693789272850893
  0
ARC
  5
70A2
  8
0
 10
2307.9636439133191743
 20
135.7984347130885112
 30
0.0
 40
0.0419618838046472
 50
273.4096356694620908
 51
356.0903643305185255
  0
ARC
  5
70A3
  8
0
 10
2307.7807507849602189
 20
135.721121369196311
 30
0.0
 40
0.0356430268574493
 50
96.3297799342670231
 51
173.670220065724294
  0
ARC
  5
70A4
  8
0
 10
2307.7794821141342254
 20
135.2395230811391116
 30
0.0
 40
0.034260565000094
 50
184.4546395565124044
 51
265.5455003352711856
  0
ARC
  5
70A5
  8
0
 10
2307.7758844828558722
 20
136.9593860406889121
 30
0.0
 40
0.0337770299944051
 50
186.4239123636974114
 51
263.5516806456794257
  0
ARC
  5
70A6
  8
0
 10
2307.7741830076552105
 20
135.8749940362889106
 30
0.0
 40
0.0319302747660048
 50
183.7066828952926869
 51
265.8986021925032901
  0
LINE
  5
70A7
  8
0
 10
2307.7423195283240602
 20
135.872929785431694
 30
0.0
 11
2307.7423195283240602
 21
137.0639602317538106
 31
0.0
  0
LINE
  5
70A8
  8
0
 10
2309.6154037858241281
 20
131.0124526203316861
 30
0.0
 11
2309.6154037858241281
 21
135.7250510455316999
 31
0.0
  0
LINE
  5
70A9
  8
0
 10
2309.3552206869239853
 20
135.7955736228317107
 30
0.0
 11
2309.3548055331239084
 21
135.8431455337317004
 31
0.0
  0
ARC
  5
70AA
  8
0
 10
2309.5938609186109716
 20
131.0143104481443004
 30
0.0
 40
0.021622827102815
 50
274.9289159316942914
 51
355.0710840683087213
  0
ARC
  5
70AB
  8
0
 10
2309.5750682469611093
 20
137.0596108240877129
 30
0.0
 40
0.0435587476450226
 50
5.730621072714877
 51
84.7674763722874758
  0
ARC
  5
70AC
  8
0
 10
2309.3970849181291669
 20
135.7984347130885112
 30
0.0
 40
0.0419618838046472
 50
183.9096356694815029
 51
266.5903643305380228
  0
ARC
  5
70AD
  8
0
 10
2309.5799780464890318
 20
135.721121369196311
 30
0.0
 40
0.0356430268574493
 50
6.3297799342748533
 51
83.6702200657329769
  0
ARC
  5
70AE
  8
0
 10
2309.5812467173141158
 20
135.2395230811391116
 30
0.0
 40
0.034260565000094
 50
274.4544996647288144
 51
355.5453604434874819
  0
ARC
  5
70AF
  8
0
 10
2309.5848443485920143
 20
136.9593860406889121
 30
0.0
 40
0.0337770299944051
 50
276.4483193543205743
 51
353.5760876363024749
  0
ARC
  5
70B0
  8
0
 10
2309.5865458237940402
 20
135.8749940362889106
 30
0.0
 40
0.0319302747660048
 50
274.1013978074965962
 51
356.2933171047072278
  0
LINE
  5
70B1
  8
0
 10
2309.6184093031238262
 20
135.872929785431694
 30
0.0
 11
2309.6184093031238262
 21
137.0639602317538106
 31
0.0
  0
LINE
  5
70B2
  8
0
 10
2307.7816881193189147
 20
137.1029880533318135
 30
0.0
 11
2309.5790407121289718
 21
137.1029880533318135
 31
0.0
  0
CIRCLE
  5
70B3
  8
0
 10
2308.6803644157239432
 20
136.4061376597317121
 30
0.0
 40
0.1318897636999998
  0
LINE
  5
70B4
  8
0
 10
2308.5484423354741921
 20
134.9101944180179942
 30
0.0
 11
2308.5769899157739928
 21
134.9231585874179871
 31
0.0
  0
LINE
  5
70B5
  8
0
 10
2308.5799432566741416
 20
134.9244997732180025
 30
0.0
 11
2308.6084948050738603
 21
134.9374657445179935
 31
0.0
  0
LINE
  5
70B6
  8
0
 10
2308.6114488209741467
 20
134.9388072369179952
 30
0.0
 11
2308.6429717857740798
 21
134.9531226026180093
 31
0.0
  0
LINE
  5
70B7
  8
0
 10
2308.6459298286740704
 20
134.9544659238179918
 30
0.0
 11
2308.6637261203741218
 21
134.9625476644179969
 31
0.0
  0
LINE
  5
70B8
  8
0
 10
2308.670545217973995
 20
134.9615154235179943
 30
0.0
 11
2308.6527489262739437
 21
134.9534336829179892
 31
0.0
  0
LINE
  5
70B9
  8
0
 10
2308.649790883373953
 20
134.9520903618179943
 30
0.0
 11
2308.6182679186740643
 21
134.9377749961180086
 31
0.0
  0
LINE
  5
70BA
  8
0
 10
2308.615313902773778
 20
134.9364335037180069
 30
0.0
 11
2308.5867623543740592
 21
134.9234675324179875
 31
0.0
  0
LINE
  5
70BB
  8
0
 10
2308.5838090134739105
 20
134.922126346518013
 30
0.0
 11
2308.5552614330740653
 21
134.9091621772180076
 31
0.0
  0
LINE
  5
70BC
  8
0
 10
2308.6064565637739179
 20
134.903481807318002
 30
0.0
 11
2308.6212405208739256
 21
134.9179479586179866
 31
0.0
  0
LINE
  5
70BD
  8
0
 10
2308.6364519512740117
 20
134.9168793043180017
 30
0.0
 11
2308.6216679940739596
 21
134.9024131529180011
 31
0.0
  0
LINE
  5
70BE
  8
0
 10
2308.4297648923738961
 20
134.9671927483180127
 30
0.0
 11
2308.4297648923738961
 21
134.9527280695180025
 31
0.0
  0
LINE
  5
70BF
  8
0
 10
2308.4555059405738575
 20
134.9502618476143994
 30
0.0
 11
2308.4555059405738575
 21
134.9353169878179983
 31
0.0
  0
LINE
  5
70C0
  8
0
 10
2308.480025064774054
 20
134.9692572300180018
 30
0.0
 11
2308.480025064774054
 21
134.9801909618674074
 31
0.0
  0
LINE
  5
70C1
  8
0
 10
2308.4890152620741901
 20
134.9838339876179987
 30
0.0
 11
2308.4890152620741901
 21
134.9960605171449117
 31
0.0
  0
LINE
  5
70C2
  8
0
 10
2308.4929466532739752
 20
134.9386007172631139
 30
0.0
 11
2308.4929466532739752
 21
134.9218983449179916
 31
0.0
  0
LINE
  5
70C3
  8
0
 10
2308.5088888080740617
 20
134.995436017418001
 30
0.0
 11
2308.5088888080740617
 21
135.0103717728507888
 31
0.0
  0
LINE
  5
70C4
  8
0
 10
2308.5100671366740244
 20
134.9671927483180127
 30
0.0
 11
2308.5100671366740244
 21
134.9435761885179943
 31
0.0
  0
LINE
  5
70C5
  8
0
 10
2308.543034843373789
 20
134.9692572300180018
 30
0.0
 11
2308.543034843373789
 21
134.9878833033710919
 31
0.0
  0
LINE
  5
70C6
  8
0
 10
2308.5444727151739244
 20
135.0068812936179938
 30
0.0
 11
2308.5444727151739244
 21
135.0256295639512985
 31
0.0
  0
LINE
  5
70C7
  8
0
 10
2308.5484423354741921
 20
134.9286390663843065
 30
0.0
 11
2308.5484423354741921
 21
134.9101944180179942
 31
0.0
  0
LINE
  5
70C8
  8
0
 10
2308.5634568770738042
 20
134.9871757763179971
 30
0.0
 11
2308.5634568770738042
 21
135.0091132684671038
 31
0.0
  0
LINE
  5
70C9
  8
0
 10
2308.5799432566741416
 20
134.9436701110180934
 30
0.0
 11
2308.5799432566741416
 21
134.9244997732180025
 31
0.0
  0
LINE
  5
70CA
  8
0
 10
2308.5838090134739105
 20
135.014323631718014
 30
0.0
 11
2308.5838090134739105
 21
135.0308727256179964
 31
0.0
  0
LINE
  5
70CB
  8
0
 10
2308.6064559845931399
 20
134.9193175677910972
 30
0.0
 11
2308.6064565637739179
 21
134.903481807318002
 31
0.0
  0
LINE
  5
70CC
  8
0
 10
2308.6114488209741467
 20
134.9671927483180127
 30
0.0
 11
2308.6114488209741467
 21
134.9388072369179952
 31
0.0
  0
LINE
  5
70CD
  8
0
 10
2308.6119888046741835
 20
134.9692572300180018
 30
0.0
 11
2308.6119888046741835
 21
134.9973975212319885
 31
0.0
  0
LINE
  5
70CE
  8
0
 10
2308.615313902773778
 20
135.0000164746180076
 30
0.0
 11
2308.615313902773778
 21
135.0163518532179978
 31
0.0
  0
LINE
  5
70CF
  8
0
 10
2308.6364519512740117
 20
135.0195706740180128
 30
0.0
 11
2308.6364519512740117
 21
135.0348553255994943
 31
0.0
  0
LINE
  5
70D0
  8
0
 10
2308.6459298286740704
 20
134.9671927483180127
 30
0.0
 11
2308.6459298286740704
 21
134.9544659238179918
 31
0.0
  0
LINE
  5
70D1
  8
0
 10
2308.649790883373953
 20
134.9843596165179918
 30
0.0
 11
2308.649790883373953
 21
135.0016974790453901
 31
0.0
  0
LINE
  5
70D2
  8
0
 10
2308.6534974738738129
 20
134.9692572300180018
 30
0.0
 11
2308.6534974738738129
 21
134.978547397740698
 31
0.0
  0
LINE
  5
70D3
  8
0
 10
2308.670545217973995
 20
134.9749345547180042
 30
0.0
 11
2308.6705481419730859
 21
134.984456542868287
 31
0.0
  0
LINE
  5
70D4
  8
0
 10
2308.6768368566740719
 20
134.9006210929179872
 30
0.0
 11
2308.6768368566740719
 21
134.9155908262179935
 31
0.0
  0
LINE
  5
70D5
  8
0
 10
2308.6768368566740719
 20
134.9171394942179916
 30
0.0
 11
2308.6768368566740719
 21
134.9322925872905898
 31
0.0
  0
LINE
  5
70D6
  8
0
 10
2308.6768368566740719
 20
135.0043386699180132
 30
0.0
 11
2308.6768368566740719
 21
135.0193104840180069
 31
0.0
  0
LINE
  5
70D7
  8
0
 10
2308.6768368566740719
 20
135.020859152018005
 30
0.0
 11
2308.6768368566740719
 21
135.0358288853180113
 31
0.0
  0
LINE
  5
70D8
  8
0
 10
2308.6212405208739256
 20
135.0185020196180119
 30
0.0
 11
2308.6064565637739179
 21
135.0329681710180125
 31
0.0
  0
LINE
  5
70D9
  8
0
 10
2308.6216679940739596
 20
135.0340368253179975
 30
0.0
 11
2308.6364519512740117
 21
135.0195706740180128
 31
0.0
  0
LINE
  5
70DA
  8
0
 10
2308.5444727151739244
 20
134.9295686847179923
 30
0.0
 11
2308.5040821931738719
 21
134.9189787269179988
 31
0.0
  0
LINE
  5
70DB
  8
0
 10
2308.4929466532739752
 20
134.9218983449179916
 30
0.0
 11
2308.5333371753740721
 21
134.9324883027180135
 31
0.0
  0
LINE
  5
70DC
  8
0
 10
2308.5634568770738042
 20
134.9492742019180014
 30
0.0
 11
2308.5140041445738461
 21
134.9417882949180125
 31
0.0
  0
LINE
  5
70DD
  8
0
 10
2308.5088888080740617
 20
134.9410139608179975
 30
0.0
 11
2308.459442948474134
 21
134.9335290942179881
 31
0.0
  0
LINE
  5
70DE
  8
0
 10
2308.4555059405738575
 20
134.9353169878179983
 30
0.0
 11
2308.5049518001737852
 21
134.9428018545179953
 31
0.0
  0
LINE
  5
70DF
  8
0
 10
2308.5100671366740244
 20
134.9435761885179943
 30
0.0
 11
2308.5595198691739824
 21
134.9510620955180116
 31
0.0
  0
LINE
  5
70E0
  8
0
 10
2308.4890152620741901
 20
134.9526159906179998
 30
0.0
 11
2308.4338407828740856
 21
134.9487397971180087
 31
0.0
  0
LINE
  5
70E1
  8
0
 10
2308.4297648923738961
 20
134.9527280695180025
 30
0.0
 11
2308.4849393715740007
 21
134.9566042631180096
 31
0.0
  0
LINE
  5
70E2
  8
0
 10
2308.6534974738738129
 20
134.9671927483180127
 30
0.0
 11
2308.6179048903741204
 21
134.9671927483180127
 31
0.0
  0
LINE
  5
70E3
  8
0
 10
2308.6119888046741835
 20
134.9671927483180127
 30
0.0
 11
2308.5489428751739069
 21
134.9671927483180127
 31
0.0
  0
LINE
  5
70E4
  8
0
 10
2308.543034843373789
 20
134.9671927483180127
 30
0.0
 11
2308.4859317465738968
 21
134.9671927483180127
 31
0.0
  0
LINE
  5
70E5
  8
0
 10
2308.480025064774054
 20
134.9671927483180127
 30
0.0
 11
2308.4229299039739089
 21
134.9671927483180127
 31
0.0
  0
LINE
  5
70E6
  8
0
 10
2308.4229299039739089
 20
134.9692572300180018
 30
0.0
 11
2308.480025064774054
 21
134.9692572300180018
 31
0.0
  0
LINE
  5
70E7
  8
0
 10
2308.4859317465738968
 20
134.9692572300180018
 30
0.0
 11
2308.543034843373789
 21
134.9692572300180018
 31
0.0
  0
LINE
  5
70E8
  8
0
 10
2308.5489428751739069
 20
134.9692572300180018
 30
0.0
 11
2308.6119888046741835
 21
134.9692572300180018
 31
0.0
  0
LINE
  5
70E9
  8
0
 10
2308.6179048903741204
 20
134.9692572300180018
 30
0.0
 11
2308.6534974738738129
 21
134.9692572300180018
 31
0.0
  0
LINE
  5
70EA
  8
0
 10
2308.4849393715740007
 20
134.9798457152180049
 30
0.0
 11
2308.4297648923738961
 21
134.983721908717996
 31
0.0
  0
LINE
  5
70EB
  8
0
 10
2308.4338407828740856
 20
134.9877101812180058
 30
0.0
 11
2308.4890152620741901
 21
134.9838339876179987
 31
0.0
  0
LINE
  5
70EC
  8
0
 10
2308.5595198691739824
 20
134.9853878827179869
 30
0.0
 11
2308.5100671366740244
 21
134.9928737897180042
 31
0.0
  0
LINE
  5
70ED
  8
0
 10
2308.5049518001737852
 20
134.9936481238179908
 30
0.0
 11
2308.4555059405738575
 21
135.0011329904180002
 31
0.0
  0
LINE
  5
70EE
  8
0
 10
2308.459442948474134
 20
135.0029208840180104
 30
0.0
 11
2308.5088888080740617
 21
134.995436017418001
 31
0.0
  0
LINE
  5
70EF
  8
0
 10
2308.5140041445738461
 20
134.994661683418002
 30
0.0
 11
2308.5634568770738042
 21
134.9871757763179971
 31
0.0
  0
LINE
  5
70F0
  8
0
 10
2308.5333371753740721
 20
135.0039616755180134
 30
0.0
 11
2308.4929466532739752
 21
135.0145516333180069
 31
0.0
  0
LINE
  5
70F1
  8
0
 10
2308.5040821931738719
 20
135.0174712514179873
 30
0.0
 11
2308.5444727151739244
 21
135.0068812936179938
 31
0.0
  0
LINE
  5
70F2
  8
0
 10
2308.6637261203741218
 20
134.9739023139179892
 30
0.0
 11
2308.6459298286740704
 21
134.9819840544180067
 31
0.0
  0
LINE
  5
70F3
  8
0
 10
2308.6429717857740798
 20
134.9833273756179892
 30
0.0
 11
2308.6114488209741467
 21
134.9976427413180033
 31
0.0
  0
LINE
  5
70F4
  8
0
 10
2308.6084948050738603
 20
134.998984233718005
 30
0.0
 11
2308.5799432566741416
 21
135.011950205017996
 31
0.0
  0
LINE
  5
70F5
  8
0
 10
2308.5769899157739928
 20
135.013291390917999
 30
0.0
 11
2308.5484423354741921
 21
135.0262555602180043
 31
0.0
  0
LINE
  5
70F6
  8
0
 10
2308.5552614330740653
 20
135.0272878011180069
 30
0.0
 11
2308.5838090134739105
 21
135.014323631718014
 31
0.0
  0
LINE
  5
70F7
  8
0
 10
2308.5867623543740592
 20
135.0129824459179986
 30
0.0
 11
2308.615313902773778
 21
135.0000164746180076
 31
0.0
  0
LINE
  5
70F8
  8
0
 10
2308.6182679186740643
 20
134.9986749822180059
 30
0.0
 11
2308.649790883373953
 21
134.9843596165179918
 31
0.0
  0
LINE
  5
70F9
  8
0
 10
2308.6527489262739437
 20
134.9830162953180093
 30
0.0
 11
2308.670545217973995
 21
134.9749345547180042
 31
0.0
  0
ARC
  5
70FA
  8
0
 10
2308.6801992303740008
 20
135.8542196198179965
 30
0.0
 40
0.9536044546999999
 50
266.4810335414002225
 51
269.7979768028934018
  0
ARC
  5
70FB
  8
0
 10
2308.6806263517742082
 20
135.6679038183179955
 30
0.0
 40
0.7523225361
 50
266.633806344293987
 51
269.7113963928113094
  0
ARC
  5
70FC
  8
0
 10
2308.9126274842210478
 20
135.2214497469427101
 30
0.0
 40
0.6112582002824382
 50
191.8512538341070979
 51
196.8311070892588077
  0
ARC
  5
70FD
  8
0
 10
2308.6070039082142102
 20
135.3198980019500937
 30
0.0
 40
0.4221637121261841
 50
242.9850943806424084
 51
265.6840856906130171
  0
ARC
  5
70FE
  8
0
 10
2308.6960709551340187
 20
136.4875462543654976
 30
0.0
 40
1.593203909958248
 50
265.6501984354363799
 51
269.435142613534822
  0
ARC
  5
70FF
  8
0
 10
2308.4898175816820185
 20
135.0371536920978883
 30
0.0
 40
0.1194825737122828
 50
219.8700032251082916
 51
231.3833709678546029
  0
ARC
  5
7100
  8
0
 10
2308.5336964296761835
 20
135.0757382442783978
 30
0.0
 40
0.1779003739812901
 50
202.5635600671085967
 51
220.3483531727927982
  0
ARC
  5
7101
  8
0
 10
2308.5265961035402142
 20
135.0725452482992068
 30
0.0
 40
0.1701185155517916
 50
188.0678038855442935
 51
202.4880719749249067
  0
ARC
  5
7102
  8
0
 10
2308.4103017556290069
 20
135.041085257107909
 30
0.0
 40
0.0526892266126192
 50
105.1387050065110031
 51
171.7233949778647002
  0
ARC
  5
7103
  8
0
 10
2308.5893215488699752
 20
134.6276581567962012
 30
0.0
 40
0.5027198880726828
 50
95.759282566052093
 51
112.5490281829202956
  0
ARC
  5
7104
  8
0
 10
2308.7037213963380964
 20
133.5861576119368124
 30
0.0
 40
1.5504711060423739
 50
90.8631615436175792
 51
96.1032720304307304
  0
ARC
  5
7105
  8
0
 10
2308.4264459683581663
 20
134.9703191056505034
 30
0.0
 40
0.0274295167933807
 50
191.9292605610222893
 51
222.6141788863816089
  0
ARC
  5
7106
  8
0
 10
2308.4241150560660572
 20
134.9675758651692092
 30
0.0
 40
0.0246803506421062
 50
134.7998582280702067
 51
186.8100428273394016
  0
ARC
  5
7107
  8
0
 10
2308.5119332345398107
 20
134.8580146129679065
 30
0.0
 40
0.1649746038620919
 50
101.621457895917203
 51
129.6225335627003119
  0
ARC
  5
7108
  8
0
 10
2308.6481787141487985
 20
134.3456888986935951
 30
0.0
 40
0.6949021128202232
 50
94.0470008763491876
 51
104.1161669664948022
  0
ARC
  5
7109
  8
0
 10
2308.682272782426935
 20
133.9514861842046969
 30
0.0
 40
1.090545618599968
 50
90.100263035113116
 51
94.3721268206044925
  0
ARC
  5
710A
  8
0
 10
2308.6663333012838848
 20
135.6766711391483966
 30
0.0
 40
0.7755043304529511
 50
261.7654742026185204
 51
265.5717821266450756
  0
ARC
  5
710B
  8
0
 10
2308.6698529468130801
 20
135.5231872943716098
 30
0.0
 40
0.607188456329003
 50
261.8532621324432057
 51
265.4078985396650978
  0
ARC
  5
710C
  8
0
 10
2308.6400832107019596
 20
135.3289006607539022
 30
0.0
 40
0.4106183068737481
 50
256.5353622457553229
 51
261.1612378620581012
  0
ARC
  5
710D
  8
0
 10
2308.6281760413548909
 20
135.429243980684987
 30
0.0
 40
0.5251379936345132
 50
256.3313143045343168
 51
261.2667860991393241
  0
ARC
  5
710E
  8
0
 10
2308.584355206779037
 20
135.1181059179920965
 30
0.0
 40
0.1925012691625402
 50
246.9190881487245974
 51
254.6314436096820941
  0
ARC
  5
710F
  8
0
 10
2308.5611029873311963
 20
135.1723014706061861
 30
0.0
 40
0.2595130270845076
 50
246.9375718976494056
 51
254.773727678108088
  0
ARC
  5
7110
  8
0
 10
2308.4940389505809435
 20
135.0217071872451982
 30
0.0
 40
0.094594182787892
 50
230.4773356250705945
 51
245.9614795098279103
  0
ARC
  5
7111
  8
0
 10
2308.4469624375860803
 20
134.9697016245507086
 30
0.0
 40
0.0241631358017502
 50
185.9598045864067046
 51
224.6244338624481998
  0
ARC
  5
7112
  8
0
 10
2308.4507976334148225
 20
134.9649361102337934
 30
0.0
 40
0.0282007521245663
 50
138.2297502189105103
 51
171.1860110262597061
  0
ARC
  5
7113
  8
0
 10
2308.4945024034568632
 20
134.9139947518494012
 30
0.0
 40
0.0954662073134718
 50
114.1096669564100949
 51
129.4515175630708939
  0
ARC
  5
7114
  8
0
 10
2308.5600467472991113
 20
134.7671911279583128
 30
0.0
 40
0.2562999068082793
 50
105.1770749249285046
 51
113.1116254993053047
  0
ARC
  5
7115
  8
0
 10
2308.6285912854468734
 20
134.5051090382499979
 30
0.0
 40
0.5272736969934987
 50
98.7432154017762684
 51
103.6586839459610019
  0
ARC
  5
7116
  8
0
 10
2308.6677855372749946
 20
134.2466903585676903
 30
0.0
 40
0.7886659884528712
 50
94.4599900667655845
 51
98.2027536039747844
  0
ARC
  5
7117
  8
0
 10
2308.6779571627289442
 20
134.1512527751054904
 30
0.0
 40
0.8845768196248007
 50
90.072564444917532
 51
93.648425191667215
  0
ARC
  5
7118
  8
0
 10
2308.6786482730408352
 20
134.3305452634631081
 30
0.0
 40
0.6903162651720169
 50
90.1503464964164039
 51
93.5044505981424834
  0
ARC
  5
7119
  8
0
 10
2308.6696888138299073
 20
134.4147330463827927
 30
0.0
 40
0.6057096747881161
 50
94.5877609125632262
 51
98.1510784153163343
  0
ARC
  5
711A
  8
0
 10
2308.640590928281199
 20
134.6049737631670951
 30
0.0
 40
0.4132413022969317
 50
98.8534511138012562
 51
103.4499487780627049
  0
ARC
  5
711B
  8
0
 10
2308.5860872953580838
 20
134.8133770844073069
 30
0.0
 40
0.1977499975421058
 50
105.4710566902404025
 51
112.9784115513557055
  0
ARC
  5
711C
  8
0
 10
2308.5346405977679751
 20
134.9275921917206063
 30
0.0
 40
0.072421066464076
 50
114.2015043056448036
 51
129.0501875532089002
  0
ARC
  5
711D
  8
0
 10
2308.4984826927961876
 20
134.9671253639959048
 30
0.0
 40
0.0185803359742307
 50
136.7947712409076075
 51
173.4115006443311984
  0
ARC
  5
711E
  8
0
 10
2308.4982758252108397
 20
134.9692286033657069
 30
0.0
 40
0.0183639582415651
 50
186.3649767861303985
 51
223.428751320371191
  0
ARC
  5
711F
  8
0
 10
2308.5360780093960784
 20
135.0111919061338028
 30
0.0
 40
0.0751401361727157
 50
231.2199064686649024
 51
245.5284017991558869
  0
ARC
  5
7120
  8
0
 10
2308.67839380850819
 20
135.5835342826713088
 30
0.0
 40
0.666396607266784
 50
262.0966255496360873
 51
269.866135497697428
  0
ARC
  5
7121
  8
0
 10
2308.675085470230897
 20
135.365375477704589
 30
0.0
 40
0.4330864317013563
 50
262.0671153037370118
 51
270.2317027679220018
  0
ARC
  5
7122
  8
0
 10
2308.6376838338542257
 20
135.1405863222246069
 30
0.0
 40
0.205207135570254
 50
248.7943054554625064
 51
261.8224106169581091
  0
ARC
  5
7123
  8
0
 10
2308.6200200669459264
 20
135.2117457919844128
 30
0.0
 40
0.290028319339179
 50
248.5593994972520022
 51
262.05731659955552
  0
ARC
  5
7124
  8
0
 10
2308.5659964795549968
 20
134.974169908421203
 30
0.0
 40
0.0239982811716214
 50
196.9020139921703958
 51
254.3429871380467944
  0
ARC
  5
7125
  8
0
 10
2308.5214317462991858
 20
134.9793315555075139
 30
0.0
 40
0.0375180039514201
 50
198.877519522923393
 51
252.3674816492952004
  0
ARC
  5
7126
  8
0
 10
2308.5218070744790566
 20
134.9567348489410961
 30
0.0
 40
0.0379980154763608
 50
107.9966789206951034
 51
160.7583196645186945
  0
ARC
  5
7127
  8
0
 10
2308.6225354724629142
 20
134.7151103275512867
 30
0.0
 40
0.2998799921639272
 50
98.1653809510573439
 51
111.217902789538698
  0
ARC
  5
7128
  8
0
 10
2308.6782599850730548
 20
134.3548205534607973
 30
0.0
 40
0.664491454502077
 50
90.1227093482402069
 51
97.9145294778442121
  0
ARC
  5
7129
  8
0
 10
2308.6792161837847743
 20
134.5304450338321089
 30
0.0
 40
0.4738996091158672
 50
90.2876684675476753
 51
97.7495702389301186
  0
ARC
  5
712A
  8
0
 10
2308.6376662527709414
 20
134.7959307109416045
 30
0.0
 40
0.2051382618446802
 50
98.1753928575109285
 51
111.2078910671962007
  0
ARC
  5
712B
  8
0
 10
2308.5675457951738281
 20
134.9606967170923042
 30
0.0
 40
0.0259628416803865
 50
108.006884082108499
 51
160.7481126893337944
  0
ARC
  5
712C
  8
0
 10
2308.5755473436279317
 20
134.9581743952003023
 30
0.0
 40
0.0288205997393536
 50
107.5369138160970977
 51
157.3844665478659977
  0
ARC
  5
712D
  8
0
 10
2308.6384313826538346
 20
134.808372655404014
 30
0.0
 40
0.1911837442271765
 50
98.1134818768851602
 51
111.9837027224084949
  0
ARC
  5
712E
  8
0
 10
2308.579753261427868
 20
134.9819203211912111
 30
0.0
 40
0.0341493968297871
 50
205.5481148317402074
 51
256.9480936349178819
  0
ARC
  5
712F
  8
0
 10
2308.6401417769088766
 20
135.1374353420220871
 30
0.0
 40
0.2006898349632272
 50
250.1637835513130028
 51
261.7801607395028896
  0
ARC
  5
7130
  8
0
 10
2308.724183660629933
 20
136.061402303481799
 30
0.0
 40
1.128608200505216
 50
264.615077044552379
 51
267.7748797109376824
  0
ARC
  5
7131
  8
0
 10
2308.6810387269028979
 20
135.2040638700891861
 30
0.0
 40
0.2539036758215935
 50
262.9307042721475227
 51
269.847835089682178
  0
ARC
  5
7132
  8
0
 10
2308.7002388170371887
 20
135.492037813764
 30
0.0
 40
0.5406937205932991
 50
264.9611382016092875
 51
267.8934915505017784
  0
ARC
  5
7133
  8
0
 10
2308.6806054798980767
 20
135.0594016713374117
 30
0.0
 40
0.0984018616802027
 50
264.1320273017055911
 51
269.8596370705291179
  0
ARC
  5
7134
  8
0
 10
2308.6600358429232074
 20
135.0593137901396119
 30
0.0
 40
0.1075534767514532
 50
250.7676533602987945
 51
260.8710772440807091
  0
ARC
  5
7135
  8
0
 10
2308.6315080146109722
 20
134.9801547829490005
 30
0.0
 40
0.0234310456096205
 50
213.586766413859209
 51
252.8729111738188919
  0
ARC
  5
7136
  8
0
 10
2308.6342519376257769
 20
134.9526706752822065
 30
0.0
 40
0.0277625806952191
 50
107.5890276116509057
 51
143.3130275804792859
  0
ARC
  5
7137
  8
0
 10
2308.6604414680577975
 20
134.8750163220962008
 30
0.0
 40
0.1097108659800879
 50
99.1624282611217609
 51
108.3718788078828936
  0
ARC
  5
7138
  8
0
 10
2308.6610977449799975
 20
135.0486370956155895
 30
0.0
 40
0.0953848797389638
 50
250.4029276521507086
 51
260.8500958334050779
  0
ARC
  5
7139
  8
0
 10
2308.6349916756571474
 20
134.978273216516186
 30
0.0
 40
0.0203650437464736
 50
212.9626721765212096
 51
253.1994075341602013
  0
ARC
  5
713A
  8
0
 10
2308.6386536525628799
 20
134.9533073755575003
 30
0.0
 40
0.0261707659361789
 50
108.2066776371334953
 51
142.4500308817968914
  0
ARC
  5
713B
  8
0
 10
2308.6622289820979859
 20
134.8827858985378043
 30
0.0
 40
0.1005282872249096
 50
99.3308407896936103
 51
108.4123823436535048
  0
ARC
  5
713C
  8
0
 10
2308.6903706461030197
 20
134.5845014590177016
 30
0.0
 40
0.4019120093536649
 50
91.4266157763046579
 51
95.7948448614786656
  0
ARC
  5
713D
  8
0
 10
2308.6840478328940662
 20
134.4785217418964862
 30
0.0
 40
0.5242960905173277
 50
90.4025320767419345
 51
97.2075111677720827
  0
ARC
  5
713E
  8
0
 10
2308.683177494156098
 20
134.7176720169659063
 30
0.0
 40
0.2670832900005178
 50
90.6034840359406957
 51
96.5418629903439864
  0
ARC
  5
713F
  8
0
 10
2308.6806163833039136
 20
134.8768443197994031
 30
0.0
 40
0.0986058951456772
 50
90.1464080275937079
 51
95.8621570865365129
  0
ARC
  5
7140
  8
0
 10
2308.6657593815962173
 20
134.9558405266784007
 30
0.0
 40
0.01817587162926
 50
96.4228908485790015
 51
132.4250801577165078
  0
ARC
  5
7141
  8
0
 10
2308.6653882200062071
 20
134.9797921401128917
 30
0.0
 40
0.0173243908169901
 50
226.6574459265119117
 51
264.4945830671999261
  0
ARC
  5
7142
  8
0
 10
2308.4229114341987952
 20
135.123603127797395
 30
0.0
 40
0.1278570849961929
 50
230.8755125624468008
 51
245.2651572410136964
  0
ARC
  5
7143
  8
0
 10
2308.368772980707945
 20
135.0592468548717875
 30
0.0
 40
0.0437912840840216
 50
199.7361431362137125
 51
232.6945623962708112
  0
ARC
  5
7144
  8
0
 10
2308.358947234119114
 20
135.0513614030986957
 30
0.0
 40
0.0321429932343515
 50
125.4317267354770991
 51
192.4002751990653906
  0
ARC
  5
7145
  8
0
 10
2308.4935945507190809
 20
134.8586687087307041
 30
0.0
 40
0.2672172236890447
 50
99.3864911491642857
 51
125.0031803475996952
  0
ARC
  5
7146
  8
0
 10
2308.6543617217112114
 20
134.1598236864720093
 30
0.0
 40
0.9839382595327016
 50
93.2295170835806744
 51
101.9866803979938936
  0
ARC
  5
7147
  8
0
 10
2308.7772465670550446
 20
130.6660387319734014
 30
0.0
 40
4.479710953644588
 50
91.2392253084640146
 51
92.281273525188027
  0
ARC
  5
7148
  8
0
 10
2308.3522095401340266
 20
135.0989319764508139
 30
0.0
 40
0.0379309168878257
 50
122.7899872138665955
 51
184.5625610712355922
  0
ARC
  5
7149
  8
0
 10
2308.4957275100059633
 20
134.8783039619833062
 30
0.0
 40
0.3011303794191295
 50
111.8664303289805986
 51
123.0119177139484066
  0
LINE
  5
714A
  8
0
 10
2308.8122864959741491
 20
134.9101944180179942
 30
0.0
 11
2308.7837389156738936
 21
134.9231585874179871
 31
0.0
  0
LINE
  5
714B
  8
0
 10
2308.7807855747741996
 20
134.9244997732180025
 30
0.0
 11
2308.7522340263740261
 21
134.9374657445179935
 31
0.0
  0
LINE
  5
714C
  8
0
 10
2308.7492800104741946
 20
134.9388072369179952
 30
0.0
 11
2308.7177570456738067
 21
134.9531226026180093
 31
0.0
  0
LINE
  5
714D
  8
0
 10
2308.714799002773816
 20
134.9544659238179918
 30
0.0
 11
2308.6970027110742194
 21
134.9625476644179969
 31
0.0
  0
LINE
  5
714E
  8
0
 10
2308.6901836134738915
 20
134.9615154235179943
 30
0.0
 11
2308.7079799051739428
 21
134.9534336829179892
 31
0.0
  0
LINE
  5
714F
  8
0
 10
2308.7109379480739335
 20
134.9520903618179943
 30
0.0
 11
2308.7424609127738222
 21
134.9377749961180086
 31
0.0
  0
LINE
  5
7150
  8
0
 10
2308.7454149286741085
 20
134.9364335037180069
 30
0.0
 11
2308.7739664770738273
 21
134.9234675324179875
 31
0.0
  0
LINE
  5
7151
  8
0
 10
2308.776919817973976
 20
134.922126346518013
 30
0.0
 11
2308.8054673983738212
 21
134.9091621772180076
 31
0.0
  0
LINE
  5
7152
  8
0
 10
2308.7542722676739686
 20
134.903481807318002
 30
0.0
 11
2308.7394883105739609
 21
134.9179479586179866
 31
0.0
  0
LINE
  5
7153
  8
0
 10
2308.7242768801738748
 20
134.9168793043180017
 30
0.0
 11
2308.7390608373739269
 21
134.9024131529180011
 31
0.0
  0
LINE
  5
7154
  8
0
 10
2308.9309639390739903
 20
134.9671927483180127
 30
0.0
 11
2308.9309639390739903
 21
134.9527280695180025
 31
0.0
  0
LINE
  5
7155
  8
0
 10
2308.905222890874029
 20
134.9502618476143994
 30
0.0
 11
2308.905222890874029
 21
134.9353169878179983
 31
0.0
  0
LINE
  5
7156
  8
0
 10
2308.8807037666738324
 20
134.9692572300180018
 30
0.0
 11
2308.8807037666738324
 21
134.9801909618674074
 31
0.0
  0
LINE
  5
7157
  8
0
 10
2308.8717135693741511
 20
134.9838339876179987
 30
0.0
 11
2308.8717135693741511
 21
134.9960605171449117
 31
0.0
  0
LINE
  5
7158
  8
0
 10
2308.8677821781739112
 20
134.9386007172631139
 30
0.0
 11
2308.8677821781739112
 21
134.9218983449179916
 31
0.0
  0
LINE
  5
7159
  8
0
 10
2308.8518400233738248
 20
134.995436017418001
 30
0.0
 11
2308.8518400233738248
 21
135.0103717728507888
 31
0.0
  0
LINE
  5
715A
  8
0
 10
2308.8506616947738621
 20
134.9671927483180127
 30
0.0
 11
2308.8506616947738621
 21
134.9435761885179943
 31
0.0
  0
LINE
  5
715B
  8
0
 10
2308.8176939880740974
 20
134.9692572300180018
 30
0.0
 11
2308.8176939880740974
 21
134.9878833033710919
 31
0.0
  0
LINE
  5
715C
  8
0
 10
2308.8162561162739621
 20
135.0068812936179938
 30
0.0
 11
2308.8162561162739621
 21
135.0256295639512985
 31
0.0
  0
LINE
  5
715D
  8
0
 10
2308.8122864959741491
 20
134.9286390663843065
 30
0.0
 11
2308.8122864959741491
 21
134.9101944180179942
 31
0.0
  0
LINE
  5
715E
  8
0
 10
2308.7972719543740823
 20
134.9871757763179971
 30
0.0
 11
2308.7972719543740823
 21
135.0091132684671038
 31
0.0
  0
LINE
  5
715F
  8
0
 10
2308.7807855747741996
 20
134.9436701110180934
 30
0.0
 11
2308.7807855747741996
 21
134.9244997732180025
 31
0.0
  0
LINE
  5
7160
  8
0
 10
2308.776919817973976
 20
135.014323631718014
 30
0.0
 11
2308.776919817973976
 21
135.0308727256179964
 31
0.0
  0
LINE
  5
7161
  8
0
 10
2308.7542728468552014
 20
134.9193175677910972
 30
0.0
 11
2308.7542722676739686
 21
134.903481807318002
 31
0.0
  0
LINE
  5
7162
  8
0
 10
2308.7492800104741946
 20
134.9671927483180127
 30
0.0
 11
2308.7492800104741946
 21
134.9388072369179952
 31
0.0
  0
LINE
  5
7163
  8
0
 10
2308.7487400267741577
 20
134.9692572300180018
 30
0.0
 11
2308.7487400267741577
 21
134.9973975212319885
 31
0.0
  0
LINE
  5
7164
  8
0
 10
2308.7454149286741085
 20
135.0000164746180076
 30
0.0
 11
2308.7454149286741085
 21
135.0163518532179978
 31
0.0
  0
LINE
  5
7165
  8
0
 10
2308.7242768801738748
 20
135.0195706740180128
 30
0.0
 11
2308.7242768801738748
 21
135.0348553255994943
 31
0.0
  0
LINE
  5
7166
  8
0
 10
2308.714799002773816
 20
134.9671927483180127
 30
0.0
 11
2308.714799002773816
 21
134.9544659238179918
 31
0.0
  0
LINE
  5
7167
  8
0
 10
2308.7109379480739335
 20
134.9843596165179918
 30
0.0
 11
2308.7109379480739335
 21
135.0016974790453901
 31
0.0
  0
LINE
  5
7168
  8
0
 10
2308.7072313575740736
 20
134.9692572300180018
 30
0.0
 11
2308.7072313575740736
 21
134.978547397740698
 31
0.0
  0
LINE
  5
7169
  8
0
 10
2308.6901836134738915
 20
134.9749345547180042
 30
0.0
 11
2308.6901806894738911
 21
134.984456542868287
 31
0.0
  0
LINE
  5
716A
  8
0
 10
2308.6838919747738146
 20
134.9006210929179872
 30
0.0
 11
2308.6838919747738146
 21
134.9155908262179935
 31
0.0
  0
LINE
  5
716B
  8
0
 10
2308.6838919747738146
 20
134.9171394942179916
 30
0.0
 11
2308.6838919747738146
 21
134.9322925872905898
 31
0.0
  0
LINE
  5
716C
  8
0
 10
2308.6838919747738146
 20
135.0043386699180132
 30
0.0
 11
2308.6838919747738146
 21
135.0193104840180069
 31
0.0
  0
LINE
  5
716D
  8
0
 10
2308.6838919747738146
 20
135.020859152018005
 30
0.0
 11
2308.6838919747738146
 21
135.0358288853180113
 31
0.0
  0
LINE
  5
716E
  8
0
 10
2308.7394883105739609
 20
135.0185020196180119
 30
0.0
 11
2308.7542722676739686
 21
135.0329681710180125
 31
0.0
  0
LINE
  5
716F
  8
0
 10
2308.7390608373739269
 20
135.0340368253179975
 30
0.0
 11
2308.7242768801738748
 21
135.0195706740180128
 31
0.0
  0
LINE
  5
7170
  8
0
 10
2308.8162561162739621
 20
134.9295686847179923
 30
0.0
 11
2308.8566466382740145
 21
134.9189787269179988
 31
0.0
  0
LINE
  5
7171
  8
0
 10
2308.8677821781739112
 20
134.9218983449179916
 30
0.0
 11
2308.8273916560738144
 21
134.9324883027180135
 31
0.0
  0
LINE
  5
7172
  8
0
 10
2308.7972719543740823
 20
134.9492742019180014
 30
0.0
 11
2308.8467246868740403
 21
134.9417882949180125
 31
0.0
  0
LINE
  5
7173
  8
0
 10
2308.8518400233738248
 20
134.9410139608179975
 30
0.0
 11
2308.9012858829742072
 21
134.9335290942179881
 31
0.0
  0
LINE
  5
7174
  8
0
 10
2308.905222890874029
 20
134.9353169878179983
 30
0.0
 11
2308.8557770312741013
 21
134.9428018545179953
 31
0.0
  0
LINE
  5
7175
  8
0
 10
2308.8506616947738621
 20
134.9435761885179943
 30
0.0
 11
2308.801208962273904
 21
134.9510620955180116
 31
0.0
  0
LINE
  5
7176
  8
0
 10
2308.8717135693741511
 20
134.9526159906179998
 30
0.0
 11
2308.9268880485738009
 21
134.9487397971180087
 31
0.0
  0
LINE
  5
7177
  8
0
 10
2308.9309639390739903
 20
134.9527280695180025
 30
0.0
 11
2308.8757894598738858
 21
134.9566042631180096
 31
0.0
  0
LINE
  5
7178
  8
0
 10
2308.7072313575740736
 20
134.9671927483180127
 30
0.0
 11
2308.7428239410742208
 21
134.9671927483180127
 31
0.0
  0
LINE
  5
7179
  8
0
 10
2308.7487400267741577
 20
134.9671927483180127
 30
0.0
 11
2308.8117859562739795
 21
134.9671927483180127
 31
0.0
  0
LINE
  5
717A
  8
0
 10
2308.8176939880740974
 20
134.9671927483180127
 30
0.0
 11
2308.8747970848739897
 21
134.9671927483180127
 31
0.0
  0
LINE
  5
717B
  8
0
 10
2308.8807037666738324
 20
134.9671927483180127
 30
0.0
 11
2308.9377989274739775
 21
134.9671927483180127
 31
0.0
  0
LINE
  5
717C
  8
0
 10
2308.9377989274739775
 20
134.9692572300180018
 30
0.0
 11
2308.8807037666738324
 21
134.9692572300180018
 31
0.0
  0
LINE
  5
717D
  8
0
 10
2308.8747970848739897
 20
134.9692572300180018
 30
0.0
 11
2308.8176939880740974
 21
134.9692572300180018
 31
0.0
  0
LINE
  5
717E
  8
0
 10
2308.8117859562739795
 20
134.9692572300180018
 30
0.0
 11
2308.7487400267741577
 21
134.9692572300180018
 31
0.0
  0
LINE
  5
717F
  8
0
 10
2308.7428239410742208
 20
134.9692572300180018
 30
0.0
 11
2308.7072313575740736
 21
134.9692572300180018
 31
0.0
  0
LINE
  5
7180
  8
0
 10
2308.8757894598738858
 20
134.9798457152180049
 30
0.0
 11
2308.9309639390739903
 21
134.983721908717996
 31
0.0
  0
LINE
  5
7181
  8
0
 10
2308.9268880485738009
 20
134.9877101812180058
 30
0.0
 11
2308.8717135693741511
 21
134.9838339876179987
 31
0.0
  0
LINE
  5
7182
  8
0
 10
2308.801208962273904
 20
134.9853878827179869
 30
0.0
 11
2308.8506616947738621
 21
134.9928737897180042
 31
0.0
  0
LINE
  5
7183
  8
0
 10
2308.8557770312741013
 20
134.9936481238179908
 30
0.0
 11
2308.905222890874029
 21
135.0011329904180002
 31
0.0
  0
LINE
  5
7184
  8
0
 10
2308.9012858829742072
 20
135.0029208840180104
 30
0.0
 11
2308.8518400233738248
 21
134.995436017418001
 31
0.0
  0
LINE
  5
7185
  8
0
 10
2308.8467246868740403
 20
134.994661683418002
 30
0.0
 11
2308.7972719543740823
 21
134.9871757763179971
 31
0.0
  0
LINE
  5
7186
  8
0
 10
2308.8273916560738144
 20
135.0039616755180134
 30
0.0
 11
2308.8677821781739112
 21
135.0145516333180069
 31
0.0
  0
LINE
  5
7187
  8
0
 10
2308.8566466382740145
 20
135.0174712514179873
 30
0.0
 11
2308.8162561162739621
 21
135.0068812936179938
 31
0.0
  0
LINE
  5
7188
  8
0
 10
2308.6970027110742194
 20
134.9739023139179892
 30
0.0
 11
2308.714799002773816
 21
134.9819840544180067
 31
0.0
  0
LINE
  5
7189
  8
0
 10
2308.7177570456738067
 20
134.9833273756179892
 30
0.0
 11
2308.7492800104741946
 21
134.9976427413180033
 31
0.0
  0
LINE
  5
718A
  8
0
 10
2308.7522340263740261
 20
134.998984233718005
 30
0.0
 11
2308.7807855747741996
 21
135.011950205017996
 31
0.0
  0
LINE
  5
718B
  8
0
 10
2308.7837389156738936
 20
135.013291390917999
 30
0.0
 11
2308.8122864959741491
 21
135.0262555602180043
 31
0.0
  0
LINE
  5
718C
  8
0
 10
2308.8054673983738212
 20
135.0272878011180069
 30
0.0
 11
2308.776919817973976
 21
135.014323631718014
 31
0.0
  0
LINE
  5
718D
  8
0
 10
2308.7739664770738273
 20
135.0129824459179986
 30
0.0
 11
2308.7454149286741085
 21
135.0000164746180076
 31
0.0
  0
LINE
  5
718E
  8
0
 10
2308.7424609127738222
 20
134.9986749822180059
 30
0.0
 11
2308.7109379480739335
 21
134.9843596165179918
 31
0.0
  0
LINE
  5
718F
  8
0
 10
2308.7079799051739428
 20
134.9830162953180093
 30
0.0
 11
2308.6901836134738915
 21
134.9749345547180042
 31
0.0
  0
ARC
  5
7190
  8
0
 10
2308.6805296010738857
 20
135.8542196198179965
 30
0.0
 40
0.9536044546999999
 50
270.2020231971064845
 51
273.5189664585997775
  0
ARC
  5
7191
  8
0
 10
2308.6801024796741331
 20
135.6679038183179955
 30
0.0
 40
0.7523225361
 50
270.2886036071888043
 51
273.366193655706013
  0
ARC
  5
7192
  8
0
 10
2308.4481013472268387
 20
135.2214497469427101
 30
0.0
 40
0.6112582002824382
 50
343.1688929107396007
 51
348.1487461658928737
  0
ARC
  5
7193
  8
0
 10
2308.7537249232332215
 20
135.3198980019500937
 30
0.0
 40
0.4221637121261841
 50
274.3159143093869829
 51
297.0149056193575916
  0
ARC
  5
7194
  8
0
 10
2308.6646578763129583
 20
136.4875462543649007
 30
0.0
 40
1.593203909957674
 50
270.564857386465178
 51
274.3498015645636201
  0
ARC
  5
7195
  8
0
 10
2308.870911249765868
 20
135.0371536920978883
 30
0.0
 40
0.1194825737122828
 50
308.6166290321453971
 51
320.1299967748917084
  0
ARC
  5
7196
  8
0
 10
2308.8270324017721578
 20
135.0757382442783978
 30
0.0
 40
0.1779003739812901
 50
319.6516468272071734
 51
337.4364399328914033
  0
ARC
  5
7197
  8
0
 10
2308.834132727908127
 20
135.0725452482992068
 30
0.0
 40
0.1701185155517916
 50
337.5119280250743259
 51
351.9321961144556212
  0
ARC
  5
7198
  8
0
 10
2308.9504270758188795
 20
135.041085257107909
 30
0.0
 40
0.0526892266126192
 50
8.2766050221344312
 51
74.8612949934889826
  0
ARC
  5
7199
  8
0
 10
2308.7714072825779112
 20
134.6276581567962012
 30
0.0
 40
0.5027198880726828
 50
67.4509718170796759
 51
84.2407174339479212
  0
ARC
  5
719A
  8
0
 10
2308.6570074351097901
 20
133.5861576119368124
 30
0.0
 40
1.5504711060423739
 50
83.8967279695692838
 51
89.1368384563824065
  0
ARC
  5
719B
  8
0
 10
2308.9342828630901749
 20
134.9703191056505034
 30
0.0
 40
0.0274295167933807
 50
317.3858211136184195
 51
348.0707394389760907
  0
ARC
  5
719C
  8
0
 10
2308.9366137753831936
 20
134.9675758651692092
 30
0.0
 40
0.0246803506421062
 50
353.1899571726605132
 51
45.2001417719297933
  0
ARC
  5
719D
  8
0
 10
2308.8487955969080758
 20
134.8580146129679065
 30
0.0
 40
0.1649746038620919
 50
50.3774664372996526
 51
78.3785421040828112
  0
ARC
  5
719E
  8
0
 10
2308.712550117299088
 20
134.3456888986935951
 30
0.0
 40
0.6949021128202232
 50
75.883833033505141
 51
85.9529991236508124
  0
ARC
  5
719F
  8
0
 10
2308.6784560490209515
 20
133.9514861842046969
 30
0.0
 40
1.090545618599968
 50
85.6278731793954933
 51
89.899736964886884
  0
ARC
  5
71A0
  8
0
 10
2308.6943955301640017
 20
135.6766711391483966
 30
0.0
 40
0.7755043304529511
 50
274.4282178733549244
 51
278.2345257973814796
  0
ARC
  5
71A1
  8
0
 10
2308.6908758846348064
 20
135.5231872943716098
 30
0.0
 40
0.607188456329003
 50
274.5921014603350159
 51
278.1467378675567943
  0
ARC
  5
71A2
  8
0
 10
2308.7206456207459269
 20
135.3289006607539022
 30
0.0
 40
0.4106183068737481
 50
278.8387621379420125
 51
283.4646377542446771
  0
ARC
  5
71A3
  8
0
 10
2308.7325527900920861
 20
135.429243980684987
 30
0.0
 40
0.5251379936345132
 50
278.7332139008606759
 51
283.6686856954656832
  0
ARC
  5
71A4
  8
0
 10
2308.7763736246688495
 20
135.1181059179920965
 30
0.0
 40
0.1925012691625402
 50
285.3685563903177922
 51
293.0809118512755163
  0
ARC
  5
71A5
  8
0
 10
2308.7996258441157806
 20
135.1723014706061861
 30
0.0
 40
0.2595130270845076
 50
285.2262723218918836
 51
293.0624281023222011
  0
ARC
  5
71A6
  8
0
 10
2308.866689880866943
 20
135.0217071872451982
 30
0.0
 40
0.094594182787892
 50
294.0385204901721181
 51
309.5226643749294908
  0
ARC
  5
71A7
  8
0
 10
2308.9137663938618061
 20
134.9697016245507086
 30
0.0
 40
0.0241631358017502
 50
315.3755661375519139
 51
354.0401954135933238
  0
ARC
  5
71A8
  8
0
 10
2308.909931198033064
 20
134.9649361102337934
 30
0.0
 40
0.0282007521245663
 50
8.8139889737403116
 51
41.7702497810895181
  0
ARC
  5
71A9
  8
0
 10
2308.8662264279910232
 20
134.9139947518494012
 30
0.0
 40
0.0954662073134718
 50
50.548482436929099
 51
65.8903330435614691
  0
ARC
  5
71AA
  8
0
 10
2308.8006820841487752
 20
134.7671911279583128
 30
0.0
 40
0.2562999068082793
 50
66.8883745006946953
 51
74.8229250750715096
  0
ARC
  5
71AB
  8
0
 10
2308.7321375460001036
 20
134.5051090382499979
 30
0.0
 40
0.5272736969934987
 50
76.3413160540390408
 51
81.2567845982237458
  0
ARC
  5
71AC
  8
0
 10
2308.6929432941728919
 20
134.2466903585676903
 30
0.0
 40
0.7886659884528712
 50
81.7972463960252441
 51
85.5400099332344297
  0
ARC
  5
71AD
  8
0
 10
2308.6827716687189422
 20
134.1512527751054904
 30
0.0
 40
0.8845768196248007
 50
86.3515748083328134
 51
89.9274355550824538
  0
ARC
  5
71AE
  8
0
 10
2308.6820805584070513
 20
134.3305452634631081
 30
0.0
 40
0.6903162651720169
 50
86.4955494018575308
 51
89.8496535035835535
  0
ARC
  5
71AF
  8
0
 10
2308.6910400176179792
 20
134.4147330463827927
 30
0.0
 40
0.6057096747881161
 50
81.8489215846836942
 51
85.4122390874367738
  0
ARC
  5
71B0
  8
0
 10
2308.7201379031671422
 20
134.6049737631670951
 30
0.0
 40
0.4132413022969317
 50
76.5500512219372382
 51
81.1465488861987865
  0
ARC
  5
71B1
  8
0
 10
2308.7746415360898027
 20
134.8133770844073069
 30
0.0
 40
0.1977499975421058
 50
67.0215884486443088
 51
74.5289433097595833
  0
ARC
  5
71B2
  8
0
 10
2308.8260882336808208
 20
134.9275921917206063
 30
0.0
 40
0.072421066464076
 50
50.9498124467910927
 51
65.7984956943551964
  0
ARC
  5
71B3
  8
0
 10
2308.8622461386530631
 20
134.9671253639959048
 30
0.0
 40
0.0185803359742307
 50
6.5884993556687519
 51
43.2052287590923427
  0
ARC
  5
71B4
  8
0
 10
2308.8624530062370468
 20
134.9692286033657069
 30
0.0
 40
0.0183639582415651
 50
316.571248679628809
 51
353.6350232138696015
  0
ARC
  5
71B5
  8
0
 10
2308.8246508220508986
 20
135.0111919061338028
 30
0.0
 40
0.0751401361727157
 50
294.4715982008439141
 51
308.7800935313350124
  0
ARC
  5
71B6
  8
0
 10
2308.6823350229401512
 20
135.5835342826713088
 30
0.0
 40
0.666396607266784
 50
270.133864502302572
 51
277.9033744503639127
  0
ARC
  5
71B7
  8
0
 10
2308.6856433612169894
 20
135.365375477704589
 30
0.0
 40
0.4330864317013563
 50
269.7682972320779982
 51
277.9328846962629882
  0
ARC
  5
71B8
  8
0
 10
2308.7230449975950251
 20
135.1405863222246069
 30
0.0
 40
0.205207135570254
 50
278.1775893830420046
 51
291.2056945445372094
  0
ARC
  5
71B9
  8
0
 10
2308.7407087645019601
 20
135.2117457919844128
 30
0.0
 40
0.290028319339179
 50
277.94268340044448
 51
291.4406005027481115
  0
ARC
  5
71BA
  8
0
 10
2308.7947323518928897
 20
134.974169908421203
 30
0.0
 40
0.0239982811716214
 50
285.6570128619530919
 51
343.0979860078294905
  0
ARC
  5
71BB
  8
0
 10
2308.8392970851477912
 20
134.9793315555075139
 30
0.0
 40
0.0375180039514201
 50
287.6325183507049132
 51
341.1224804770765218
  0
ARC
  5
71BC
  8
0
 10
2308.8389217569688299
 20
134.9567348489410961
 30
0.0
 40
0.0379980154763608
 50
19.2416803354812913
 51
72.0033210793048966
  0
ARC
  5
71BD
  8
0
 10
2308.7381933589849723
 20
134.7151103275512867
 30
0.0
 40
0.2998799921639272
 50
68.7820972104613162
 51
81.8346190489426846
  0
ARC
  5
71BE
  8
0
 10
2308.6824688463748316
 20
134.3548205534607973
 30
0.0
 40
0.664491454502077
 50
82.0854705221557737
 51
89.8772906517598074
  0
ARC
  5
71BF
  8
0
 10
2308.6815126476622027
 20
134.5304450338321089
 30
0.0
 40
0.4738996091158672
 50
82.2504297610698956
 51
89.7123315324523247
  0
ARC
  5
71C0
  8
0
 10
2308.7230625786760356
 20
134.7959307109416045
 30
0.0
 40
0.2051382618446802
 50
68.7921089328037851
 51
81.8246071424890857
  0
ARC
  5
71C1
  8
0
 10
2308.7931830362740584
 20
134.9606967170923042
 30
0.0
 40
0.0259628416803865
 50
19.2518873106662092
 51
71.9931159179188143
  0
ARC
  5
71C2
  8
0
 10
2308.7851814878199548
 20
134.9581743952003023
 30
0.0
 40
0.0288205997393536
 50
22.6155334521339988
 51
72.4630861839028597
  0
ARC
  5
71C3
  8
0
 10
2308.7222974487931424
 20
134.808372655404014
 30
0.0
 40
0.1911837442271765
 50
68.0162972775914767
 51
81.8865181231148256
  0
ARC
  5
71C4
  8
0
 10
2308.7809755700200185
 20
134.9819203211912111
 30
0.0
 40
0.0341493968297871
 50
283.0519063650821181
 51
334.4518851682590252
  0
ARC
  5
71C5
  8
0
 10
2308.7205870545390098
 20
135.1374353420220871
 30
0.0
 40
0.2006898349632272
 50
278.2198392604969968
 51
289.8362164486870256
  0
ARC
  5
71C6
  8
0
 10
2308.6365451708179535
 20
136.061402303481799
 30
0.0
 40
1.128608200505216
 50
272.2251202890622039
 51
275.384922955447621
  0
ARC
  5
71C7
  8
0
 10
2308.6796901045449886
 20
135.2040638700891861
 30
0.0
 40
0.2539036758215935
 50
270.152164910317822
 51
277.0692957278524773
  0
ARC
  5
71C8
  8
0
 10
2308.6604900144111525
 20
135.492037813764
 30
0.0
 40
0.5406937205932991
 50
272.1065084494982216
 51
275.0388617983907125
  0
ARC
  5
71C9
  8
0
 10
2308.6801233515498097
 20
135.0594016713374117
 30
0.0
 40
0.0984018616802027
 50
270.1403629294708821
 51
275.8679726982944089
  0
ARC
  5
71CA
  8
0
 10
2308.7006929885242243
 20
135.0593137901396119
 30
0.0
 40
0.1075534767514532
 50
279.1289227559192909
 51
289.2323466397011771
  0
ARC
  5
71CB
  8
0
 10
2308.7292208168360048
 20
134.9801547829490005
 30
0.0
 40
0.0234310456096205
 50
287.1270888261537948
 51
326.413233586140791
  0
ARC
  5
71CC
  8
0
 10
2308.7264768938221096
 20
134.9526706752822065
 30
0.0
 40
0.0277625806952191
 50
36.6869724195206786
 51
72.4109723883490943
  0
ARC
  5
71CD
  8
0
 10
2308.700287363390089
 20
134.8750163220962008
 30
0.0
 40
0.1097108659800879
 50
71.6281211921170922
 51
80.8375717388782533
  0
ARC
  5
71CE
  8
0
 10
2308.6996310864669795
 20
135.0486370956155895
 30
0.0
 40
0.0953848797389638
 50
279.1499041665949221
 51
289.5970723478492914
  0
ARC
  5
71CF
  8
0
 10
2308.7257371557911938
 20
134.978273216516186
 30
0.0
 40
0.0203650437464736
 50
286.8005924658398271
 51
327.0373278234786767
  0
ARC
  5
71D0
  8
0
 10
2308.7220751788850066
 20
134.9533073755575003
 30
0.0
 40
0.0261707659361789
 50
37.5499691182031015
 51
71.7933223628667179
  0
ARC
  5
71D1
  8
0
 10
2308.6984998493499006
 20
134.8827858985378043
 30
0.0
 40
0.1005282872249096
 50
71.587617656346481
 51
80.6691592103064039
  0
ARC
  5
71D2
  8
0
 10
2308.6703581853448668
 20
134.5845014590177016
 30
0.0
 40
0.4019120093536649
 50
84.2051551385213202
 51
88.5733842236953564
  0
ARC
  5
71D3
  8
0
 10
2308.6766809985538202
 20
134.4785217418964862
 30
0.0
 40
0.5242960905173277
 50
82.7924888322279315
 51
89.5974679232580513
  0
ARC
  5
71D4
  8
0
 10
2308.6775513372931528
 20
134.7176720169659063
 30
0.0
 40
0.2670832900005178
 50
83.4581370096560278
 51
89.3965159640593185
  0
ARC
  5
71D5
  8
0
 10
2308.6801124481439729
 20
134.8768443197994031
 30
0.0
 40
0.0986058951456772
 50
84.1378429134634445
 51
89.8535919724062779
  0
ARC
  5
71D6
  8
0
 10
2308.6949694498521239
 20
134.9558405266784007
 30
0.0
 40
0.01817587162926
 50
47.5749198422834709
 51
83.5771091514210127
  0
ARC
  5
71D7
  8
0
 10
2308.6953406114421341
 20
134.9797921401128917
 30
0.0
 40
0.0173243908169901
 50
275.5054169328000739
 51
313.342554073488202
  0
ARC
  5
71D8
  8
0
 10
2308.9378173972490913
 20
135.123603127797395
 30
0.0
 40
0.1278570849961929
 50
294.7348427589859057
 51
309.1244874375532277
  0
ARC
  5
71D9
  8
0
 10
2308.991955850740851
 20
135.0592468548717875
 30
0.0
 40
0.0437912840840216
 50
307.3054376037292172
 51
340.2638568637863159
  0
ARC
  5
71DA
  8
0
 10
2309.0017815973292272
 20
135.0513614030986957
 30
0.0
 40
0.0321429932343515
 50
347.5997248009337
 51
54.5682732645228796
  0
ARC
  5
71DB
  8
0
 10
2308.8671342807288056
 20
134.8586687087307041
 30
0.0
 40
0.2672172236890447
 50
54.9968196524002906
 51
80.6135088508357143
  0
ARC
  5
71DC
  8
0
 10
2308.7063671097380393
 20
134.1598236864720093
 30
0.0
 40
0.9839382595327016
 50
78.0133196020061064
 51
86.7704829164193399
  0
ARC
  5
71DD
  8
0
 10
2308.5834822643919324
 20
130.6660387319734014
 30
0.0
 40
4.479710953644588
 50
87.7187264748119446
 51
88.7607746915359854
  0
ARC
  5
71DE
  8
0
 10
2309.0085192913138599
 20
135.0989319764508139
 30
0.0
 40
0.0379309168878257
 50
355.4374389287643226
 51
57.2100127861333903
  0
ARC
  5
71DF
  8
0
 10
2308.8650013334818141
 20
134.8783039851728063
 30
0.0
 40
0.3011303534136652
 50
56.9880818032644711
 51
68.1335701537683036
  0
ARC
  5
71E0
  8
0
 10
2308.5719573595870315
 20
136.0298423580568965
 30
0.0
 40
1.109114837143784
 50
255.8389939651914062
 51
263.7885002466737205
  0
ARC
  5
71E1
  8
0
 10
2308.3705877594979938
 20
135.3015958991095999
 30
0.0
 40
0.3541461330065777
 50
226.9269030517340866
 51
258.6044485806694979
  0
ARC
  5
71E2
  8
0
 10
2307.8155750232040191
 20
134.8263417841135947
 30
0.0
 40
0.3807400405561866
 50
34.6650224980233972
 51
84.5583861161102419
  0
ARC
  5
71E3
  8
0
 10
2308.1673518215161494
 20
135.0677362276537963
 30
0.0
 40
0.0459188499574619
 50
151.8017707178470062
 51
212.745759314063406
  0
ARC
  5
71E4
  8
0
 10
2308.2990841944219937
 20
134.9114088119700909
 30
0.0
 40
0.2476818649768945
 50
100.3217858949238064
 51
134.0473572671091063
  0
ARC
  5
71E5
  8
0
 10
2308.5724246566269358
 20
133.8118988108197129
 30
0.0
 40
1.380249155877969
 50
93.2640820242857131
 51
103.3082423853634992
  0
ARC
  5
71E6
  8
0
 10
2308.715655547246115
 20
131.3705428325187938
 30
0.0
 40
3.8258019258969771
 50
90.5285327382449339
 51
93.3238696769182354
  0
ARC
  5
71E7
  8
0
 10
2308.5149882659839022
 20
135.5769977548224006
 30
0.0
 40
0.6410078369433787
 50
243.4847624469879861
 51
261.0484309516003805
  0
ARC
  5
71E8
  8
0
 10
2308.2651907661847872
 20
135.0779372432407968
 30
0.0
 40
0.0829252887959679
 50
205.9323215563283895
 51
243.9851675697753137
  0
ARC
  5
71E9
  8
0
 10
2308.2278287953549807
 20
135.0551218340247885
 30
0.0
 40
0.0395692018608033
 50
133.2904506691178881
 51
199.8692554202403073
  0
ARC
  5
71EA
  8
0
 10
2308.3327085358992008
 20
134.9455746801145892
 30
0.0
 40
0.19122680524949
 50
108.7612333484057956
 51
133.6573240524041069
  0
ARC
  5
71EB
  8
0
 10
2308.505591233270934
 20
134.4989262375044063
 30
0.0
 40
0.6700467895272905
 50
100.4923146204388047
 51
110.4754179977040991
  0
ARC
  5
71EC
  8
0
 10
2308.6432598051369496
 20
133.8068083706641005
 30
0.0
 40
1.375693573232768
 50
93.7703243676272535
 51
100.8808779932489017
  0
ARC
  5
71ED
  8
0
 10
2308.6979085771608879
 20
132.8269439995179084
 30
0.0
 40
2.357051530848044
 50
90.4264716635540253
 51
93.5296103474109657
  0
ARC
  5
71EE
  8
0
 10
2308.3890855737158745
 20
135.2752930252875956
 30
0.0
 40
0.268538109867515
 50
225.4495987587141883
 51
265.7989757966117281
  0
ARC
  5
71EF
  8
0
 10
2308.7887714718599454
 20
136.0298423580568965
 30
0.0
 40
1.109114837143784
 50
276.2114997533262795
 51
284.1610060348086222
  0
ARC
  5
71F0
  8
0
 10
2308.9901410719489832
 20
135.3015958991095999
 30
0.0
 40
0.3541461330065777
 50
281.3955514193305021
 51
313.0730969482659134
  0
ARC
  5
71F1
  8
0
 10
2309.5451539684340787
 20
134.8263416114963036
 30
0.0
 40
0.3807402704924039
 50
95.4416348031244297
 51
145.3349698477987033
  0
ARC
  5
71F2
  8
0
 10
2309.1933770099331014
 20
135.0677362276537963
 30
0.0
 40
0.0459188499574619
 50
327.2542406859366224
 51
28.198229282153001
  0
ARC
  5
71F3
  8
0
 10
2309.0616446370258927
 20
134.9114088119700909
 30
0.0
 40
0.2476818649768945
 50
45.9526427328908582
 51
79.678214105076151
  0
ARC
  5
71F4
  8
0
 10
2308.7883041748209507
 20
133.8118988108197129
 30
0.0
 40
1.380249155877969
 50
76.6917576146364723
 51
86.7359179757142869
  0
ARC
  5
71F5
  8
0
 10
2308.6450732842022262
 20
131.3705428325187938
 30
0.0
 40
3.8258019258969771
 50
86.6761303230817646
 51
89.4714672617550946
  0
ARC
  5
71F6
  8
0
 10
2308.8457405654639842
 20
135.5769977548224006
 30
0.0
 40
0.6410078369433787
 50
278.9515690483996195
 51
296.5152375530120139
  0
ARC
  5
71F7
  8
0
 10
2309.0955380652630993
 20
135.0779372432407968
 30
0.0
 40
0.0829252887959679
 50
296.0148324302243168
 51
334.0676784436716957
  0
ARC
  5
71F8
  8
0
 10
2309.1329000360929058
 20
135.0551218340247885
 30
0.0
 40
0.0395692018608033
 50
340.1307445797597211
 51
46.7095493308820409
  0
ARC
  5
71F9
  8
0
 10
2309.0280202955491404
 20
134.9455746801145892
 30
0.0
 40
0.19122680524949
 50
46.3426759475958292
 51
71.2387666515942044
  0
ARC
  5
71FA
  8
0
 10
2308.8551375981778619
 20
134.4989262375044063
 30
0.0
 40
0.6700467895272905
 50
69.5245820022958725
 51
79.5076853795611953
  0
ARC
  5
71FB
  8
0
 10
2308.7174690263109369
 20
133.8068083706641005
 30
0.0
 40
1.375693573232768
 50
79.1191220067510983
 51
86.2296756323727465
  0
ARC
  5
71FC
  8
0
 10
2308.6628202542869985
 20
132.8269439995179084
 30
0.0
 40
2.357051530848044
 50
86.4703896525890485
 51
89.5735283364459747
  0
ARC
  5
71FD
  8
0
 10
2308.971643257732012
 20
135.2752930252875956
 30
0.0
 40
0.268538109867515
 50
274.2010242033882719
 51
314.550401241285897
  0
ENDSEC
  0
EOF
