  0
SECTION
  2
HEADER
  9
$ACADVER
  1
AC1009
  9
$INSBASE
 10
4544.4572676419156778
 20
277.671530577720489
 30
0.0
  9
$EXTMIN
 10
4543.4730156734149205
 20
273.9904282154204793
 30
0.0
  9
$EXTMAX
 10
4549.7301022876163188
 20
277.676216611843472
 30
0.0
  9
$LIMMIN
 10
0.0
 20
0.0
  9
$LIMMAX
 10
11.6929133858000007
 20
8.2677165353999982
  9
$ORTHOMODE
 70
     1
  9
$REGENMODE
 70
     1
  9
$FILLMODE
 70
     1
  9
$QTEXTMODE
 70
     0
  9
$MIRRTEXT
 70
     0
  9
$DRAGMODE
 70
     2
  9
$LTSCALE
 40
0.6431102362
  9
$OSMODE
 70
  4095
  9
$ATTMODE
 70
     1
  9
$TEXTSIZE
 40
0.2
  9
$TRACEWID
 40
0.05
  9
$TEXTSTYLE
  7
STANDARD
  9
$CLAYER
  8
0
  9
$CELTYPE
  6
BYLAYER
  9
$CECOLOR
 62
   256
  9
$DIMSCALE
 40
1.0
  9
$DIMASZ
 40
0.1875
  9
$DIMEXO
 40
0.0625
  9
$DIMDLI
 40
0.4443307087
  9
$DIMRND
 40
0.0
  9
$DIMDLE
 40
0.0
  9
$DIMEXE
 40
0.125
  9
$DIMTP
 40
0.01
  9
$DIMTM
 40
0.01
  9
$DIMTXT
 40
2.0
  9
$DIMCEN
 40
0.1052362205
  9
$DIMTSZ
 40
0.0
  9
$DIMTOL
 70
     1
  9
$DIMLIM
 70
     0
  9
$DIMTIH
 70
     1
  9
$DIMTOH
 70
     1
  9
$DIMSE1
 70
     0
  9
$DIMSE2
 70
     0
  9
$DIMTAD
 70
     0
  9
$DIMZIN
 70
     0
  9
$DIMBLK
  1

  9
$DIMASO
 70
     1
  9
$DIMSHO
 70
     1
  9
$DIMPOST
  1
\X
  9
$DIMAPOST
  1

  9
$DIMALT
 70
     1
  9
$DIMALTD
 70
     2
  9
$DIMALTF
 40
25.3999999999999986
  9
$DIMLFAC
 40
1.0
  9
$DIMTOFL
 70
     0
  9
$DIMTVP
 40
0.0
  9
$DIMTIX
 70
     0
  9
$DIMSOXD
 70
     0
  9
$DIMSAH
 70
     0
  9
$DIMBLK1
  1

  9
$DIMBLK2
  1

  9
$DIMSTYLE
  2
STANDARD
  9
$DIMCLRD
 70
     0
  9
$DIMCLRE
 70
     0
  9
$DIMCLRT
 70
     0
  9
$DIMTFAC
 40
1.0
  9
$DIMGAP
 40
0.09
  9
$LUNITS
 70
     2
  9
$LUPREC
 70
     4
  9
$SKETCHINC
 40
0.1
  9
$FILLETRAD
 40
0.0
  9
$AUNITS
 70
     0
  9
$AUPREC
 70
     0
  9
$MENU
  1
.
  9
$ELEVATION
 40
0.0
  9
$PELEVATION
 40
0.0
  9
$THICKNESS
 40
0.0
  9
$LIMCHECK
 70
     0
  9
$BLIPMODE
 70
     0
  9
$CHAMFERA
 40
0.0
  9
$CHAMFERB
 40
0.0
  9
$SKPOLY
 70
     0
  9
$TDCREATE
 40
2458060.468368056230247
  9
$TDUPDATE
 40
2459585.6531018521636724
  9
$TDINDWG
 40
0.5298565972
  9
$TDUSRTIMER
 40
0.5298565972
  9
$USRTIMER
 70
     1
  9
$ANGBASE
 50
0.0
  9
$ANGDIR
 70
     0
  9
$PDMODE
 70
     0
  9
$PDSIZE
 40
0.3125
  9
$PLINEWID
 40
0.0
  9
$COORDS
 70
     1
  9
$SPLFRAME
 70
     0
  9
$SPLINETYPE
 70
     6
  9
$SPLINESEGS
 70
     8
  9
$ATTDIA
 70
     1
  9
$ATTREQ
 70
     1
  9
$HANDLING
 70
     1
  9
$HANDSEED
  5
20E3E
  9
$SURFTAB1
 70
     6
  9
$SURFTAB2
 70
     6
  9
$SURFTYPE
 70
     6
  9
$SURFU
 70
     6
  9
$SURFV
 70
     6
  9
$UCSNAME
  2

  9
$UCSORG
 10
0.0
 20
0.0
 30
0.0
  9
$UCSXDIR
 10
1.0
 20
0.0
 30
0.0
  9
$UCSYDIR
 10
0.0
 20
1.0
 30
0.0
  9
$PUCSNAME
  2

  9
$PUCSORG
 10
0.0
 20
0.0
 30
0.0
  9
$PUCSXDIR
 10
1.0
 20
0.0
 30
0.0
  9
$PUCSYDIR
 10
0.0
 20
1.0
 30
0.0
  9
$USERI1
 70
     0
  9
$USERI2
 70
     0
  9
$USERI3
 70
     0
  9
$USERI4
 70
     0
  9
$USERI5
 70
     0
  9
$USERR1
 40
0.0
  9
$USERR2
 40
0.0
  9
$USERR3
 40
0.0
  9
$USERR4
 40
0.0
  9
$USERR5
 40
0.0
  9
$WORLDVIEW
 70
     1
  9
$SHADEDGE
 70
     3
  9
$SHADEDIF
 70
    70
  9
$TILEMODE
 70
     1
  9
$MAXACTVP
 70
    64
  9
$PLIMCHECK
 70
     0
  9
$PEXTMIN
 10
1.0000000000000000E+20
 20
1.0000000000000000E+20
 30
1.0000000000000000E+20
  9
$PEXTMAX
 10
-1.0000000000000000E+20
 20
-1.0000000000000000E+20
 30
-1.0000000000000000E+20
  9
$PLIMMIN
 10
0.0
 20
0.0
  9
$PLIMMAX
 10
12.0
 20
9.0
  9
$UNITMODE
 70
     0
  9
$VISRETAIN
 70
     1
  9
$PLINEGEN
 70
     0
  9
$PSLTSCALE
 70
     1
  0
ENDSEC
  0
SECTION
  2
TABLES
  0
TABLE
  2
VPORT
 70
     1
  0
VPORT
  2
*ACTIVE
 70
     0
 10
0.0
 20
0.0
 11
1.0
 21
1.0
 12
0.0
 22
0.0
 13
0.0
 23
0.0
 14
1.0
 24
1.0
 15
0.0
 25
0.0
 16
0.0
 26
0.0
 36
23.5186662303819602
 17
4546.6015625
 27
275.8333170461560826
 37
0.0
 40
7.261756756159941
 41
2.4949494949494939
 42
50.0
 43
0.0
 44
0.0
 50
0.0
 51
0.0
 71
     0
 72
   100
 73
     1
 74
     1
 75
     0
 76
     0
 77
     0
 78
     0
  0
ENDTAB
  0
TABLE
  2
LTYPE
 70
     2
  0
LTYPE
  2
CONTINUOUS
 70
     0
  3
Solid line
 72
    65
 73
     0
 40
0.0
  0
LTYPE
  2
PHANTOM2
 70
     0
  3
___ _ _ ___ _ _ ___ _ _ ___ _ _
 72
    65
 73
     6
 40
1.25
 49
0.625
 49
-0.125
 49
0.125
 49
-0.125
 49
0.125
 49
-0.125
  0
ENDTAB
  0
TABLE
  2
LAYER
 70
     2
  0
LAYER
  2
0
 70
     0
 62
   255
  6
CONTINUOUS
  0
LAYER
  2
DEFPOINTS
 70
     0
 62
     7
  6
CONTINUOUS
  0
ENDTAB
  0
TABLE
  2
STYLE
 70
     1
  0
STYLE
  2
STANDARD
 70
     0
 40
0.0
 41
0.8
 50
0.0
 71
     0
 42
0.2
  3
txt
  4

  0
ENDTAB
  0
TABLE
  2
VIEW
 70
     0
  0
ENDTAB
  0
TABLE
  2
UCS
 70
     0
  0
ENDTAB
  0
TABLE
  2
APPID
 70
    11
  0
APPID
  2
ACAD
 70
     0
  0
APPID
  2
ACAD_MLEADERVER
 70
     0
  0
APPID
  2
ACAD_EXEMPT_FROM_CAD_STANDARDS
 70
     0
  0
APPID
  2
ACAD_NAV_VCDISPLAY
 70
     0
  0
APPID
  2
ACAECLAYERSTANDARD
 70
     0
  0
APPID
  2
ACCMTRANSPARENCY
 70
     0
  0
APPID
  2
ACAD_DSTYLE_DIMJAG
 70
     0
  0
APPID
  2
ACAD_DSTYLE_DIMTALN
 70
     0
  0
APPID
  2
ACDBATTR
 70
     0
  0
APPID
  2
ACADANNOTATIVE
 70
     0
  0
APPID
  2
DCO15
 70
     0
  0
ENDTAB
  0
TABLE
  2
DIMSTYLE
 70
     1
  0
DIMSTYLE
  2
STANDARD
 70
     0
  3

  4

  5

  6

  7

 40
1.0
 41
0.1875
 42
0.0625
 43
0.38
 44
0.125
 45
0.0
 46
0.0
 47
0.01
 48
0.01
140
0.15625
141
0.09
142
0.0
143
25.3999999999999986
144
1.0
145
0.0
146
1.0
147
0.09
 71
     1
 72
     0
 73
     1
 74
     1
 75
     0
 76
     0
 77
     0
 78
     4
170
     0
171
     2
172
     0
173
     0
174
     0
175
     0
176
     0
177
     0
178
     0
  0
ENDTAB
  0
ENDSEC
  0
SECTION
  2
BLOCKS
  0
BLOCK
  8
0
  2
$MODEL_SPACE
 70
     0
 10
0.0
 20
0.0
 30
0.0
  3
$MODEL_SPACE
  1

  0
ENDBLK
  5
21
  8
0
  0
BLOCK
 67
     1
  8
0
  2
$PAPER_SPACE
 70
     0
 10
0.0
 20
0.0
 30
0.0
  3
$PAPER_SPACE
  1

  0
ENDBLK
  5
1D
 67
     1
  8
0
  0
ENDSEC
  0
SECTION
  2
ENTITIES
  0
LINE
  5
20BD1
  8
0
 10
4543.4730156734149205
 20
277.3171998690204987
 30
0.0
 11
4543.4730156734149205
 21
277.671530577720489
 31
0.0
  0
LINE
  5
20BD2
  8
0
 10
4544.1360077994158928
 20
274.7778297903204816
 30
0.0
 11
4544.1360077994158928
 21
274.1282234911205933
 31
0.0
  0
LINE
  5
20BD3
  8
0
 10
4544.8568739411157367
 20
277.2778297903204816
 30
0.0
 11
4544.8568739411157367
 21
274.7778297903204816
 31
0.0
  0
LINE
  5
20BD4
  8
0
 10
4549.7104172482158901
 20
273.9904282155205237
 30
0.0
 11
4549.4545117364150428
 21
273.9904282155205237
 31
0.0
  0
LINE
  5
20BD5
  8
0
 10
4549.4545117364150428
 20
274.1282234911205933
 30
0.0
 11
4544.0769526812146069
 21
274.128223491020492
 31
0.0
  0
LINE
  5
20BD6
  8
0
 10
4545.4415196104164352
 20
277.671530577720489
 30
0.0
 11
4545.4415196104164352
 21
277.3171998690204987
 31
0.0
  0
LINE
  5
20BD7
  8
0
 10
4544.0572676419151321
 20
274.7778297903204816
 30
0.0
 11
4549.4545117364150428
 21
274.7778297903204816
 31
0.0
  0
LINE
  5
20BD8
  8
0
 10
4549.4545117364150428
 20
274.9156250659204943
 30
0.0
 11
4549.7104172482158901
 21
274.9156250659204943
 31
0.0
  0
LINE
  5
20BD9
  8
0
 10
4545.4021495316146684
 20
277.2778297903204816
 30
0.0
 11
4543.5123857521148238
 21
277.2778297903204816
 31
0.0
  0
LINE
  5
20BDA
  8
0
 10
4545.4415196104164352
 20
277.671530577720489
 30
0.0
 11
4543.4730156734149205
 21
277.671530577720489
 31
0.0
  0
LINE
  5
20BDB
  8
0
 10
4549.4545117364150428
 20
273.9904282155205237
 30
0.0
 11
4549.4545117364150428
 21
274.9156250659204943
 31
0.0
  0
ARC
  5
20BDC
  8
0
 10
4543.5123857521148238
 20
277.3171998690204987
 30
0.0
 40
0.0393700787
 50
180.0
 51
270.0
  0
ARC
  5
20BDD
  8
0
 10
4545.4021495316146684
 20
277.3171998690204987
 30
0.0
 40
0.0393700787
 50
270.0
 51
0.0
  0
ARC
  5
20BDE
  8
0
 10
4544.0769526812146069
 20
274.7581447509205077
 30
0.0
 40
0.0196850394
 50
90.0
 51
180.0
  0
ARC
  5
20BDF
  8
0
 10
4544.0769526812146069
 20
274.1479085304205228
 30
0.0
 40
0.0196850394
 50
180.0
 51
270.0
  0
ARC
  5
20BE0
  8
0
 10
4549.7104172482158901
 20
274.0101132548205101
 30
0.0
 40
0.0196850394
 50
270.0
 51
0.0057752683951234
  0
ARC
  5
20BE1
  8
0
 10
4549.7104172482158901
 20
274.8959400265205204
 30
0.0
 40
0.0196850394
 50
0.0057752683951234
 51
90.0
  0
LINE
  5
20BE2
  8
0
 10
4549.7301022875153649
 20
274.0101112706187791
 30
0.0
 11
4549.7301022875153649
 21
274.8959420107221945
 31
0.0
  0
LINE
  5
20BE3
  8
0
 10
4544.0572676419151321
 20
277.2778297903204816
 30
0.0
 11
4544.0572676419151321
 21
274.7778297903204816
 31
0.0
  0
LINE
  5
20BE4
  8
0
 10
4544.0572676419151321
 20
274.7581447509205077
 30
0.0
 11
4544.0572676419151321
 21
274.1479085304205228
 31
0.0
  0
ATTDEF
  5
20BE6
  8
DEFPOINTS
 10
4544.4579122671766527
 20
277.6752166118436094
 30
0.0
 40
0.001
  1
K-23292BR
  3

  2
MODELNUMBER
 70
     0
1001
ACDBATTR
1070
     0
1070
     1
  0
ATTDEF
  5
20BE7
  8
DEFPOINTS
 10
4544.4579122671766527
 20
277.6735497714644225
 30
0.0
 40
0.001
  1
SQUARE
  3

  2
TRADENAME
 70
     0
1001
ACDBATTR
1070
     0
1070
     1
  0
ATTDEF
  5
20BE8
  8
DEFPOINTS
 10
4544.4579122671766527
 20
277.6718832785102222
 30
0.0
 40
0.001
  1
TOILET TISSUE HOLDER
  3

  2
PRODUCT
 70
     0
1001
ACDBATTR
1070
     0
1070
     1
  0
ENDSEC
  0
EOF
