  0
SECTION
  2
HEADER
  9
$ACADVER
  1
AC1009
  9
$INSBASE
 10
4505.0540975240237458
 20
277.9771107292872898
 30
0.0
  9
$EXTMIN
 10
4495.0698455555248074
 20
274.9062445875873095
 30
0.0
  9
$EXTMAX
 10
4515.0383494925235937
 20
277.9771107292872898
 30
0.0
  9
$LIMMIN
 10
0.0
 20
0.0
  9
$LIMMAX
 10
11.6929133858000007
 20
8.2677165353999982
  9
$ORTHOMODE
 70
     1
  9
$REGENMODE
 70
     1
  9
$FILLMODE
 70
     1
  9
$QTEXTMODE
 70
     0
  9
$MIRRTEXT
 70
     0
  9
$DRAGMODE
 70
     2
  9
$LTSCALE
 40
0.6431102362
  9
$OSMODE
 70
  4095
  9
$ATTMODE
 70
     1
  9
$TEXTSIZE
 40
0.2
  9
$TRACEWID
 40
0.05
  9
$TEXTSTYLE
  7
STANDARD
  9
$CLAYER
  8
0
  9
$CELTYPE
  6
BYLAYER
  9
$CECOLOR
 62
   256
  9
$DIMSCALE
 40
1.0
  9
$DIMASZ
 40
0.1875
  9
$DIMEXO
 40
0.0625
  9
$DIMDLI
 40
0.4443307087
  9
$DIMRND
 40
0.0
  9
$DIMDLE
 40
0.0
  9
$DIMEXE
 40
0.125
  9
$DIMTP
 40
0.01
  9
$DIMTM
 40
0.01
  9
$DIMTXT
 40
2.0
  9
$DIMCEN
 40
0.1052362205
  9
$DIMTSZ
 40
0.0
  9
$DIMTOL
 70
     1
  9
$DIMLIM
 70
     0
  9
$DIMTIH
 70
     1
  9
$DIMTOH
 70
     1
  9
$DIMSE1
 70
     0
  9
$DIMSE2
 70
     0
  9
$DIMTAD
 70
     0
  9
$DIMZIN
 70
     0
  9
$DIMBLK
  1

  9
$DIMASO
 70
     1
  9
$DIMSHO
 70
     1
  9
$DIMPOST
  1
\X
  9
$DIMAPOST
  1

  9
$DIMALT
 70
     1
  9
$DIMALTD
 70
     2
  9
$DIMALTF
 40
25.3999999999999986
  9
$DIMLFAC
 40
1.0
  9
$DIMTOFL
 70
     0
  9
$DIMTVP
 40
0.0
  9
$DIMTIX
 70
     0
  9
$DIMSOXD
 70
     0
  9
$DIMSAH
 70
     0
  9
$DIMBLK1
  1

  9
$DIMBLK2
  1

  9
$DIMSTYLE
  2
STANDARD
  9
$DIMCLRD
 70
     0
  9
$DIMCLRE
 70
     0
  9
$DIMCLRT
 70
     0
  9
$DIMTFAC
 40
1.0
  9
$DIMGAP
 40
0.09
  9
$LUNITS
 70
     2
  9
$LUPREC
 70
     4
  9
$SKETCHINC
 40
0.1
  9
$FILLETRAD
 40
0.0
  9
$AUNITS
 70
     0
  9
$AUPREC
 70
     0
  9
$MENU
  1
.
  9
$ELEVATION
 40
0.0
  9
$PELEVATION
 40
0.0
  9
$THICKNESS
 40
0.0
  9
$LIMCHECK
 70
     0
  9
$BLIPMODE
 70
     0
  9
$CHAMFERA
 40
0.0
  9
$CHAMFERB
 40
0.0
  9
$SKPOLY
 70
     0
  9
$TDCREATE
 40
2458060.468368056230247
  9
$TDUPDATE
 40
2459578.79715277813375
  9
$TDINDWG
 40
0.5047987269
  9
$TDUSRTIMER
 40
0.5047987269
  9
$USRTIMER
 70
     1
  9
$ANGBASE
 50
0.0
  9
$ANGDIR
 70
     0
  9
$PDMODE
 70
     0
  9
$PDSIZE
 40
0.3125
  9
$PLINEWID
 40
0.0
  9
$COORDS
 70
     1
  9
$SPLFRAME
 70
     0
  9
$SPLINETYPE
 70
     6
  9
$SPLINESEGS
 70
     8
  9
$ATTDIA
 70
     1
  9
$ATTREQ
 70
     1
  9
$HANDLING
 70
     1
  9
$HANDSEED
  5
20107
  9
$SURFTAB1
 70
     6
  9
$SURFTAB2
 70
     6
  9
$SURFTYPE
 70
     6
  9
$SURFU
 70
     6
  9
$SURFV
 70
     6
  9
$UCSNAME
  2

  9
$UCSORG
 10
0.0
 20
0.0
 30
0.0
  9
$UCSXDIR
 10
1.0
 20
0.0
 30
0.0
  9
$UCSYDIR
 10
0.0
 20
1.0
 30
0.0
  9
$PUCSNAME
  2

  9
$PUCSORG
 10
0.0
 20
0.0
 30
0.0
  9
$PUCSXDIR
 10
1.0
 20
0.0
 30
0.0
  9
$PUCSYDIR
 10
0.0
 20
1.0
 30
0.0
  9
$USERI1
 70
     0
  9
$USERI2
 70
     0
  9
$USERI3
 70
     0
  9
$USERI4
 70
     0
  9
$USERI5
 70
     0
  9
$USERR1
 40
0.0
  9
$USERR2
 40
0.0
  9
$USERR3
 40
0.0
  9
$USERR4
 40
0.0
  9
$USERR5
 40
0.0
  9
$WORLDVIEW
 70
     1
  9
$SHADEDGE
 70
     3
  9
$SHADEDIF
 70
    70
  9
$TILEMODE
 70
     1
  9
$MAXACTVP
 70
    64
  9
$PLIMCHECK
 70
     0
  9
$PEXTMIN
 10
1.0000000000000000E+20
 20
1.0000000000000000E+20
 30
1.0000000000000000E+20
  9
$PEXTMAX
 10
-1.0000000000000000E+20
 20
-1.0000000000000000E+20
 30
-1.0000000000000000E+20
  9
$PLIMMIN
 10
0.0
 20
0.0
  9
$PLIMMAX
 10
12.0
 20
9.0
  9
$UNITMODE
 70
     0
  9
$VISRETAIN
 70
     1
  9
$PLINEGEN
 70
     0
  9
$PSLTSCALE
 70
     1
  0
ENDSEC
  0
SECTION
  2
TABLES
  0
TABLE
  2
VPORT
 70
     1
  0
VPORT
  2
*ACTIVE
 70
     0
 10
0.0
 20
0.0
 11
1.0
 21
1.0
 12
0.0
 22
0.0
 13
0.0
 23
0.0
 14
1.0
 24
1.0
 15
0.0
 25
0.0
 16
0.0
 26
0.0
 36
66.4930085598569462
 17
4505.05419921875
 27
276.441680908203125
 37
0.0
 40
20.2054511346401995
 41
2.5429292929292919
 42
50.0
 43
0.0
 44
0.0
 50
0.0
 51
0.0
 71
     0
 72
   100
 73
     1
 74
     1
 75
     0
 76
     0
 77
     0
 78
     0
  0
ENDTAB
  0
TABLE
  2
LTYPE
 70
     2
  0
LTYPE
  2
CONTINUOUS
 70
     0
  3
Solid line
 72
    65
 73
     0
 40
0.0
  0
LTYPE
  2
PHANTOM2
 70
     0
  3
___ _ _ ___ _ _ ___ _ _ ___ _ _
 72
    65
 73
     6
 40
1.25
 49
0.625
 49
-0.125
 49
0.125
 49
-0.125
 49
0.125
 49
-0.125
  0
ENDTAB
  0
TABLE
  2
LAYER
 70
     2
  0
LAYER
  2
0
 70
     0
 62
   255
  6
CONTINUOUS
  0
LAYER
  2
DEFPOINTS
 70
     0
 62
     7
  6
CONTINUOUS
  0
ENDTAB
  0
TABLE
  2
STYLE
 70
     1
  0
STYLE
  2
STANDARD
 70
     0
 40
0.0
 41
0.8
 50
0.0
 71
     0
 42
0.2
  3
txt
  4

  0
ENDTAB
  0
TABLE
  2
VIEW
 70
     0
  0
ENDTAB
  0
TABLE
  2
UCS
 70
     0
  0
ENDTAB
  0
TABLE
  2
APPID
 70
    11
  0
APPID
  2
ACAD
 70
     0
  0
APPID
  2
ACAD_MLEADERVER
 70
     0
  0
APPID
  2
ACAD_EXEMPT_FROM_CAD_STANDARDS
 70
     0
  0
APPID
  2
ACAD_NAV_VCDISPLAY
 70
     0
  0
APPID
  2
ACAECLAYERSTANDARD
 70
     0
  0
APPID
  2
ACCMTRANSPARENCY
 70
     0
  0
APPID
  2
ACAD_DSTYLE_DIMJAG
 70
     0
  0
APPID
  2
ACAD_DSTYLE_DIMTALN
 70
     0
  0
APPID
  2
ACDBATTR
 70
     0
  0
APPID
  2
ACADANNOTATIVE
 70
     0
  0
APPID
  2
DCO15
 70
     0
  0
ENDTAB
  0
TABLE
  2
DIMSTYLE
 70
     1
  0
DIMSTYLE
  2
STANDARD
 70
     0
  3

  4

  5

  6

  7

 40
1.0
 41
0.1875
 42
0.0625
 43
0.38
 44
0.125
 45
0.0
 46
0.0
 47
0.01
 48
0.01
140
0.15625
141
0.09
142
0.0
143
25.3999999999999986
144
1.0
145
0.0
146
1.0
147
0.09
 71
     1
 72
     0
 73
     1
 74
     1
 75
     0
 76
     0
 77
     0
 78
     4
170
     0
171
     2
172
     0
173
     0
174
     0
175
     0
176
     0
177
     0
178
     0
  0
ENDTAB
  0
ENDSEC
  0
SECTION
  2
BLOCKS
  0
BLOCK
  8
0
  2
$MODEL_SPACE
 70
     0
 10
0.0
 20
0.0
 30
0.0
  3
$MODEL_SPACE
  1

  0
ENDBLK
  5
21
  8
0
  0
BLOCK
 67
     1
  8
0
  2
$PAPER_SPACE
 70
     0
 10
0.0
 20
0.0
 30
0.0
  3
$PAPER_SPACE
  1

  0
ENDBLK
  5
1D
 67
     1
  8
0
  0
ENDSEC
  0
SECTION
  2
ENTITIES
  0
LINE
  5
1FE52
  8
0
 10
4495.0698455555248074
 20
277.6227800206874008
 30
0.0
 11
4495.0698455555248074
 21
277.9771107292872898
 31
0.0
  0
LINE
  5
1FE53
  8
0
 10
4495.6544912247236425
 20
275.5558508867873115
 30
0.0
 11
4495.6544912247236425
 21
277.5834099418872825
 31
0.0
  0
LINE
  5
1FE54
  8
0
 10
4495.6564597287251672
 20
274.9259296269872834
 30
0.0
 11
4495.6564597287251672
 21
275.5361658474873252
 31
0.0
  0
LINE
  5
1FE55
  8
0
 10
4496.4537038232247141
 20
277.5834099418872825
 30
0.0
 11
4496.4537038232247141
 21
275.5558508867873115
 31
0.0
  0
LINE
  5
1FE56
  8
0
 10
4497.0383494925235937
 20
277.9771107292872898
 30
0.0
 11
4497.0383494925235937
 21
277.6227800206874008
 31
0.0
  0
LINE
  5
1FE57
  8
0
 10
4514.4367746893249205
 20
274.9062445875873095
 30
0.0
 11
4495.676144768024642
 21
274.9062445875873095
 31
0.0
  0
LINE
  5
1FE58
  8
0
 10
4495.6544912247236425
 20
275.5558508867873115
 30
0.0
 11
4514.4537038232247141
 21
275.5558508867873115
 31
0.0
  0
LINE
  5
1FE59
  8
0
 10
4514.9989794137236458
 20
277.5834099418872825
 30
0.0
 11
4513.1092156342247108
 21
277.5834099418872825
 31
0.0
  0
LINE
  5
1FE5A
  8
0
 10
4496.9989794137236458
 20
277.5834099418872825
 30
0.0
 11
4495.1092156342247108
 21
277.5834099418872825
 31
0.0
  0
LINE
  5
1FE5B
  8
0
 10
4515.0383494925235937
 20
277.9771107292872898
 30
0.0
 11
4513.0698455555238979
 21
277.9771107292872898
 31
0.0
  0
LINE
  5
1FE5C
  8
0
 10
4497.0383494925235937
 20
277.9771107292872898
 30
0.0
 11
4495.0698455555248074
 21
277.9771107292872898
 31
0.0
  0
LINE
  5
1FE5D
  8
0
 10
4513.0698455555238979
 20
277.6227800206874008
 30
0.0
 11
4513.0698455555238979
 21
277.9771107292872898
 31
0.0
  0
LINE
  5
1FE5E
  8
0
 10
4513.6544912247236425
 20
275.5558508867873115
 30
0.0
 11
4513.6544912247236425
 21
277.5834099418872825
 31
0.0
  0
LINE
  5
1FE5F
  8
0
 10
4514.4537038232247141
 20
277.5834099418872825
 30
0.0
 11
4514.4537038232247141
 21
275.5558508867873115
 31
0.0
  0
LINE
  5
1FE60
  8
0
 10
4514.4564597287262586
 20
274.9259296269872834
 30
0.0
 11
4514.4564597287262586
 21
275.5361658474873252
 31
0.0
  0
LINE
  5
1FE61
  8
0
 10
4515.0383494925235937
 20
277.9771107292872898
 30
0.0
 11
4515.0383494925235937
 21
277.6227800206874008
 31
0.0
  0
ARC
  5
1FE62
  8
0
 10
4513.1092156342247108
 20
277.6227800206874008
 30
0.0
 40
0.0393700787
 50
180.0
 51
270.0
  0
ARC
  5
1FE63
  8
0
 10
4514.9989794137236458
 20
277.6227800206874008
 30
0.0
 40
0.0393700787
 50
270.0
 51
0.0
  0
ARC
  5
1FE64
  8
0
 10
4495.1092156342247108
 20
277.6227800206874008
 30
0.0
 40
0.0393700787
 50
180.0
 51
270.0
  0
ARC
  5
1FE65
  8
0
 10
4496.9989794137236458
 20
277.6227800206874008
 30
0.0
 40
0.0393700787
 50
270.0
 51
0.0
  0
ARC
  5
1FE66
  8
0
 10
4514.4367746893249205
 20
275.5361658474873252
 30
0.0
 40
0.0196850394
 50
0.0
 51
90.0
  0
ARC
  5
1FE67
  8
0
 10
4514.4367746893249205
 20
274.9259296269872834
 30
0.0
 40
0.0196850394
 50
270.0
 51
0.0
  0
ARC
  5
1FE68
  8
0
 10
4495.676144768024642
 20
275.5361658474873252
 30
0.0
 40
0.0196850394
 50
90.0
 51
180.0000000001008971
  0
ARC
  5
1FE69
  8
0
 10
4495.676144768024642
 20
274.9259296269872834
 30
0.0
 40
0.0196850394
 50
179.9999999998989892
 51
270.0
  0
LINE
  5
1FE6B
  8
0
 10
4495.7351998862250184
 20
274.9062445875873095
 30
0.0
 11
4495.7351998862250184
 21
275.5558508867873115
 31
0.0
  0
LINE
  5
1FE6C
  8
0
 10
4514.3777195712236789
 20
274.9062445875873095
 30
0.0
 11
4514.3777195712236789
 21
275.5558508867873115
 31
0.0
  0
ATTDEF
  5
1FE6D
  8
DEFPOINTS
 10
4505.054335158340109
 20
277.976039369152204
 30
0.0
 40
0.001
  1
K-23284BR
  3

  2
MODELNUMBER
 70
     0
1001
ACDBATTR
1070
     0
1070
     1
  0
ATTDEF
  5
1FE6E
  8
DEFPOINTS
 10
4505.054335158340109
 20
277.974372528773074
 30
0.0
 40
0.001
  1
SQUARE
  3

  2
TRADENAME
 70
     0
1001
ACDBATTR
1070
     0
1070
     1
  0
ATTDEF
  5
1FE6F
  8
DEFPOINTS
 10
4505.054335158340109
 20
277.9727060358188737
 30
0.0
 40
0.001
  1
TOWEL BAR
  3

  2
PRODUCT
 70
     0
1001
ACDBATTR
1070
     0
1070
     1
  0
ENDSEC
  0
EOF
