  0
SECTION
  2
HEADER
  9
$ACADVER
  1
AC1009
  9
$INSBASE
 10
9.9132703585078161
 20
8.7723252930247444
 30
0.0
  9
$EXTMIN
 10
5.2064665599567812
 20
3.8143142293384171
 30
0.0
  9
$EXTMAX
 10
10.2537087284229393
 20
9.1127636629398587
 30
0.0
  9
$LIMMIN
 10
0.0
 20
0.0
  9
$LIMMAX
 10
12.0
 20
9.0
  9
$ORTHOMODE
 70
     0
  9
$REGENMODE
 70
     1
  9
$FILLMODE
 70
     1
  9
$QTEXTMODE
 70
     0
  9
$MIRRTEXT
 70
     0
  9
$DRAGMODE
 70
     2
  9
$LTSCALE
 40
1.0
  9
$OSMODE
 70
  4087
  9
$ATTMODE
 70
     1
  9
$TEXTSIZE
 40
0.2
  9
$TRACEWID
 40
0.05
  9
$TEXTSTYLE
  7
STANDARD
  9
$CLAYER
  8
0
  9
$CELTYPE
  6
BYLAYER
  9
$CECOLOR
 62
   256
  9
$DIMSCALE
 40
1.0
  9
$DIMASZ
 40
0.18
  9
$DIMEXO
 40
0.0625
  9
$DIMDLI
 40
0.38
  9
$DIMRND
 40
0.0
  9
$DIMDLE
 40
0.0
  9
$DIMEXE
 40
0.18
  9
$DIMTP
 40
0.0
  9
$DIMTM
 40
0.0
  9
$DIMTXT
 40
0.18
  9
$DIMCEN
 40
0.09
  9
$DIMTSZ
 40
0.0
  9
$DIMTOL
 70
     0
  9
$DIMLIM
 70
     0
  9
$DIMTIH
 70
     1
  9
$DIMTOH
 70
     1
  9
$DIMSE1
 70
     0
  9
$DIMSE2
 70
     0
  9
$DIMTAD
 70
     0
  9
$DIMZIN
 70
     0
  9
$DIMBLK
  1

  9
$DIMASO
 70
     1
  9
$DIMSHO
 70
     1
  9
$DIMPOST
  1

  9
$DIMAPOST
  1

  9
$DIMALT
 70
     0
  9
$DIMALTD
 70
     2
  9
$DIMALTF
 40
25.3999999999999986
  9
$DIMLFAC
 40
1.0
  9
$DIMTOFL
 70
     0
  9
$DIMTVP
 40
0.0
  9
$DIMTIX
 70
     0
  9
$DIMSOXD
 70
     0
  9
$DIMSAH
 70
     0
  9
$DIMBLK1
  1

  9
$DIMBLK2
  1

  9
$DIMSTYLE
  2
STANDARD
  9
$DIMCLRD
 70
     0
  9
$DIMCLRE
 70
     0
  9
$DIMCLRT
 70
     0
  9
$DIMTFAC
 40
1.0
  9
$DIMGAP
 40
0.09
  9
$LUNITS
 70
     2
  9
$LUPREC
 70
     4
  9
$SKETCHINC
 40
0.1
  9
$FILLETRAD
 40
0.0
  9
$AUNITS
 70
     0
  9
$AUPREC
 70
     0
  9
$MENU
  1
.
  9
$ELEVATION
 40
0.0
  9
$PELEVATION
 40
0.0
  9
$THICKNESS
 40
0.0
  9
$LIMCHECK
 70
     0
  9
$BLIPMODE
 70
     0
  9
$CHAMFERA
 40
0.0
  9
$CHAMFERB
 40
0.0
  9
$SKPOLY
 70
     0
  9
$TDCREATE
 40
2458390.617997684981674
  9
$TDUPDATE
 40
2459592.602094906847924
  9
$TDINDWG
 40
0.0099131134
  9
$TDUSRTIMER
 40
0.0099130903
  9
$USRTIMER
 70
     1
  9
$ANGBASE
 50
0.0
  9
$ANGDIR
 70
     0
  9
$PDMODE
 70
     0
  9
$PDSIZE
 40
0.0
  9
$PLINEWID
 40
0.0
  9
$COORDS
 70
     1
  9
$SPLFRAME
 70
     0
  9
$SPLINETYPE
 70
     6
  9
$SPLINESEGS
 70
     8
  9
$ATTDIA
 70
     1
  9
$ATTREQ
 70
     1
  9
$HANDLING
 70
     1
  9
$HANDSEED
  5
1D0C
  9
$SURFTAB1
 70
     6
  9
$SURFTAB2
 70
     6
  9
$SURFTYPE
 70
     6
  9
$SURFU
 70
     6
  9
$SURFV
 70
     6
  9
$UCSNAME
  2

  9
$UCSORG
 10
0.0
 20
0.0
 30
0.0
  9
$UCSXDIR
 10
1.0
 20
0.0
 30
0.0
  9
$UCSYDIR
 10
0.0
 20
1.0
 30
0.0
  9
$PUCSNAME
  2

  9
$PUCSORG
 10
0.0
 20
0.0
 30
0.0
  9
$PUCSXDIR
 10
1.0
 20
0.0
 30
0.0
  9
$PUCSYDIR
 10
0.0
 20
1.0
 30
0.0
  9
$USERI1
 70
     0
  9
$USERI2
 70
     0
  9
$USERI3
 70
     0
  9
$USERI4
 70
     0
  9
$USERI5
 70
     0
  9
$USERR1
 40
0.0
  9
$USERR2
 40
0.0
  9
$USERR3
 40
0.0
  9
$USERR4
 40
0.0
  9
$USERR5
 40
0.0
  9
$WORLDVIEW
 70
     1
  9
$SHADEDGE
 70
     3
  9
$SHADEDIF
 70
    70
  9
$TILEMODE
 70
     1
  9
$MAXACTVP
 70
    64
  9
$PLIMCHECK
 70
     0
  9
$PEXTMIN
 10
0.0
 20
0.0
 30
0.0
  9
$PEXTMAX
 10
0.0
 20
0.0
 30
0.0
  9
$PLIMMIN
 10
0.0
 20
0.0
  9
$PLIMMAX
 10
12.0
 20
9.0
  9
$UNITMODE
 70
     0
  9
$VISRETAIN
 70
     1
  9
$PLINEGEN
 70
     0
  9
$PSLTSCALE
 70
     1
  0
ENDSEC
  0
SECTION
  2
TABLES
  0
TABLE
  2
VPORT
 70
     1
  0
VPORT
  2
*ACTIVE
 70
     0
 10
0.0
 20
0.0
 11
1.0
 21
1.0
 12
0.0
 22
0.0
 13
0.0
 23
0.0
 14
0.5
 24
0.5
 15
0.5
 25
0.5
 16
-0.0000000000000053
 26
0.0
 36
24.4185403822133011
 17
7.7300398349761963
 27
6.4635452032089233
 37
0.0
 40
7.3174492348033642
 41
2.5847619047619039
 42
50.0
 43
0.0
 44
0.0
 50
0.0
 51
0.0
 71
     0
 72
  1000
 73
     1
 74
     3
 75
     0
 76
     1
 77
     0
 78
     0
  0
ENDTAB
  0
TABLE
  2
LTYPE
 70
     1
  0
LTYPE
  2
CONTINUOUS
 70
     0
  3
Solid line
 72
    65
 73
     0
 40
0.0
  0
ENDTAB
  0
TABLE
  2
LAYER
 70
     2
  0
LAYER
  2
0
 70
     0
 62
     7
  6
CONTINUOUS
  0
LAYER
  2
DEFPOINTS
 70
     0
 62
     7
  6
CONTINUOUS
  0
ENDTAB
  0
TABLE
  2
STYLE
 70
     1
  0
STYLE
  2
STANDARD
 70
     0
 40
0.0
 41
1.0
 50
0.0
 71
     0
 42
0.2
  3
txt
  4

  0
ENDTAB
  0
TABLE
  2
VIEW
 70
     0
  0
ENDTAB
  0
TABLE
  2
UCS
 70
     0
  0
ENDTAB
  0
TABLE
  2
APPID
 70
     9
  0
APPID
  2
ACAD
 70
     0
  0
APPID
  2
ACADANNOPO
 70
     0
  0
APPID
  2
ACADANNOTATIVE
 70
     0
  0
APPID
  2
ACAD_DSTYLE_DIMJAG
 70
     0
  0
APPID
  2
ACAD_DSTYLE_DIMTALN
 70
     0
  0
APPID
  2
ACAD_MLEADERVER
 70
     0
  0
APPID
  2
ACAD_NAV_VCDISPLAY
 70
     0
  0
APPID
  2
ACDBATTR
 70
     0
  0
APPID
  2
ACAD_EXEMPT_FROM_CAD_STANDARDS
 70
     0
  0
ENDTAB
  0
TABLE
  2
DIMSTYLE
 70
     1
  0
DIMSTYLE
  2
STANDARD
 70
     0
  3

  4

  5

  6

  7

 40
1.0
 41
0.18
 42
0.0625
 43
0.38
 44
0.18
 45
0.0
 46
0.0
 47
0.0
 48
0.0
140
0.18
141
0.09
142
0.0
143
25.3999999999999986
144
1.0
145
0.0
146
1.0
147
0.09
 71
     0
 72
     0
 73
     1
 74
     1
 75
     0
 76
     0
 77
     0
 78
     0
170
     0
171
     2
172
     0
173
     0
174
     0
175
     0
176
     0
177
     0
178
     0
  0
ENDTAB
  0
ENDSEC
  0
SECTION
  2
BLOCKS
  0
BLOCK
  8
0
  2
$MODEL_SPACE
 70
     0
 10
0.0
 20
0.0
 30
0.0
  3
$MODEL_SPACE
  1

  0
ENDBLK
  5
21
  8
0
  0
BLOCK
 67
     1
  8
0
  2
$PAPER_SPACE
 70
     0
 10
0.0
 20
0.0
 30
0.0
  3
$PAPER_SPACE
  1

  0
ENDBLK
  5
5B
 67
     1
  8
0
  0
BLOCK
  8
0
  2
_FILLED
 70
     0
 10
0.0
 20
0.0
 30
0.0
  3
_FILLED
  1

  0
SOLID
  5
1037
  8
0
  6
BYBLOCK
 62
     0
 10
0.0
 20
0.0
 30
0.0
 11
-1.0
 21
0.1666666667
 31
0.0
 12
-1.0
 22
-0.1666666667
 32
0.0
 13
-1.0
 23
-0.1666666667
 33
0.0
  0
ENDBLK
  5
1038
  8
0
  6
BYBLOCK
 62
     0
  0
ENDSEC
  0
SECTION
  2
ENTITIES
  0
ATTDEF
  5
F43
  8
DEFPOINTS
 10
9.9012300056505183
 20
8.7705400257288595
 30
0.0
 40
0.001
  1
K-22170BR
  3

  2
MODELNUMBER
 70
     0
1001
ACDBATTR
1070
     0
1070
     1
  0
ATTDEF
  5
F44
  8
DEFPOINTS
 10
9.9013185906375156
 20
8.7688733590621943
 30
0.0
 40
0.001
  1
PURIST
  3

  2
TRADENAME
 70
     0
1001
ACDBATTR
1070
     0
1070
     1
  0
ATTDEF
  5
F45
  8
DEFPOINTS
 10
9.9012300056505183
 20
8.7672066923955292
 30
0.0
 40
0.001
  1
SHOWERHEAD
  3

  2
PRODUCT
 70
     0
1001
ACDBATTR
1070
     0
1070
     1
  0
LINE
  5
1A86
  8
0
 10
10.2491460795578302
 20
8.4364495719747321
 30
0.0
 11
9.5773946374578287
 21
9.1082010140747176
 31
0.0
  0
LINE
  5
1A87
  8
0
 10
10.2491460796078293
 20
8.4081653007247272
 30
0.0
 11
10.1742931111413597
 21
8.3333124888565262
 31
0.0
  0
ARC
  5
1A88
  8
0
 10
10.1672220282938799
 20
8.3403835864972944
 30
0.0
 40
0.0100000317240085
 50
270.0009726726814279
 51
314.9999400663102733
  0
LINE
  5
1A89
  8
0
 10
10.1672221980578303
 20
8.3303835547747287
 30
0.0
 11
10.1189379147647802
 21
8.3303827350842763
 31
0.0
  0
ARC
  5
1A8A
  8
0
 10
10.1189380845682706
 20
8.3203803746550324
 30
0.0
 40
0.010002360430687
 50
90.0009726726869133
 51
134.9877566147850985
  0
LINE
  5
1A8B
  8
0
 10
10.1118668591959597
 20
8.3274546227365942
 30
0.0
 11
9.6142926145834906
 21
7.830092983373242
 31
0.0
  0
ARC
  5
1A8C
  8
0
 10
9.564622191507766
 20
8.0342457780679482
 30
0.0
 40
0.2101083399348563
 50
246.732359311044803
 51
283.6743901075927852
  0
ARC
  5
1A8D
  8
0
 10
9.4548814485946906
 20
7.776535229361369
 30
0.0
 40
0.0700000000330842
 50
67.5403104135328221
 51
185.5465201869677969
  0
ARC
  5
1A8E
  8
0
 10
8.8596812545578842
 20
7.7187361890747201
 30
0.0
 40
0.5279999999999438
 50
348.8470315465655744
 51
5.5465202009016226
  0
ARC
  5
1A8F
  8
0
 10
10.2295103107699408
 20
8.4223074363150214
 30
0.0
 40
0.024198417652999
 50
324.2376926383922182
 51
35.7623075641628674
  0
LINE
  5
1A90
  8
0
 10
9.5491103662077848
 20
9.1082010141247434
 30
0.0
 11
9.4742575543395873
 21
9.0333480456582702
 31
0.0
  0
ARC
  5
1A91
  8
0
 10
9.4813286519803555
 20
9.0262769628107922
 30
0.0
 40
0.0100000317240085
 50
135.0000599336921141
 51
179.999027327320988
  0
LINE
  5
1A92
  8
0
 10
9.4713286202577933
 20
9.0262771325747391
 30
0.0
 11
9.4713278005673445
 21
8.9779928492816961
 31
0.0
  0
ARC
  5
1A93
  8
0
 10
9.4613254401380971
 20
8.9779930190851776
 30
0.0
 40
0.010002360430687
 50
315.0122433852171753
 51
359.9990273273155026
  0
LINE
  5
1A94
  8
0
 10
9.4683996882196624
 20
8.9709217937128738
 30
0.0
 11
8.9710380488563288
 21
8.4733475491003798
 31
0.0
  0
ARC
  5
1A95
  8
0
 10
9.1751908435510359
 20
8.4236771260246623
 30
0.0
 40
0.2101083399348563
 50
166.3256098924094033
 51
203.2676406889576128
  0
ARC
  5
1A96
  8
0
 10
8.9174802948444594
 20
8.3139363831115727
 30
0.0
 40
0.0700000000330842
 50
264.4534798130343916
 51
22.4596895864696009
  0
ARC
  5
1A97
  8
0
 10
8.8596812545428776
 20
7.7187361890762238
 30
0.0
 40
0.5279999999999438
 50
84.4534797991007338
 51
101.1529684521845951
  0
ARC
  5
1A98
  8
0
 10
9.5632525017980825
 20
9.0885652452868602
 30
0.0
 40
0.024198417652999
 50
54.2376924358394703
 51
125.7623073616100982
  0
LINE
  5
1A99
  8
0
 10
8.9821706927136375
 20
8.3406787171189034
 30
0.0
 11
9.4816237826020142
 21
7.8412256272305436
 31
0.0
  0
LINE
  5
1A9A
  8
0
 10
8.9107145208950413
 20
8.2442641195664788
 30
0.0
 11
9.3852091850495967
 21
7.7697694554119439
 31
0.0
  0
LINE
  5
1A9B
  8
0
 10
8.5520729608773731
 20
8.4422422681203297
 30
0.0
 11
9.5831873336078104
 21
7.4111278953898481
 31
0.0
  0
LINE
  5
1A9C
  8
0
 10
6.1123763342228186
 20
8.8129444529748397
 30
0.0
 11
9.953889518507637
 21
4.9714312687900382
 31
0.0
  0
LINE
  5
1A9D
  8
0
 10
5.2132355872657739
 20
7.8651222874317313
 30
0.0
 11
9.006067353210323
 21
4.0722905215874912
 31
0.0
  0
LINE
  5
1A9E
  8
0
 10
8.5797729349633531
 20
4.4985849398231821
 30
0.0
 11
8.5690881511015888
 21
4.4497055024868351
 31
0.0
  0
ARC
  5
1A9F
  8
0
 10
8.7644844312529528
 20
4.384740303216355
 30
0.0
 40
0.205913048185981
 50
161.6091067730669977
 51
203.5012209497085109
  0
LINE
  5
1AA0
  8
0
 10
8.5756515456897802
 20
4.3026286430021674
 30
0.0
 11
8.7641478932707493
 21
3.8330113792545588
 31
0.0
  0
ARC
  5
1AA1
  8
0
 10
8.7910719856059387
 20
3.8430482922271358
 30
0.0
 40
0.028734062888719
 50
200.4447290027468966
 51
286.5239146109548756
  0
ARC
  5
1AA2
  8
0
 10
8.6376706309238251
 20
4.3642768454620731
 30
0.0
 40
0.5720673956170406
 50
286.405786774558976
 51
308.0262329799971894
  0
ARC
  5
1AA3
  8
0
 10
8.9773908812153138
 20
3.928695040598682
 30
0.0
 40
0.0196850461191991
 50
310.1242188312240273
 51
33.6900458529936131
  0
ARC
  5
1AA4
  8
0
 10
12.7901005296243095
 20
6.5199958512445901
 30
0.0
 40
4.5902609435890191
 50
210.5870107189585099
 51
214.2041071710710014
  0
ARC
  5
1AA5
  8
0
 10
10.2350431408963995
 20
5.0097208576506631
 30
0.0
 40
1.6222230705206531
 50
208.3369463775372026
 51
210.5870107189585099
  0
ARC
  5
1AA6
  8
0
 10
8.9048078573816376
 20
4.2854521354047828
 30
0.0
 40
0.1077809707997379
 50
182.2349294930494921
 51
205.1049084319778046
  0
ARC
  5
1AA7
  8
0
 10
8.5663447419823022
 20
4.52189385582881
 30
0.0
 40
0.0101424492004813
 50
240.1778756055124973
 51
271.4600745466402145
  0
ARC
  5
1AA8
  8
0
 10
9.4396860031735166
 20
5.7104042986928087
 30
0.0
 40
1.4849616879563621
 50
228.5292738264190007
 51
233.7350222993393913
  0
ARC
  5
1AA9
  8
0
 10
8.4629107563917181
 20
4.6060112476967996
 30
0.0
 40
0.0106022519765065
 50
151.5363146901626976
 51
231.3498770336798032
  0
ARC
  5
1AAA
  8
0
 10
24.2188323766323492
 20
-5.298211736830698
 30
0.0
 40
18.6208650504918616
 50
147.8179198568531092
 51
147.8484989291258103
  0
ARC
  5
1AAB
  8
0
 10
8.2480104429571988
 20
4.2320018097538048
 30
0.0
 40
0.4162766134161277
 50
48.4444562774638285
 51
53.8274221009337808
  0
ARC
  5
1AAC
  8
0
 10
8.7505873967731986
 20
4.8556523076339326
 30
0.0
 40
0.3856299885841607
 50
228.2303831052228986
 51
234.0414952731688061
  0
LINE
  5
1AAD
  8
0
 10
8.3287912988249442
 20
4.7495665759549546
 30
0.0
 11
8.3074570479061798
 21
4.7286850782370244
 31
0.0
  0
ARC
  5
1AAE
  8
0
 10
8.3003625769694693
 20
4.7359333716853209
 30
0.0
 40
0.0101424492004813
 50
240.1778756055124973
 51
314.3855408490500167
  0
ARC
  5
1AAF
  8
0
 10
9.1737038381606908
 20
5.9244438145493197
 30
0.0
 40
1.4849616879563621
 50
228.5292738264190007
 51
233.7350222993393913
  0
ARC
  5
1AB0
  8
0
 10
8.1969285913788994
 20
4.8200507635533114
 30
0.0
 40
0.0106022519765065
 50
151.5363146901626976
 51
231.3498770336798032
  0
ARC
  5
1AB1
  8
0
 10
23.9528502116195199
 20
-5.0841722209741853
 30
0.0
 40
18.6208650504918616
 50
147.7535886584431069
 51
147.8484989291258103
  0
LINE
  5
1AB2
  8
0
 10
8.2029781427755442
 20
4.8521057229604168
 30
0.0
 11
8.1930073921292426
 21
4.8423465705224098
 31
0.0
  0
ARC
  5
1AB3
  8
0
 10
8.1859129211925428
 20
4.849594863970708
 30
0.0
 40
0.0101424492004813
 50
240.1778756055124973
 51
314.3855408490500167
  0
ARC
  5
1AB4
  8
0
 10
9.0592541823837571
 20
6.0381053068347059
 30
0.0
 40
1.4849616879563621
 50
228.5292738264190007
 51
233.7350222993393913
  0
ARC
  5
1AB5
  8
0
 10
8.0824789356019622
 20
4.9337122558386977
 30
0.0
 40
0.0106022519765065
 50
151.5363146901626976
 51
231.3498770336798032
  0
ARC
  5
1AB6
  8
0
 10
23.8384005558425898
 20
-4.9705107286887973
 30
0.0
 40
18.6208650504918616
 50
147.700286396488508
 51
147.8484989291258103
  0
ARC
  5
1AB7
  8
0
 10
7.9409477520203806
 20
4.672013297869908
 30
0.0
 40
0.2855455097428894
 50
44.9363298301956817
 51
52.7676812750847475
  0
ARC
  5
1AB8
  8
0
 10
8.3168959839181902
 20
5.1022428110249267
 30
0.0
 40
0.2871284162516285
 50
224.9579498993639106
 51
232.7460612059176128
  0
ARC
  5
1AB9
  8
0
 10
8.2883466740854637
 20
4.7976088375377071
 30
0.0
 40
0.0101424492004813
 50
240.1778756055124973
 51
283.0155773657486975
  0
ARC
  5
1ABA
  8
0
 10
9.1616879352766851
 20
5.986119280401704
 30
0.0
 40
1.4849616879563621
 50
228.5292738264190007
 51
233.7350222993393913
  0
ARC
  5
1ABB
  8
0
 10
8.1849126884948831
 20
4.8817262294056967
 30
0.0
 40
0.0106022519765065
 50
151.5363146901626976
 51
231.3498770336798032
  0
ARC
  5
1ABC
  8
0
 10
23.9408343087355284
 20
-5.0224967551218
 30
0.0
 40
18.6208650504918616
 50
147.8128255460271134
 51
147.8484989291258103
  0
ARC
  5
1ABD
  8
0
 10
7.9700123750603558
 20
4.5077167914627001
 30
0.0
 40
0.4162766134161277
 50
48.4444562774638285
 51
53.8274221009337808
  0
ARC
  5
1ABE
  8
0
 10
8.4725893288763601
 20
5.1313672893428297
 30
0.0
 40
0.3856299885841607
 50
228.2303831052228986
 51
234.0414952731688061
  0
LINE
  5
1ABF
  8
0
 10
8.0312399460662842
 20
5.047117928705747
 30
0.0
 11
7.9854543887240039
 21
5.0074849156063523
 31
0.0
  0
ARC
  5
1AC0
  8
0
 10
7.978816362395512
 20
5.0151534149541108
 30
0.0
 40
0.0101424492004813
 50
236.6725387369855014
 51
310.8802039805229924
  0
ARC
  5
1AC1
  8
0
 10
8.9231910209833423
 20
6.1480428780143734
 30
0.0
 40
1.4849616879563621
 50
225.0239369578920048
 51
230.2296854308123955
  0
ARC
  5
1AC2
  8
0
 10
7.880718955134344
 20
5.1054375424542497
 30
0.0
 40
0.0106022519765065
 50
148.030977821635787
 51
227.8445401651528073
  0
ARC
  5
1AC3
  8
0
 10
23.0016037793228101
 20
-5.7435965695778348
 30
0.0
 40
18.6208650504918616
 50
144.1561422386427012
 51
144.343162060598786
  0
LINE
  5
1AC4
  8
0
 10
7.8270460755144384
 20
5.1877514530635054
 30
0.0
 11
7.8152946562870396
 21
5.1775791590212084
 31
0.0
  0
ARC
  5
1AC5
  8
0
 10
7.808656629958552
 20
5.1852476583689704
 30
0.0
 40
0.0101424492004813
 50
236.6725387369855014
 51
310.8802039805229924
  0
ARC
  5
1AC6
  8
0
 10
8.7530312885463761
 20
6.3181371214292321
 30
0.0
 40
1.4849616879563621
 50
225.0239369578920048
 51
230.2296854308123955
  0
ARC
  5
1AC7
  8
0
 10
7.7105592226973796
 20
5.2755317858691084
 30
0.0
 40
0.0106022519765065
 50
148.030977821635787
 51
227.8445401651528073
  0
ARC
  5
1AC8
  8
0
 10
22.8314440468858493
 20
-5.5735023261629797
 30
0.0
 40
18.6208650504918616
 50
144.1822689957568002
 51
144.343162060598786
  0
ARC
  5
1AC9
  8
0
 10
7.5532921588836457
 20
5.0229758689569159
 30
0.0
 40
0.2855455097428894
 50
41.4309929616687214
 51
49.2623444065580429
  0
ARC
  5
1ACA
  8
0
 10
7.9548419148272016
 20
5.4294144258857138
 30
0.0
 40
0.2871284162516285
 50
221.452613030837
 51
229.2407243373907875
  0
LINE
  5
1ACB
  8
0
 10
7.8940260470787251
 20
5.1843318276896779
 30
0.0
 11
7.869265394009676
 21
5.1628984468508428
 31
0.0
  0
ARC
  5
1ACC
  8
0
 10
7.8626273676811911
 20
5.1705669461986066
 30
0.0
 40
0.0101424492004813
 50
236.6725387369855014
 51
310.8802039805229924
  0
ARC
  5
1ACD
  8
0
 10
8.8070020262690232
 20
6.3034564092588701
 30
0.0
 40
1.4849616879563621
 50
225.0239369578920048
 51
230.2296854308123955
  0
ARC
  5
1ACE
  8
0
 10
7.7645299604200266
 20
5.2608510736987482
 30
0.0
 40
0.0106022519765065
 50
148.030977821635787
 51
227.8445401651528073
  0
ARC
  5
1ACF
  8
0
 10
22.8854147846084786
 20
-5.5881830383333444
 30
0.0
 40
18.6208650504918616
 50
144.2483172396700866
 51
144.343162060598786
  0
ARC
  5
1AD0
  8
0
 10
7.5271641999971157
 20
4.9006806971218397
 30
0.0
 40
0.4162766134161277
 50
44.9391194089369108
 51
50.3220852324068773
  0
ARC
  5
1AD1
  8
0
 10
8.0669318205086142
 20
5.4924360974862632
 30
0.0
 40
0.3856299885841607
 50
224.725046236695988
 51
230.5361584046418955
  0
ARC
  5
1AD2
  8
0
 10
7.7841063141329299
 20
5.302135886241194
 30
0.0
 40
0.0155331638494351
 50
255.0302504652281925
 51
293.9665229726549001
  0
ARC
  5
1AD3
  8
0
 10
8.0062783266544066
 20
5.6346513549007504
 30
0.0
 40
0.4146450809650051
 50
218.0816477442870962
 51
236.9419071496828053
  0
ARC
  5
1AD4
  8
0
 10
7.6914917134425522
 20
5.3865435814960527
 30
0.0
 40
0.0138841701613165
 50
152.8792864310684081
 51
213.3783508814696006
  0
ARC
  5
1AD5
  8
0
 10
22.8090132148717117
 20
-5.4617746751108811
 30
0.0
 40
18.6208650504918616
 50
144.3291587920753045
 51
144.343162060598786
  0
ARC
  5
1AD6
  8
0
 10
7.6420728995530807
 20
5.2368254000155607
 30
0.0
 40
0.1333756866685341
 50
39.202993221006551
 51
56.0582114203379973
  0
ARC
  5
1AD7
  8
0
 10
7.7865407156600881
 20
5.3952076502868263
 30
0.0
 40
0.084723613784149
 50
214.2910887858770934
 51
240.970115855463888
  0
LINE
  5
1AD8
  8
0
 10
7.5518967833151249
 20
5.5264610914442258
 30
0.0
 11
7.5041690569719171
 21
5.4884798937635448
 31
0.0
  0
ARC
  5
1AD9
  8
0
 10
7.4979277429434141
 20
5.4956377852311018
 30
0.0
 40
0.0094968105732271
 50
230.7571034286407041
 51
311.0867578702091123
  0
ARC
  5
1ADA
  8
0
 10
9.2062192586920322
 20
7.2746883861529152
 30
0.0
 40
2.475897217851414
 50
223.0857685094497924
 51
226.1799919706780031
  0
ARC
  5
1ADB
  8
0
 10
7.4043586673504178
 20
5.5899298045139476
 30
0.0
 40
0.0091040334482145
 50
137.0949679685728029
 51
225.6304449154825136
  0
ARC
  5
1ADC
  8
0
 10
7.9211452890810561
 20
5.1990147077362394
 30
0.0
 40
0.6570418882038713
 50
137.6616600573948119
 51
142.8146638325380025
  0
LINE
  5
1ADD
  8
0
 10
7.4279032267050686
 20
5.6504546480510056
 30
0.0
 11
7.400512280247451
 21
5.626744425815545
 31
0.0
  0
ARC
  5
1ADE
  8
0
 10
7.3938742539189661
 20
5.6344129251633097
 30
0.0
 40
0.0101424492004813
 50
236.6725387369855014
 51
310.8802039805229924
  0
ARC
  5
1ADF
  8
0
 10
8.3382489125067885
 20
6.7673023882235679
 30
0.0
 40
1.4849616879563621
 50
225.0239369578920048
 51
230.2296854308123955
  0
ARC
  5
1AE0
  8
0
 10
7.295776846657791
 20
5.7246970526634469
 30
0.0
 40
0.0106022519765065
 50
148.030977821635787
 51
227.8445401651528073
  0
ARC
  5
1AE1
  8
0
 10
22.4166616708462492
 20
-5.124337059368643
 30
0.0
 40
18.6208650504918616
 50
144.2080995804172971
 51
144.343162060598786
  0
ARC
  5
1AE2
  8
0
 10
7.2361106299540552
 20
5.571311307980749
 30
0.0
 40
0.1481177793521392
 50
38.5929030105812529
 51
53.6731444473047929
  0
ARC
  5
1AE3
  8
0
 10
7.4236034779655418
 20
5.766370098821934
 30
0.0
 40
0.1252380834112361
 50
217.2050332079840018
 51
235.061014249899813
  0
LINE
  5
1AE4
  8
0
 10
7.1678590319785833
 20
5.9104988427706138
 30
0.0
 11
7.121123859406274
 21
5.8700438212686397
 31
0.0
  0
ARC
  5
1AE5
  8
0
 10
7.1144858330777856
 20
5.8777123206164061
 30
0.0
 40
0.0101424492004813
 50
236.6725387369855014
 51
310.8802039805229924
  0
ARC
  5
1AE6
  8
0
 10
8.058860491665623
 20
7.0106017836766652
 30
0.0
 40
1.4849616879563621
 50
225.0239369578920048
 51
230.2296854308123955
  0
ARC
  5
1AE7
  8
0
 10
7.0163884258166114
 20
5.9679964481165433
 30
0.0
 40
0.0106022519765065
 50
148.030977821635787
 51
227.8445401651528073
  0
ARC
  5
1AE8
  8
0
 10
22.1372732500050802
 20
-4.8810376639155448
 30
0.0
 40
18.6208650504918616
 50
144.1285629748153099
 51
144.343162060598786
  0
ARC
  5
1AE9
  8
0
 10
6.7790226653937111
 20
5.6078260715396366
 30
0.0
 40
0.4162766134161277
 50
44.9391194089369108
 51
50.3220852324068773
  0
ARC
  5
1AEA
  8
0
 10
7.3187902859052079
 20
6.1995814719040618
 30
0.0
 40
0.3856299885841607
 50
224.725046236695988
 51
230.5361584046418955
  0
LINE
  5
1AEB
  8
0
 10
7.1665125578039648
 20
5.911845316945195
 30
0.0
 11
7.1649731531101706
 21
5.9105127734547152
 31
0.0
  0
ARC
  5
1AEC
  8
0
 10
7.1583351267816786
 20
5.9181812728024799
 30
0.0
 40
0.0101424492004813
 50
236.6725387369855014
 51
310.8802039805229924
  0
ARC
  5
1AED
  8
0
 10
8.1027097853695125
 20
7.0510707358627407
 30
0.0
 40
1.4849616879563621
 50
225.0239369578920048
 51
230.2296854308123955
  0
ARC
  5
1AEE
  8
0
 10
7.060237719520507
 20
6.0084654003026188
 30
0.0
 40
0.0106022519765065
 50
148.030977821635787
 51
227.8445401651528073
  0
ARC
  5
1AEF
  8
0
 10
22.1811225437089696
 20
-4.840568711729472
 30
0.0
 40
18.6208650504918616
 50
144.3144199411497937
 51
144.343162060598786
  0
ARC
  5
1AF0
  8
0
 10
6.8228719590976041
 20
5.6482950237257121
 30
0.0
 40
0.4162766134161277
 50
44.9391194089369108
 51
50.3220852324068773
  0
ARC
  5
1AF1
  8
0
 10
7.362639579609108
 20
6.2400504240901347
 30
0.0
 40
0.3856299885841607
 50
224.725046236695988
 51
230.5361584046418955
  0
ARC
  5
1AF2
  8
0
 10
6.8074931249480741
 20
4.8677312137316813
 30
0.0
 40
0.9965611129172097
 50
50.383541708512702
 51
51.6227651001697367
  0
ARC
  5
1AF3
  8
0
 10
7.576564848371234
 20
5.5467508815818078
 30
0.0
 40
0.0340655921981801
 50
219.3799896544803119
 51
246.0607684254428875
  0
ARC
  5
1AF4
  8
0
 10
6.1963019939904633
 20
3.0669875545394931
 30
0.0
 40
2.7036238285666281
 50
48.8061159653196626
 51
51.316818201944649
  0
ARC
  5
1AF5
  8
0
 10
65.3198802995007668
 20
62.8624310568605367
 30
0.0
 40
81.4111129019274102
 50
224.7834277228002975
 51
224.9761376989590076
  0
ARC
  5
1AF6
  8
0
 10
7.7056206960776201
 20
5.2742590111015284
 30
0.0
 40
0.0209864953021971
 50
221.7755298040729883
 51
298.1219017560642897
  0
LINE
  5
1AF7
  8
0
 10
7.689969794790481
 20
5.2602775135433539
 30
0.0
 11
7.4110267606930966
 21
5.5392205478837102
 31
0.0
  0
LINE
  5
1AF8
  8
0
 10
7.3799778148934001
 20
5.5702694937104464
 30
0.0
 11
7.2110982028221136
 21
5.7391491059288349
 31
0.0
  0
ARC
  5
1AF9
  8
0
 10
7.2258695318532196
 20
5.7539204349970454
 30
0.0
 40
0.0208898138763002
 50
135.9999997618803889
 51
225.0000000719724937
  0
LINE
  5
1AFA
  8
0
 10
7.2108426573706366
 20
5.7684317191260073
 30
0.0
 11
7.2425520255385569
 21
5.8012677311198839
 31
0.0
  0
LINE
  5
1AFB
  8
0
 10
7.6450754914679591
 20
5.4047405856478337
 30
0.0
 11
7.6091889860456661
 21
5.3700853902270618
 31
0.0
  0
ARC
  5
1AFC
  8
0
 10
7.5946777018835396
 20
5.385112264883106
 30
0.0
 40
0.0208898140241223
 50
224.999999975048496
 51
313.9999999730704872
  0
ARC
  5
1AFD
  8
0
 10
7.4257980898248119
 20
5.5539918770025629
 30
0.0
 40
0.0208898139580963
 50
133.4326225097250074
 51
224.9999999750463928
  0
ARC
  5
1AFE
  8
0
 10
7.3947491440189062
 20
5.5850408228230783
 30
0.0
 40
0.0208898139580942
 50
224.9999999750475013
 51
316.7201874966640958
  0
ARC
  5
1AFF
  8
0
 10
6.8525783804960412
 20
5.3054439408825838
 30
0.0
 40
0.6308095392375003
 50
44.7478234275212969
 51
53.3075961165354002
  0
ARC
  5
1B00
  8
0
 10
7.2668916266140036
 20
5.8308189896608038
 30
0.0
 40
0.0421983511222308
 50
207.6107556635716946
 51
230.1034182131259911
  0
LINE
  5
1B01
  8
0
 10
7.1316991563420968
 20
5.8179089310757801
 30
0.0
 11
6.9628195442708138
 21
5.9867885432941712
 31
0.0
  0
ARC
  5
1B02
  8
0
 10
6.9775908733019172
 20
6.0015598723623809
 30
0.0
 40
0.0208898138763002
 50
135.9999997618803889
 51
225.0000000719724937
  0
LINE
  5
1B03
  8
0
 10
6.9625639988193297
 20
6.0160711564913409
 30
0.0
 11
6.9942733669872537
 21
6.0489071684852211
 31
0.0
  0
ARC
  5
1B04
  8
0
 10
7.1464704854675993
 20
5.8326802601884138
 30
0.0
 40
0.0208898139580942
 50
224.9999999750475013
 51
316.7201874966639821
  0
ARC
  5
1B05
  8
0
 10
6.604299721944737
 20
5.5530833782479183
 30
0.0
 40
0.6308095392375003
 50
46.8328248518125605
 51
53.3075961165354002
  0
ARC
  5
1B06
  8
0
 10
7.0186129680627012
 20
6.0784584270261384
 30
0.0
 40
0.0421983511222308
 50
207.6107556635716946
 51
230.1034182131259911
  0
LINE
  5
1B07
  8
0
 10
7.1616785698509977
 20
5.8183589998880301
 30
0.0
 11
7.195587405960282
 21
5.8522678359677727
 31
0.0
  0
ARC
  5
1B08
  8
0
 10
7.224510290073126
 20
5.8783359204237682
 30
0.0
 40
0.0436114751369989
 50
222.3469972810441107
 51
244.3784505188644971
  0
ARC
  5
1B09
  8
0
 10
6.8614470775733656
 20
5.5881164061327251
 30
0.0
 40
0.4259410017108162
 50
36.0889248969121326
 51
46.7021616411842473
  0
ARC
  5
1B0A
  8
0
 10
7.851144431876488
 20
6.4994482401320433
 30
0.0
 40
0.9543740844053383
 50
224.6444008688067981
 51
228.835538037232709
  0
LINE
  5
1B0B
  8
0
 10
5.8918079688093661
 20
7.1865499059060829
 30
0.0
 11
5.8709264721547143
 21
7.1652156561108162
 31
0.0
  0
ARC
  5
1B0C
  8
0
 10
5.8781747655968237
 20
7.1581211851677979
 30
0.0
 40
0.0101424492004813
 50
135.6144591010427973
 51
209.8221243445802031
  0
ARC
  5
1B0D
  8
0
 10
7.0666852092215349
 20
8.0314624453237684
 30
0.0
 40
1.4849616879563621
 50
216.2649776507531101
 51
221.4707261236735008
  0
ARC
  5
1B0E
  8
0
 10
5.9622921573747218
 20
7.0546871995039471
 30
0.0
 40
0.0106022519765065
 50
218.6501229164128119
 51
298.4636852599301733
  0
ARC
  5
1B0F
  8
0
 10
-3.9419308134286921
 20
22.8106088283715813
 30
0.0
 40
18.6208650504918616
 50
302.1515010209670891
 51
302.2464112916497925
  0
LINE
  5
1B10
  8
0
 10
5.9943471167870888
 20
7.0607367508726799
 30
0.0
 11
5.9845879643403981
 21
7.0507660002348747
 31
0.0
  0
ARC
  5
1B11
  8
0
 10
5.9918362577825164
 20
7.0436715292918564
 30
0.0
 40
0.0101424492004813
 50
135.6144591010427973
 51
209.8221243445802031
  0
ARC
  5
1B12
  8
0
 10
7.1803467014072311
 20
7.9170127894478339
 30
0.0
 40
1.4849616879563621
 50
216.2649776507531101
 51
221.4707261236735008
  0
ARC
  5
1B13
  8
0
 10
6.0759536495604181
 20
6.940237543628009
 30
0.0
 40
0.0106022519765065
 50
218.6501229164128119
 51
298.4636852599301733
  0
ARC
  5
1B14
  8
0
 10
-3.828269321242999
 20
22.6961591724956513
 30
0.0
 40
18.6208650504918616
 50
302.1515010209670891
 51
302.2997135496468104
  0
ARC
  5
1B15
  8
0
 10
5.8142546914683493
 20
6.7987063602743847
 30
0.0
 40
0.2855455097428894
 50
37.2323186750081021
 51
45.0636701198971394
  0
ARC
  5
1B16
  8
0
 10
6.2444842049508287
 20
7.1746545917974371
 30
0.0
 40
0.2871284162516285
 50
217.2539387441750023
 51
225.0420500507285055
  0
ARC
  5
1B17
  8
0
 10
5.9398502314387356
 20
7.1461052822300628
 30
0.0
 40
0.0101424492004813
 50
166.9844325620763072
 51
209.8221243445802031
  0
ARC
  5
1B18
  8
0
 10
7.1283606750634609
 20
8.0194465423860386
 30
0.0
 40
1.4849616879563621
 50
216.2649776507531101
 51
221.4707261236735008
  0
ARC
  5
1B19
  8
0
 10
6.0239676232166381
 20
7.0426712965662146
 30
0.0
 40
0.0106022519765065
 50
218.6501229164128119
 51
298.4636852599301733
  0
ARC
  5
1B1A
  8
0
 10
-3.8802553475867771
 20
22.7985929254338515
 30
0.0
 40
18.6208650504918616
 50
302.1515010209670891
 51
302.187174399774392
  0
ARC
  5
1B1B
  8
0
 10
5.6499581850864544
 20
6.8277709834574694
 30
0.0
 40
0.4162766134161277
 50
36.172577849159012
 51
41.5555436726291916
  0
ARC
  5
1B1C
  8
0
 10
6.2736086834043512
 20
7.3303479367302407
 30
0.0
 40
0.3856299885841607
 50
215.958504676923809
 51
221.7696168448696028
  0
LINE
  5
1B1D
  8
0
 10
6.1893593216158278
 20
6.8889985531074869
 30
0.0
 11
6.1497263092435537
 21
6.8432129966857946
 31
0.0
  0
ARC
  5
1B1E
  8
0
 10
6.1573948085855319
 20
6.8365749703506271
 30
0.0
 40
0.0101424492004813
 50
139.1197959695699069
 51
213.3274612131071137
  0
ARC
  5
1B1F
  8
0
 10
7.2902842724683872
 20
7.780949627951661
 30
0.0
 40
1.4849616879563621
 50
219.7703145192801912
 51
224.9760629922006103
  0
ARC
  5
1B20
  8
0
 10
6.2476789360002272
 20
6.7384775630108162
 30
0.0
 40
0.0106022519765065
 50
222.1554597849398931
 51
301.9690221284570839
  0
ARC
  5
1B21
  8
0
 10
-4.6013551628609264
 20
21.8593623966492601
 30
0.0
 40
18.6208650504918616
 50
305.656837889493886
 51
305.8438577114501982
  0
LINE
  5
1B22
  8
0
 10
6.3299928465627282
 20
6.6848046833192107
 30
0.0
 11
6.319820552510194
 21
6.6730532641006732
 31
0.0
  0
ARC
  5
1B23
  8
0
 10
6.3274890518521749
 20
6.6664152377655022
 30
0.0
 40
0.0101424492004813
 50
139.1197959695699069
 51
213.3274612131071137
  0
ARC
  5
1B24
  8
0
 10
7.4603785157350258
 20
7.6107898953665343
 30
0.0
 40
1.4849616879563621
 50
219.7703145192801912
 51
224.9760629922006103
  0
ARC
  5
1B25
  8
0
 10
6.4177731792668702
 20
6.5683178304256931
 30
0.0
 40
0.0106022519765065
 50
222.1554597849398931
 51
301.9690221284570839
  0
ARC
  5
1B26
  8
0
 10
-4.4312609195942807
 20
21.6892026640641298
 30
0.0
 40
18.6208650504918616
 50
305.656837889493886
 51
305.8177309543361275
  0
ARC
  5
1B27
  8
0
 10
6.1652172622176913
 20
6.411050766831945
 30
0.0
 40
0.2855455097428894
 50
40.737655543534899
 51
48.5690069884241566
  0
ARC
  5
1B28
  8
0
 10
6.5716558194962573
 20
6.8126005224214721
 30
0.0
 40
0.2871284162516285
 50
220.7592756127019129
 51
228.5473869192558141
  0
LINE
  5
1B29
  8
0
 10
6.3265732205945211
 20
6.7517846541324227
 30
0.0
 11
6.3051398403868459
 21
6.7270240018361021
 31
0.0
  0
ARC
  5
1B2A
  8
0
 10
6.312808339728825
 20
6.7203859755009301
 30
0.0
 40
0.0101424492004813
 50
139.1197959695699069
 51
213.3274612131071137
  0
ARC
  5
1B2B
  8
0
 10
7.4456978036116723
 20
7.6647606331019631
 30
0.0
 40
1.4849616879563621
 50
219.7703145192801912
 51
224.9760629922006103
  0
ARC
  5
1B2C
  8
0
 10
6.4030924671435221
 20
6.6222885681611183
 30
0.0
 40
0.0106022519765065
 50
222.1554597849398931
 51
301.9690221284570839
  0
ARC
  5
1B2D
  8
0
 10
-4.445941631717635
 20
21.7431734017995595
 30
0.0
 40
18.6208650504918616
 50
305.656837889493886
 51
305.7516827104226991
  0
ARC
  5
1B2E
  8
0
 10
6.0429220903598546
 20
6.3849228080519413
 30
0.0
 40
0.4162766134161277
 50
39.6779147176861215
 51
45.060880541156088
  0
ARC
  5
1B2F
  8
0
 10
6.6346774911944406
 20
6.9246904280479971
 30
0.0
 40
0.3856299885841607
 50
219.4638415454506912
 51
225.2749537133967976
  0
ARC
  5
1B30
  8
0
 10
6.4443772797030192
 20
6.6418649218380663
 30
0.0
 40
0.0155331638494351
 50
156.03348038886989
 51
194.9697494848645078
  0
ARC
  5
1B31
  8
0
 10
6.7768927485560972
 20
6.8640369340699019
 30
0.0
 40
0.4146450809650051
 50
213.0580928004096961
 51
231.9183522058054905
  0
ARC
  5
1B32
  8
0
 10
6.5287849748772038
 20
6.5492503210741653
 30
0.0
 40
0.0138841701613165
 50
236.6216490686230998
 51
297.1207135190243775
  0
ARC
  5
1B33
  8
0
 10
-4.319533268561722
 20
21.6667718319526799
 30
0.0
 40
18.6208650504918616
 50
305.656837889493886
 51
305.6708411557559089
  0
ARC
  5
1B34
  8
0
 10
6.3790667933536653
 20
6.4998315073151067
 30
0.0
 40
0.1333756866685341
 50
33.941788529754767
 51
50.7970067290864691
  0
ARC
  5
1B35
  8
0
 10
6.537449043750768
 20
6.6442993232841543
 30
0.0
 40
0.084723613784149
 50
209.0298840946284997
 51
235.708911164215607
  0
LINE
  5
1B36
  8
0
 10
6.6687024843525222
 20
6.4096553903834721
 30
0.0
 11
6.6307212869815286
 21
6.361927664514746
 31
0.0
  0
ARC
  5
1B37
  8
0
 10
6.637879178443657
 20
6.355686350480001
 30
0.0
 40
0.0094968105732271
 50
138.9132420798837018
 51
219.2428965214521099
  0
ARC
  5
1B38
  8
0
 10
8.4169297808534562
 20
8.0639778646789964
 30
0.0
 40
2.475897217851414
 50
223.8200079794142994
 51
226.914231440642709
  0
ARC
  5
1B39
  8
0
 10
6.7321711976449912
 20
6.2621172748048766
 30
0.0
 40
0.0091040334482145
 50
224.3695550346099878
 51
312.9050319815199828
  0
ARC
  5
1B3A
  8
0
 10
6.341256101317426
 20
6.7789038968760194
 30
0.0
 40
0.6570418882038713
 50
307.1853361175549253
 51
312.3383398926977179
  0
LINE
  5
1B3B
  8
0
 10
6.792696040938047
 20
6.2856618338012282
 30
0.0
 11
6.7689858189432419
 21
6.2582708876698447
 31
0.0
  0
ARC
  5
1B3C
  8
0
 10
6.7766543182852237
 20
6.2516328613346754
 30
0.0
 40
0.0101424492004813
 50
139.1197959695699069
 51
213.3274612131071137
  0
ARC
  5
1B3D
  8
0
 10
7.909543782168071
 20
7.1960075189357093
 30
0.0
 40
1.4849616879563621
 50
219.7703145192801912
 51
224.9760629922006103
  0
ARC
  5
1B3E
  8
0
 10
6.8669384456999154
 20
6.1535354539948646
 30
0.0
 40
0.0106022519765065
 50
222.1554597849398931
 51
301.9690221284570839
  0
ARC
  5
1B3F
  8
0
 10
-3.9820956531612381
 20
21.2744202876332906
 30
0.0
 40
18.6208650504918616
 50
305.656837889493886
 51
305.7919003688758153
  0
ARC
  5
1B40
  8
0
 10
6.713552700965244
 20
6.0938692374247321
 30
0.0
 40
0.1481177793521392
 50
36.3268555027879927
 51
51.4070969395114403
  0
ARC
  5
1B41
  8
0
 10
6.9086114919697472
 20
6.2813620852663137
 30
0.0
 40
0.1252380834112361
 50
214.9389857001928874
 51
232.7949667421086986
  0
ARC
  5
1B42
  8
0
 10
6.0099726063428314
 20
5.6652517330315897
 30
0.0
 40
0.9965611129172097
 50
38.37723484992312
 51
39.6164579828588828
  0
ARC
  5
1B43
  8
0
 10
6.6889922748628514
 20
6.4343234558633
 30
0.0
 40
0.0340655921981801
 50
203.9392342123634023
 51
230.6200102956121043
  0
ARC
  5
1B44
  8
0
 10
4.2092289466182713
 20
5.0540606036425091
 30
0.0
 40
2.7036238285666281
 50
38.6831817481483
 51
41.1938836336048766
  0
ARC
  5
1B45
  8
0
 10
64.0046725004384882
 20
64.1776388570684446
 30
0.0
 40
81.4111129019274102
 50
225.0238622511336075
 51
225.2165722272922039
  0
ARC
  5
1B46
  8
0
 10
6.416500404494986
 20
6.5633793038070394
 30
0.0
 40
0.0209864953021971
 50
151.878098194028496
 51
228.2244701460195984
  0
LINE
  5
1B47
  8
0
 10
6.4025189069231843
 20
6.5477284025320763
 30
0.0
 11
6.6814619410205607
 21
6.2687853681917201
 31
0.0
  0
LINE
  5
1B48
  8
0
 10
6.7125108868202581
 20
6.2377364223649847
 30
0.0
 11
6.8813904988915437
 21
6.0688568101465954
 31
0.0
  0
ARC
  5
1B49
  8
0
 10
6.8961618279726231
 20
6.0836281391648317
 30
0.0
 40
0.0208898138763002
 50
224.9999998781200929
 51
314.000000188212482
  0
LINE
  5
1B4A
  8
0
 10
6.9106731120884923
 20
6.0686012646696081
 30
0.0
 11
6.943509124109986
 21
6.1003106328089274
 31
0.0
  0
LINE
  5
1B4B
  8
0
 10
6.5469819789885539
 20
6.5028340990837261
 30
0.0
 11
6.5123267835365217
 21
6.4669475936916117
 31
0.0
  0
ARC
  5
1B4C
  8
0
 10
6.5273536581799219
 20
6.4524363095163952
 30
0.0
 40
0.0208898140241223
 50
135.9999999770222132
 51
224.9999999750442043
  0
ARC
  5
1B4D
  8
0
 10
6.6962332701522831
 20
6.2835566973105772
 30
0.0
 40
0.0208898139580963
 50
224.9999999750461939
 51
316.5673774403678067
  0
ARC
  5
1B4E
  8
0
 10
6.7272822159457588
 20
6.2525077514776184
 30
0.0
 40
0.0208898139580942
 50
133.2798124534288888
 51
224.9999999750451138
  0
ARC
  5
1B4F
  8
0
 10
6.4476853335330011
 20
5.710336988198299
 30
0.0
 40
0.6308095392375003
 50
36.6924038335575773
 51
45.2521765225717232
  0
ARC
  5
1B50
  8
0
 10
6.9730603826721156
 20
6.1246502338586382
 30
0.0
 40
0.0421983511222308
 50
219.8965817369667093
 51
242.3892442865206078
  0
ARC
  5
1B51
  8
0
 10
7.6416896336522617
 20
6.7089030385387121
 30
0.0
 40
0.9543740844053383
 50
221.1644619128599061
 51
225.5653049852724905
  0
ARC
  5
1B52
  8
0
 10
5.6641352499719977
 20
7.4241033503670621
 30
0.0
 40
0.0101424492004813
 50
178.5399398080425897
 51
209.8221243445802031
  0
ARC
  5
1B53
  8
0
 10
6.8526456935967133
 20
8.2974446105230371
 30
0.0
 40
1.4849616879563621
 50
216.2649776507531101
 51
221.4707261236735008
  0
ARC
  5
1B54
  8
0
 10
5.748252641749886
 20
7.3206693647032131
 30
0.0
 40
0.0106022519765065
 50
218.6501229164128119
 51
298.4636852599301733
  0
ARC
  5
1B55
  8
0
 10
-4.155970329053523
 20
23.07659099357085
 30
0.0
 40
18.6208650504918616
 50
302.1515010209670891
 51
302.1820800878384716
  0
ARC
  5
1B56
  8
0
 10
5.3742432036197094
 20
7.105769051594466
 30
0.0
 40
0.4162766134161277
 50
36.172577849159012
 51
41.5555436726291916
  0
ARC
  5
1B57
  8
0
 10
5.9978937019376017
 20
7.6083460048672418
 30
0.0
 40
0.3856299885841607
 50
215.958504676923809
 51
221.7696168448696028
  0
ARC
  5
1B58
  8
0
 10
9.5549030623515421
 20
7.3828436241423647
 30
0.0
 40
0.0400000000062548
 50
316.0000000085386773
 51
44.9999999911057174
  0
LINE
  5
1B59
  8
0
 10
9.5836766543737291
 20
7.3550572893239483
 30
0.0
 11
9.1434059122035531
 21
6.8991435893956901
 31
0.0
  0
ARC
  5
1B5A
  8
0
 10
9.6820180701526368
 20
6.3058485327546911
 30
0.0
 40
0.801312723551306
 50
132.2341679320454091
 51
165.5932911149780011
  0
ARC
  5
1B5B
  8
0
 10
9.5576559366348093
 20
6.3598225251693643
 30
0.0
 40
0.6677732785419797
 50
167.4241739135152898
 51
212.2114585527411919
  0
ARC
  5
1B5C
  8
0
 10
10.8408456927153498
 20
7.1685582923194362
 30
0.0
 40
2.184555883334506
 50
212.2183291523199955
 51
221.6290704306202883
  0
ARC
  5
1B5D
  8
0
 10
9.9397473828578242
 20
4.9572891331398612
 30
0.0
 40
0.0199999999999976
 50
314.0000000000895852
 51
45.0000000000018332
  0
LINE
  5
1B5E
  8
0
 10
9.9536405502670249
 20
4.9429023371331109
 30
0.0
 11
9.056955505264181
 21
4.0769836546337768
 31
0.0
  0
ARC
  5
1B5F
  8
0
 10
9.0285856633402091
 20
4.1063614859434043
 30
0.0
 40
0.0408399914697351
 50
236.5383362733246031
 51
314.000000000090381
  0
ARC
  5
1B60
  8
0
 10
8.5237886896254516
 20
8.4139579968684082
 30
0.0
 40
0.0400000000062548
 50
45.0000000088968335
 51
133.9999999914637954
  0
LINE
  5
1B61
  8
0
 10
8.4960023548070325
 20
8.4427315888905952
 30
0.0
 11
8.0400886548787938
 21
8.0024608467203997
 31
0.0
  0
ARC
  5
1B62
  8
0
 10
7.4467935982377709
 20
8.5410730046694567
 30
0.0
 40
0.8013127235513056
 50
284.4067088850246137
 51
317.7658320679569215
  0
ARC
  5
1B63
  8
0
 10
7.5007675906524511
 20
8.4167108711516292
 30
0.0
 40
0.6677732785419794
 50
237.7885414472613945
 51
282.575826086487325
  0
ARC
  5
1B64
  8
0
 10
8.3095033578024662
 20
9.6999006272322141
 30
0.0
 40
2.1845558833345051
 50
228.3709295693820991
 51
237.7816708476823919
  0
ARC
  5
1B65
  8
0
 10
6.098234198622932
 20
8.7988023173745837
 30
0.0
 40
0.0199999999999976
 50
45.0000000000007603
 51
135.9999999999130011
  0
LINE
  5
1B66
  8
0
 10
6.0838474026161817
 20
8.8126954847837844
 30
0.0
 11
5.2179287201168867
 21
7.9160104397809006
 31
0.0
  0
ARC
  5
1B67
  8
0
 10
5.2473065514265143
 20
7.8876405978569304
 30
0.0
 40
0.0408399914697333
 50
135.9999999999122053
 51
213.4616642233148127
  0
ENDSEC
  0
EOF
