  0
SECTION
  2
HEADER
  9
$ACADVER
  1
AC1009
  9
$INSBASE
 10
26.1450695478402011
 20
6.9138026564686417
 30
0.0
  9
$EXTMIN
 10
23.0934263733364489
 20
6.563802656468579
 30
0.0
  9
$EXTMAX
 10
26.7000695478622205
 20
17.9130307065776684
 30
0.0
  9
$LIMMIN
 10
0.0
 20
0.0
  9
$LIMMAX
 10
12.0
 20
9.0
  9
$ORTHOMODE
 70
     1
  9
$REGENMODE
 70
     1
  9
$FILLMODE
 70
     1
  9
$QTEXTMODE
 70
     0
  9
$MIRRTEXT
 70
     0
  9
$DRAGMODE
 70
     2
  9
$LTSCALE
 40
1.0
  9
$OSMODE
 70
  4095
  9
$ATTMODE
 70
     1
  9
$TEXTSIZE
 40
0.2
  9
$TRACEWID
 40
0.05
  9
$TEXTSTYLE
  7
STANDARD
  9
$CLAYER
  8
0
  9
$CELTYPE
  6
BYLAYER
  9
$CECOLOR
 62
   256
  9
$DIMSCALE
 40
1.0
  9
$DIMASZ
 40
0.18
  9
$DIMEXO
 40
0.0625
  9
$DIMDLI
 40
0.38
  9
$DIMRND
 40
0.0
  9
$DIMDLE
 40
0.0
  9
$DIMEXE
 40
0.18
  9
$DIMTP
 40
0.0
  9
$DIMTM
 40
0.0
  9
$DIMTXT
 40
0.18
  9
$DIMCEN
 40
0.09
  9
$DIMTSZ
 40
0.0
  9
$DIMTOL
 70
     0
  9
$DIMLIM
 70
     0
  9
$DIMTIH
 70
     1
  9
$DIMTOH
 70
     1
  9
$DIMSE1
 70
     0
  9
$DIMSE2
 70
     0
  9
$DIMTAD
 70
     0
  9
$DIMZIN
 70
     0
  9
$DIMBLK
  1

  9
$DIMASO
 70
     1
  9
$DIMSHO
 70
     1
  9
$DIMPOST
  1

  9
$DIMAPOST
  1

  9
$DIMALT
 70
     0
  9
$DIMALTD
 70
     2
  9
$DIMALTF
 40
25.3999999999999986
  9
$DIMLFAC
 40
1.0
  9
$DIMTOFL
 70
     0
  9
$DIMTVP
 40
0.0
  9
$DIMTIX
 70
     0
  9
$DIMSOXD
 70
     0
  9
$DIMSAH
 70
     0
  9
$DIMBLK1
  1

  9
$DIMBLK2
  1

  9
$DIMSTYLE
  2
STANDARD
  9
$DIMCLRD
 70
     0
  9
$DIMCLRE
 70
     0
  9
$DIMCLRT
 70
     0
  9
$DIMTFAC
 40
1.0
  9
$DIMGAP
 40
0.09
  9
$LUNITS
 70
     2
  9
$LUPREC
 70
     4
  9
$SKETCHINC
 40
0.1
  9
$FILLETRAD
 40
0.0
  9
$AUNITS
 70
     0
  9
$AUPREC
 70
     0
  9
$MENU
  1
.
  9
$ELEVATION
 40
0.0
  9
$PELEVATION
 40
0.0
  9
$THICKNESS
 40
0.0
  9
$LIMCHECK
 70
     0
  9
$BLIPMODE
 70
     0
  9
$CHAMFERA
 40
0.0
  9
$CHAMFERB
 40
0.0
  9
$SKPOLY
 70
     0
  9
$TDCREATE
 40
2458389.7862615738995373
  9
$TDUPDATE
 40
2459583.7861574068665504
  9
$TDINDWG
 40
0.0427851505
  9
$TDUSRTIMER
 40
0.0427851157
  9
$USRTIMER
 70
     1
  9
$ANGBASE
 50
0.0
  9
$ANGDIR
 70
     0
  9
$PDMODE
 70
     0
  9
$PDSIZE
 40
0.0
  9
$PLINEWID
 40
0.0
  9
$COORDS
 70
     1
  9
$SPLFRAME
 70
     0
  9
$SPLINETYPE
 70
     6
  9
$SPLINESEGS
 70
     8
  9
$ATTDIA
 70
     1
  9
$ATTREQ
 70
     1
  9
$HANDLING
 70
     1
  9
$HANDSEED
  5
622
  9
$SURFTAB1
 70
     6
  9
$SURFTAB2
 70
     6
  9
$SURFTYPE
 70
     6
  9
$SURFU
 70
     6
  9
$SURFV
 70
     6
  9
$UCSNAME
  2

  9
$UCSORG
 10
0.0
 20
0.0
 30
0.0
  9
$UCSXDIR
 10
1.0
 20
0.0
 30
0.0
  9
$UCSYDIR
 10
0.0
 20
1.0
 30
0.0
  9
$PUCSNAME
  2

  9
$PUCSORG
 10
0.0
 20
0.0
 30
0.0
  9
$PUCSXDIR
 10
1.0
 20
0.0
 30
0.0
  9
$PUCSYDIR
 10
0.0
 20
1.0
 30
0.0
  9
$USERI1
 70
     0
  9
$USERI2
 70
     0
  9
$USERI3
 70
     0
  9
$USERI4
 70
     0
  9
$USERI5
 70
     0
  9
$USERR1
 40
0.0
  9
$USERR2
 40
0.0
  9
$USERR3
 40
0.0
  9
$USERR4
 40
0.0
  9
$USERR5
 40
0.0
  9
$WORLDVIEW
 70
     1
  9
$SHADEDGE
 70
     3
  9
$SHADEDIF
 70
    70
  9
$TILEMODE
 70
     1
  9
$MAXACTVP
 70
    64
  9
$PLIMCHECK
 70
     0
  9
$PEXTMIN
 10
0.0
 20
0.0
 30
0.0
  9
$PEXTMAX
 10
0.0
 20
0.0
 30
0.0
  9
$PLIMMIN
 10
0.0
 20
0.0
  9
$PLIMMAX
 10
12.0
 20
9.0
  9
$UNITMODE
 70
     0
  9
$VISRETAIN
 70
     1
  9
$PLINEGEN
 70
     0
  9
$PSLTSCALE
 70
     1
  0
ENDSEC
  0
SECTION
  2
TABLES
  0
TABLE
  2
VPORT
 70
     1
  0
VPORT
  2
*ACTIVE
 70
     0
 10
0.0
 20
0.0
 11
1.0
 21
1.0
 12
0.0
 22
0.0
 13
0.0
 23
0.0
 14
0.5
 24
0.5
 15
0.5
 25
0.5
 16
-0.0000000000000071
 26
0.0
 36
38.5681423719332628
 17
24.8967475891113317
 27
12.2384157180786097
 37
0.0
 40
11.9161252171902508
 41
2.4949494949494939
 42
50.0
 43
0.0
 44
0.0
 50
0.0
 51
0.0
 71
     0
 72
  1000
 73
     1
 74
     3
 75
     0
 76
     1
 77
     0
 78
     0
  0
ENDTAB
  0
TABLE
  2
LTYPE
 70
     2
  0
LTYPE
  2
CONTINUOUS
 70
     0
  3
Solid line
 72
    65
 73
     0
 40
0.0
  0
ENDTAB
  0
TABLE
  2
LAYER
 70
     2
  0
LAYER
  2
0
 70
     0
 62
     7
  6
CONTINUOUS
  0
LAYER
  2
DEFPOINTS
 70
     0
 62
     7
  6
CONTINUOUS
  0
ENDTAB
  0
TABLE
  2
STYLE
 70
     2
  0
STYLE
  2
STANDARD
 70
     0
 40
0.0
 41
1.0
 50
0.0
 71
     0
 42
0.2
  3
txt
  4

  0
STYLE
  2
ANNOTATIVE
 70
     0
 40
0.0
 41
1.0
 50
0.0
 71
     0
 42
0.2
  3
txt
  4

  0
ENDTAB
  0
TABLE
  2
VIEW
 70
     0
  0
ENDTAB
  0
TABLE
  2
UCS
 70
     0
  0
ENDTAB
  0
TABLE
  2
APPID
 70
     9
  0
APPID
  2
ACAD
 70
     0
  0
APPID
  2
ACADANNOPO
 70
     0
  0
APPID
  2
ACADANNOTATIVE
 70
     0
  0
APPID
  2
ACAD_DSTYLE_DIMJAG
 70
     0
  0
APPID
  2
ACAD_DSTYLE_DIMTALN
 70
     0
  0
APPID
  2
ACAD_MLEADERVER
 70
     0
  0
APPID
  2
ACAD_NAV_VCDISPLAY
 70
     0
  0
APPID
  2
ACDBATTR
 70
     0
  0
APPID
  2
ACAD_EXEMPT_FROM_CAD_STANDARDS
 70
     0
  0
ENDTAB
  0
TABLE
  2
DIMSTYLE
 70
     3
  0
DIMSTYLE
  2
STANDARD
 70
     0
  3

  4

  5

  6

  7

 40
1.0
 41
0.18
 42
0.0625
 43
0.38
 44
0.18
 45
0.0
 46
0.0
 47
0.0
 48
0.0
140
0.18
141
0.09
142
0.0
143
25.3999999999999986
144
1.0
145
0.0
146
1.0
147
0.09
 71
     0
 72
     0
 73
     1
 74
     1
 75
     0
 76
     0
 77
     0
 78
     0
170
     0
171
     2
172
     0
173
     0
174
     0
175
     0
176
     0
177
     0
178
     0
  0
DIMSTYLE
  2
ANNOTATIVE
 70
     0
  3

  4

  5

  6

  7

 40
0.0
 41
0.18
 42
0.0625
 43
0.38
 44
0.18
 45
0.0
 46
0.0
 47
0.0
 48
0.0
140
0.18
141
0.09
142
0.0
143
25.3999999999999986
144
1.0
145
0.0
146
1.0
147
0.09
 71
     0
 72
     0
 73
     1
 74
     1
 75
     0
 76
     0
 77
     0
 78
     0
170
     0
171
     2
172
     0
173
     0
174
     0
175
     0
176
     0
177
     0
178
     0
  0
ENDTAB
  0
ENDSEC
  0
SECTION
  2
BLOCKS
  0
BLOCK
  8
0
  2
$MODEL_SPACE
 70
     0
 10
0.0
 20
0.0
 30
0.0
  3
$MODEL_SPACE
  1

  0
ENDBLK
  5
21
  8
0
  0
BLOCK
 67
     1
  8
0
  2
$PAPER_SPACE
 70
     0
 10
0.0
 20
0.0
 30
0.0
  3
$PAPER_SPACE
  1

  0
ENDBLK
  5
5B
 67
     1
  8
0
  0
BLOCK
  8
0
  2
_FILLED
 70
     0
 10
0.0
 20
0.0
 30
0.0
  3
_FILLED
  1

  0
SOLID
  5
3B6
  8
0
  6
BYBLOCK
 62
     0
 10
0.0
 20
0.0
 30
0.0
 11
-1.0
 21
0.1666666667
 31
0.0
 12
-1.0
 22
-0.1666666667
 32
0.0
 13
-1.0
 23
-0.1666666667
 33
0.0
  0
ENDBLK
  5
3B7
  8
0
  6
BYBLOCK
 62
     0
  0
ENDSEC
  0
SECTION
  2
ENTITIES
  0
LINE
  5
22E
  8
0
 10
24.1819504898268711
 20
17.9101082650947383
 30
0.0
 11
23.1105110404268714
 21
17.3990578629947414
 31
0.0
  0
ARC
  5
22F
  8
0
 10
23.1234263733259517
 20
17.3719803044734107
 30
0.0
 40
0.029999999989501
 50
115.4999999986304005
 51
207.0000000205851904
  0
ARC
  5
231
  8
0
 10
25.3699572103927409
 20
12.9629178201634794
 30
0.0
 40
0.0300011501937503
 50
207.0000000205878905
 51
298.4977417366168879
  0
LINE
  5
232
  8
0
 10
25.3842714828402016
 20
12.9365517317685796
 30
0.0
 11
25.54013016081608
 21
13.0211758917157994
 31
0.0
  0
ARC
  5
233
  8
0
 10
25.563983449371591
 20
12.9772183650639299
 30
0.0
 40
0.0500124336966532
 50
25.4326178904356794
 51
118.4862057522121006
  0
ARC
  5
234
  8
0
 10
24.1088486059252887
 20
12.2854268327258005
 30
0.0
 40
1.6612209664737041
 50
359.9901479316155815
 51
25.4272375654703886
  0
ARC
  5
235
  8
0
 10
25.4538661788527492
 20
12.2851955555645596
 30
0.0
 40
0.3162033736620729
 50
341.0802210869074997
 51
359.9901479316155815
  0
ARC
  5
236
  8
0
 10
25.5975883716447683
 20
12.2931298414412709
 30
0.0
 40
0.1906572480992833
 50
276.7717341141370753
 51
324.5936671774935007
  0
LINE
  5
238
  8
0
 10
25.5900695478402014
 20
12.0737907387685794
 30
0.0
 11
25.5900695478402014
 21
6.9438026564685797
 31
0.0
  0
ARC
  5
239
  8
0
 10
25.620069547840199
 20
6.943802656468578
 30
0.0
 40
0.029999999999994
 50
179.9999999999965894
 51
270.0000000000067075
  0
LINE
  5
23A
  8
0
 10
25.620069547840199
 20
6.9138026564685804
 30
0.0
 11
26.6700695478401997
 21
6.9138026564687038
 31
0.0
  0
ARC
  5
23B
  8
0
 10
26.6700695478401997
 20
6.9438026564687076
 30
0.0
 40
0.0300000000000043
 50
270.0000000000075033
 51
359.9999999997539817
  0
LINE
  5
23C
  8
0
 10
26.7000695478402008
 20
6.9438026564685797
 30
0.0
 11
26.7000695478622205
 21
12.0737907387685794
 31
0.0
  0
ARC
  5
23D
  8
0
 10
26.6629201756136212
 20
12.0666561208564396
 30
0.0
 40
0.0378282781952599
 50
10.8714086918319506
 51
79.105834740254565
  0
ARC
  5
23E
  8
0
 10
26.6988097559461188
 20
12.3401782247581409
 30
0.0
 40
0.2381163766862432
 50
233.6385422031960104
 51
263.0676030265028089
  0
ARC
  5
23F
  8
0
 10
26.7142538526177802
 20
12.2649790609785807
 30
0.0
 40
0.1952282138121542
 50
174.0722298442883016
 51
216.6564355013088061
  0
ARC
  5
240
  8
0
 10
24.1075819775730906
 20
12.2851411840209401
 30
0.0
 40
2.4124875701671118
 50
0.0000000011313615
 51
26.4819969674593594
  0
ARC
  5
241
  8
0
 10
26.3114428527082787
 20
13.3832838012257795
 30
0.0
 40
0.0498124841260343
 50
118.2914126357736961
 51
206.6905843663647033
  0
LINE
  5
242
  8
0
 10
26.2878339150401992
 20
13.42714610436858
 30
0.0
 11
26.4274962502095789
 21
13.5029765652519504
 31
0.0
  0
ARC
  5
243
  8
0
 10
26.4131814875662805
 20
13.5293410785816892
 30
0.0
 40
0.0299999998774617
 50
298.4999997695886123
 51
20.7526147072029694
  0
ARC
  5
244
  8
0
 10
5.4190076950263117
 20
5.5742641968320523
 30
0.0
 40
22.4808035807277307
 50
20.7526155100124789
 51
33.2473844910449614
  0
ARC
  5
245
  8
0
 10
24.1948658227776505
 20
17.8830307067977188
 30
0.0
 40
0.029999999779941
 50
33.2473841863902422
 51
115.5000002515840976
  0
LINE
  5
246
  8
0
 10
24.1819504898492283
 20
17.9101082650728891
 30
0.0
 11
26.4274962502401998
 21
13.5029765652685807
 31
0.0
  0
ARC
  5
247
  8
0
 10
27.1459632276707516
 20
10.9551350153603
 30
0.0
 40
2.6167202260416889
 50
109.1438377281332066
 51
127.8561856672110935
  0
LINE
  5
249
  8
0
 10
25.15748247614113
 20
13.3138397539793605
 30
0.0
 11
25.1199778978402009
 21
13.2497369592685796
 31
0.0
  0
ARC
  5
24A
  8
0
 10
25.2857355173675096
 20
13.1275705644079803
 30
0.0
 40
0.2059131284415727
 50
143.609106792887701
 51
185.5012209695292995
  0
LINE
  5
24B
  8
0
 10
25.0807707927401999
 20
13.1078302978685794
 30
0.0
 11
25.1149217705401995
 21
12.6029489674685795
 31
0.0
  0
ARC
  5
24C
  8
0
 10
25.1436296918691191
 20
12.60417463735258
 30
0.0
 40
0.0287340740879569
 50
182.4447290225677989
 51
268.5239146307760052
  0
ARC
  5
24D
  8
0
 10
25.1588048205199506
 20
13.1472962866320895
 30
0.0
 40
0.5720676185830339
 50
268.4057867943797078
 51
290.0262329998178075
  0
ARC
  5
24E
  8
0
 10
25.3472958717786696
 20
12.6280538397518498
 30
0.0
 40
0.0196850537915396
 50
292.1242188510448727
 51
15.6900458728143803
  0
ARC
  5
24F
  8
0
 10
29.7741559406107683
 20
13.9143357882875804
 30
0.0
 40
4.590262732665094
 50
192.5870107387794121
 51
196.2041071908919037
  0
ARC
  5
250
  8
0
 10
26.8774501935723009
 20
13.2675348158569104
 30
0.0
 40
1.6222237027898241
 50
190.3369463973581048
 51
192.5870107387792984
  0
ARC
  5
251
  8
0
 10
25.3885093350861695
 20
12.9897795283679596
 30
0.0
 40
0.1077810128078848
 50
150.015485068065999
 51
187.1049084517987922
  0
ARC
  5
257
  8
0
 10
25.7385695478401999
 20
6.8738026564685848
 30
0.0
 40
0.0399999999999952
 50
359.9999999999928946
 51
90.0000000000050875
  0
LINE
  5
258
  8
0
 10
25.778569547840199
 20
6.8738026564685804
 30
0.0
 11
25.7785695478401884
 21
6.834224487428898
 31
0.0
  0
LINE
  5
259
  8
0
 10
25.7785695478401884
 20
6.834224487428898
 30
0.0
 11
25.7355724874402014
 21
6.8111939363685803
 31
0.0
  0
LINE
  5
25A
  8
0
 10
25.7355724874402014
 20
6.8111939363685803
 30
0.0
 11
25.7361379225401983
 21
6.7986058486685801
 31
0.0
  0
LINE
  5
25B
  8
0
 10
25.7361379225401983
 20
6.7986058486685801
 30
0.0
 11
25.7791753908402015
 21
6.7761671779685786
 31
0.0
  0
LINE
  5
25C
  8
0
 10
25.7791753908402015
 20
6.7761671779685786
 30
0.0
 11
25.7792416820402011
 21
6.7631972350685787
 31
0.0
  0
LINE
  5
25D
  8
0
 10
25.7792416820402011
 20
6.7631972350685787
 30
0.0
 11
25.7357201601402004
 21
6.7406625442315962
 31
0.0
  0
LINE
  5
25E
  8
0
 10
25.7357201601402004
 20
6.7406625442315962
 30
0.0
 11
25.7360116244401986
 21
6.7278898336685797
 31
0.0
  0
LINE
  5
25F
  8
0
 10
25.7360116244401986
 20
6.7278898336685797
 30
0.0
 11
25.778569547840199
 21
6.7055402869928136
 31
0.0
  0
LINE
  5
260
  8
0
 10
25.778569547840199
 20
6.7055402869928136
 30
0.0
 11
25.778569547840199
 21
6.6915714228685799
 31
0.0
  0
LINE
  5
261
  8
0
 10
25.778569547840199
 20
6.6915714228685799
 30
0.0
 11
25.7355694765401992
 21
6.6691451711685801
 31
0.0
  0
LINE
  5
262
  8
0
 10
25.7355694765401992
 20
6.6691451711685801
 30
0.0
 11
25.7356120701401991
 21
6.6571673275685788
 31
0.0
  0
LINE
  5
263
  8
0
 10
25.7356120701401991
 20
6.6571673275685788
 30
0.0
 11
25.778569547840199
 21
6.634472246222086
 31
0.0
  0
LINE
  5
264
  8
0
 10
25.778569547840199
 20
6.634472246222086
 30
0.0
 11
25.778569547840199
 21
6.5838026564685803
 31
0.0
  0
ARC
  5
265
  8
0
 10
25.7985695478401986
 20
6.5838026564685812
 30
0.0
 40
0.0199999999999996
 50
180.0000000000013074
 51
270.0
  0
LINE
  5
266
  8
0
 10
25.7985695478401986
 20
6.563802656468579
 30
0.0
 11
26.4915695478402
 21
6.563802656468579
 31
0.0
  0
ARC
  5
267
  8
0
 10
26.4915695478402
 20
6.5838026564685803
 30
0.0
 40
0.02
 50
269.9999999999985789
 51
0.0
  0
LINE
  5
268
  8
0
 10
26.5115695478401996
 20
6.5838026564685803
 30
0.0
 11
26.5115695478401996
 21
6.6033179742246739
 31
0.0
  0
LINE
  5
269
  8
0
 10
26.5115695478401996
 20
6.6033179742246739
 30
0.0
 11
26.5471612779402015
 21
6.6222212005685801
 31
0.0
  0
LINE
  5
26A
  8
0
 10
26.5471612779402015
 20
6.6222212005685801
 30
0.0
 11
26.5472188927402009
 21
6.6341911132685789
 31
0.0
  0
LINE
  5
26B
  8
0
 10
26.5472188927402009
 20
6.6341911132685789
 30
0.0
 11
26.5120418434402012
 21
6.6529157743685801
 31
0.0
  0
LINE
  5
26C
  8
0
 10
26.5120418434402012
 20
6.6529157743685801
 30
0.0
 11
26.5108879283401997
 21
6.6696133778685791
 31
0.0
  0
LINE
  5
26D
  8
0
 10
26.5108879283401997
 20
6.6696133778685791
 30
0.0
 11
26.5541493839902003
 21
6.6923706376185796
 31
0.0
  0
LINE
  5
26E
  8
0
 10
26.5541493839902003
 20
6.6923706376185796
 30
0.0
 11
26.5545133964401998
 21
6.7046336594685796
 31
0.0
  0
LINE
  5
26F
  8
0
 10
26.5545133964401998
 20
6.7046336594685796
 30
0.0
 11
26.5115695478401996
 21
6.727334466004975
 31
0.0
  0
LINE
  5
270
  8
0
 10
26.5115695478401996
 20
6.727334466004975
 30
0.0
 11
26.5115695478401996
 21
6.7410251279337876
 31
0.0
  0
LINE
  5
271
  8
0
 10
26.5115695478401996
 20
6.7410251279337876
 30
0.0
 11
26.5542000018402007
 21
6.7634068555185802
 31
0.0
  0
LINE
  5
272
  8
0
 10
26.5542000018402007
 20
6.7634068555185802
 30
0.0
 11
26.5544891514402011
 21
6.7756417681619849
 31
0.0
  0
LINE
  5
273
  8
0
 10
26.5544891514402011
 20
6.7756417681619849
 30
0.0
 11
26.5115695478401996
 21
6.798388649571379
 31
0.0
  0
LINE
  5
274
  8
0
 10
26.5115695478401996
 20
6.798388649571379
 30
0.0
 11
26.5115695478401996
 21
6.8119722807316103
 31
0.0
  0
LINE
  5
275
  8
0
 10
26.5115695478401996
 20
6.8119722807316103
 30
0.0
 11
26.5542452847402011
 21
6.8343723452685801
 31
0.0
  0
LINE
  5
276
  8
0
 10
26.5542452847402011
 20
6.8343723452685801
 30
0.0
 11
26.5545285743401998
 21
6.846646816268966
 31
0.0
  0
LINE
  5
277
  8
0
 10
26.5545285743401998
 20
6.846646816268966
 30
0.0
 11
26.5115695478401996
 21
6.869367298064561
 31
0.0
  0
LINE
  5
278
  8
0
 10
26.5115695478401996
 20
6.869367298064561
 30
0.0
 11
26.5115695478401996
 21
6.8738026564685732
 31
0.0
  0
ARC
  5
279
  8
0
 10
26.5515695478402094
 20
6.8738026564685732
 30
0.0
 40
0.0400000000000098
 50
89.9999999998167937
 51
180.0000000000032117
  0
LINE
  5
27A
  8
0
 10
26.5115695478401996
 20
6.8738026564685732
 30
0.0
 11
25.7785695478401884
 21
6.834224487428898
 31
0.0
  0
LINE
  5
27B
  8
0
 10
26.5115695478401996
 20
6.8119722807316103
 30
0.0
 11
25.7791753908402015
 21
6.7761671779685786
 31
0.0
  0
LINE
  5
27C
  8
0
 10
26.5115695478401996
 20
6.7410251279337876
 30
0.0
 11
25.778569547840199
 21
6.7055402869928136
 31
0.0
  0
LINE
  5
27D
  8
0
 10
26.5108879283401997
 20
6.6696133778685791
 30
0.0
 11
25.778569547840199
 21
6.634472246222086
 31
0.0
  0
ATTDEF
  5
27E
  8
DEFPOINTS
 10
26.1416747608029887
 20
6.9065157762564651
 30
0.0
 40
0.001
  1
K-22166BR-G
  3

  2
MODELNUMBER
 70
     0
1001
ACDBATTR
1070
     0
1070
     1
  0
ATTDEF
  5
27F
  8
DEFPOINTS
 10
26.1416747608029887
 20
6.9048491095897999
 30
0.0
 40
0.001
  1
PURIST
  3

  2
TRADENAME
 70
     0
1001
ACDBATTR
1070
     0
1070
     1
  0
ATTDEF
  5
280
  8
DEFPOINTS
 10
26.1416747608029887
 20
6.9031824429231348
 30
0.0
 40
0.001
  1
HANDSHOWER
  3

  2
PRODUCT
 70
     0
1001
ACDBATTR
1070
     0
1070
     1
  0
LINE
  5
476
  8
0
 10
23.0966961776145503
 20
17.3583605894764013
 30
0.0
 11
25.3432259898418515
 21
12.9492975829846593
 31
0.0
  0
LINE
  5
477
  8
0
 10
25.156298198724329
 20
13.3161640292769299
 30
0.0
 11
25.1441835950707109
 21
13.3101540979101305
 31
0.0
  0
ARC
  5
478
  8
0
 10
25.1396761963525108
 20
13.3192399502513901
 30
0.0
 40
0.0101424531535492
 50
222.1778756253332006
 51
296.3855408688706916
  0
ARC
  5
479
  8
0
 10
26.3375434851715511
 20
14.1797035958091602
 30
0.0
 40
1.4849622667272551
 50
210.5292738462397892
 51
215.7350223191602936
  0
ARC
  5
47A
  8
0
 10
25.0672983057115708
 20
13.4312032468777893
 30
0.0
 40
0.0106022561087848
 50
133.5363147099834009
 51
213.3498770535005065
  0
ARC
  5
47B
  8
0
 10
36.9915016670352728
 20
-0.8571256689084201
 30
0.0
 40
18.6208723080627401
 50
129.7535518874954903
 51
129.8484989489465136
  0
ARC
  5
47C
  8
0
 10
24.7473405652798597
 20
13.1419068698487003
 30
0.0
 40
0.4162767756619214
 50
30.4444562972844501
 51
35.827422120754548
  0
ARC
  5
47D
  8
0
 10
25.4180385157978499
 20
13.5797290909132293
 30
0.0
 40
0.3856301388852862
 50
210.2303831250438009
 51
216.0414952929895946
  0
LINE
  5
47E
  8
0
 10
25.0023805244150097
 20
13.6182444735910106
 30
0.0
 11
24.9573612987707101
 21
13.5959108947101299
 31
0.0
  0
ARC
  5
47F
  8
0
 10
24.95285390005251
 20
13.6049967470513895
 30
0.0
 40
0.0101424531535492
 50
222.1778756253332006
 51
296.3855408688706916
  0
ARC
  5
480
  8
0
 10
26.1507211888715503
 20
14.4654603926091596
 30
0.0
 40
1.4849622667272551
 50
210.5292738462397892
 51
215.7350223191602936
  0
ARC
  5
481
  8
0
 10
24.88047600941157
 20
13.7169600436777905
 30
0.0
 40
0.0106022561087848
 50
133.5363147099834009
 51
213.3498770535005065
  0
ARC
  5
482
  8
0
 10
36.804679370735272
 20
-0.571368872108419
 30
0.0
 40
18.6208723080627401
 50
129.7535886782638102
 51
129.8484989489465136
  0
LINE
  5
483
  8
0
 10
24.8961350079920791
 20
13.7455767186704794
 30
0.0
 11
24.8836365117943217
 21
13.7393763421262296
 31
0.0
  0
ARC
  5
484
  8
0
 10
24.8791291130761216
 20
13.7484621944674892
 30
0.0
 40
0.0101424531535492
 50
222.1778756253332006
 51
296.3855408688706916
  0
ARC
  5
485
  8
0
 10
26.0769964018951583
 20
14.6089258400252593
 30
0.0
 40
1.4849622667272551
 50
210.5292738462397892
 51
215.7350223191602936
  0
ARC
  5
486
  8
0
 10
24.8067512224351709
 20
13.8604254910938902
 30
0.0
 40
0.0106022561087848
 50
133.5363147099834009
 51
213.3498770535005065
  0
ARC
  5
487
  8
0
 10
36.7309545837588729
 20
-0.4279034246923193
 30
0.0
 40
18.6208723080627401
 50
129.6359482637545
 51
129.8484989489465136
  0
ARC
  5
488
  8
0
 10
24.5912775586974917
 20
13.6552704527360707
 30
0.0
 40
0.2855456210356124
 50
26.9363298500163495
 51
34.7676812949054934
  0
ARC
  5
489
  8
0
 10
25.0817739965519912
 20
13.9482687564301298
 30
0.0
 40
0.2871285281612969
 50
206.9579499191846992
 51
214.7460612257384014
  0
LINE
  5
48A
  8
0
 10
24.9785531588330407
 20
13.6650083115591592
 30
0.0
 11
24.9649922660707091
 21
13.6582808909101399
 31
0.0
  0
ARC
  5
48B
  8
0
 10
24.960484867352509
 20
13.6673667432513906
 30
0.0
 40
0.0101424531535492
 50
222.1778756253332006
 51
296.3855408688706916
  0
ARC
  5
48C
  8
0
 10
26.1583521561715493
 20
14.5278303888091607
 30
0.0
 40
1.4849622667272551
 50
210.5292738462397892
 51
215.7350223191602936
  0
ARC
  5
48D
  8
0
 10
24.888106976711569
 20
13.7793300398777898
 30
0.0
 40
0.0106022561087848
 50
133.5363147099834009
 51
213.3498770535005065
  0
ARC
  5
48E
  8
0
 10
36.8123103380352674
 20
-0.5089988759084179
 30
0.0
 40
18.6208723080627401
 50
129.7484588749861985
 51
129.8484989489465136
  0
ARC
  5
48F
  8
0
 10
24.5681492362798615
 20
13.4900336628487096
 30
0.0
 40
0.4162767756619214
 50
30.4444562972844501
 51
35.827422120754548
  0
ARC
  5
490
  8
0
 10
25.2388471867978517
 20
13.9278558839132405
 30
0.0
 40
0.3856301388852862
 50
210.2303831250438009
 51
216.0414952929895946
  0
LINE
  5
491
  8
0
 10
24.7967814365377315
 20
13.9856831192888507
 30
0.0
 11
24.7372723733604083
 21
13.9605697327548004
 31
0.0
  0
ARC
  5
492
  8
0
 10
24.7333289302449586
 20
13.9699141756149903
 30
0.0
 40
0.0101424531535492
 50
218.6725387568062899
 51
292.880204000343781
  0
ARC
  5
493
  8
0
 10
25.9815651861869199
 20
14.7555285697685292
 30
0.0
 40
1.4849622667272551
 50
207.023936977712907
 51
212.2296854506332977
  0
ARC
  5
494
  8
0
 10
24.6679320560285014
 20
14.0860932945985606
 30
0.0
 40
0.0106022561087848
 50
130.0309778414564903
 51
209.8445401849735106
  0
ARC
  5
495
  8
0
 10
35.6962164905605519
 20
-0.9045675126825525
 30
0.0
 40
18.6208723080627401
 50
126.1561422584634045
 51
126.3431620804196029
  0
LINE
  5
496
  8
0
 10
24.6423225013551317
 20
14.1809643445723896
 30
0.0
 11
24.6280028202132684
 21
14.1749213039268298
 31
0.0
  0
ARC
  5
497
  8
0
 10
24.6240593770978187
 20
14.1842657467870108
 30
0.0
 40
0.0101424531535492
 50
218.6725387568062899
 51
292.880204000343781
  0
ARC
  5
498
  8
0
 10
25.87229563303978
 20
14.9698801409405604
 30
0.0
 40
1.4849622667272551
 50
207.023936977712907
 51
212.2296854506332124
  0
ARC
  5
499
  8
0
 10
24.5586625028813614
 20
14.30044486577059
 30
0.0
 40
0.0106022561087848
 50
130.0309778414564903
 51
209.8445401849735106
  0
ARC
  5
49A
  8
0
 10
35.5869469374134226
 20
-0.6902159415105285
 30
0.0
 40
18.6208723080627401
 50
126.1822690155775035
 51
126.3431620804196029
  0
ARC
  5
49B
  8
0
 10
24.3310484780395591
 20
14.1088480358817492
 30
0.0
 40
0.2855456210356124
 50
23.4309929814895312
 51
31.2623444263786183
  0
ARC
  5
49C
  8
0
 10
24.8385416090136211
 20
14.3713084777195395
 30
0.0
 40
0.2871285281612969
 50
203.4526130506577886
 51
211.2407243572114908
  0
LINE
  5
49D
  8
0
 10
24.7238117138281197
 20
14.16496654726933
 30
0.0
 11
24.6747954707117216
 21
14.1442812298721794
 31
0.0
  0
ARC
  5
49E
  8
0
 10
24.670852027596279
 20
14.1536256727323604
 30
0.0
 40
0.0101424531535492
 50
218.6725387568062899
 51
292.880204000343781
  0
ARC
  5
49F
  8
0
 10
25.9190882835382403
 20
14.9392400668858993
 30
0.0
 40
1.4849622667272551
 50
207.023936977712907
 51
212.2296854506332124
  0
ARC
  5
4A0
  8
0
 10
24.6054551533798183
 20
14.2698047917159396
 30
0.0
 40
0.0106022561087848
 50
130.0309778414564903
 51
209.8445401849735106
  0
ARC
  5
4A1
  8
0
 10
35.6337395879118617
 20
-0.7208560155651771
 30
0.0
 40
18.6208723080627401
 50
126.2483172594908041
 51
126.3431620804196029
  0
ARC
  5
4A2
  8
0
 10
24.2684080016790205
 20
14.0006123569138108
 30
0.0
 40
0.4162767756619214
 50
26.9391194287575999
 51
32.3220852522276303
  0
ARC
  5
4A3
  8
0
 10
24.9646202608923105
 20
14.3966079733138308
 30
0.0
 40
0.3856301388852862
 50
206.725046256516606
 51
212.5361584244625988
  0
LINE
  5
4A4
  8
0
 10
24.6575494112036893
 20
14.2950136384034892
 30
0.0
 11
24.6411955792797883
 21
14.2881121669218292
 31
0.0
  0
ARC
  5
4A5
  8
0
 10
24.6368310930463998
 20
14.3030195686797406
 30
0.0
 40
0.0155331699035597
 50
237.0302504850488958
 51
286.3186112188126913
  0
ARC
  5
4A6
  8
0
 10
24.9508822863189614
 20
14.5506057409802203
 30
0.0
 40
0.4146452425749012
 50
200.0816477641079132
 51
218.9419071695035939
  0
ARC
  5
4A7
  8
0
 10
24.5748327616437088
 20
14.4119155852391803
 30
0.0
 40
0.013884175572738
 50
134.8792864508889977
 51
195.3783509012905029
  0
ARC
  5
4A8
  8
0
 10
35.6001396964799284
 20
-0.5770250785155202
 30
0.0
 40
18.6208723080627401
 50
126.2655512593120051
 51
126.3431620804196029
  0
ARC
  5
4A9
  8
0
 10
24.4815671779154584
 20
14.2847963368904196
 30
0.0
 40
0.1333757386523435
 50
21.2029932408272295
 51
38.0582114401588285
  0
ARC
  5
4AA
  8
0
 10
24.6679071153502996
 20
14.3907838391326806
 30
0.0
 40
0.0847236468055812
 50
196.2910888056979104
 51
222.970115875284705
  0
LINE
  5
4AB
  8
0
 10
24.4876967475893998
 20
14.5890164179103099
 30
0.0
 11
24.4281783241793704
 21
14.5667487238453592
 31
0.0
  0
ARC
  5
4AC
  8
0
 10
24.4244543904552316
 20
14.5754849586742505
 30
0.0
 40
0.0094968142746542
 50
212.7571034484614074
 51
293.0867578900296735
  0
ARC
  5
4AD
  8
0
 10
26.5988938848726093
 20
15.7395719702473897
 30
0.0
 40
2.4758981828441531
 50
205.0857685292706947
 51
208.1799919904989906
  0
ARC
  5
4AE
  8
0
 10
24.3646027244126415
 20
14.6940764787549103
 30
0.0
 40
0.009104036996555
 50
119.0949679883935062
 51
207.6304449353033021
  0
ARC
  5
4AF
  8
0
 10
24.7352967449452485
 20
14.1625980730480094
 30
0.0
 40
0.657042144289078
 50
119.6616600772156005
 51
124.8146638523587058
  0
LINE
  5
4B0
  8
0
 10
24.4245423242306288
 20
14.7523157947477994
 30
0.0
 11
24.3723209395135285
 21
14.7302778773328207
 31
0.0
  0
ARC
  5
4B1
  8
0
 10
24.3683774963980895
 20
14.7396223201930106
 30
0.0
 40
0.0101424531535492
 50
218.672538756806091
 51
292.880204000343781
  0
ARC
  5
4B2
  8
0
 10
25.6166137523400508
 20
15.5252367143465495
 30
0.0
 40
1.4849622667272551
 50
207.023936977712907
 51
212.2296854506332124
  0
ARC
  5
4B3
  8
0
 10
24.3029806221816287
 20
14.8558014391765791
 30
0.0
 40
0.0106022561087848
 50
130.0309778414564903
 51
209.8445401849735106
  0
ARC
  5
4B4
  8
0
 10
35.3312650567136686
 20
-0.134859368104534
 30
0.0
 40
18.6208723080627401
 50
126.1445138978857017
 51
126.3431620804196029
  0
ARC
  5
4B5
  8
0
 10
24.1988358356342204
 20
14.7283607524342095
 30
0.0
 40
0.1481178370817495
 50
20.5929030304019811
 51
35.6731444671255389
  0
ARC
  5
4B6
  8
0
 10
24.4374287047149785
 20
14.8559342599699598
 30
0.0
 40
0.1252381322233758
 50
199.2050332278047051
 51
217.0610142697206015
  0
LINE
  5
4B7
  8
0
 10
24.2575836085818608
 20
15.0799907237746798
 30
0.0
 11
24.1817903348411782
 21
15.0480052466304599
 31
0.0
  0
ARC
  5
4B8
  8
0
 10
24.1778468917257285
 20
15.0573496894906391
 30
0.0
 40
0.0101424531535492
 50
218.672538756806091
 51
292.880204000343781
  0
ARC
  5
4B9
  8
0
 10
25.4260831476676898
 20
15.8429640836441905
 30
0.0
 40
1.4849622667272551
 50
207.023936977712907
 51
212.2296854506332124
  0
ARC
  5
4BA
  8
0
 10
24.1124500175092713
 20
15.1735288084742201
 30
0.0
 40
0.0106022561087848
 50
130.0309778414564903
 51
209.8445401849735106
  0
ARC
  5
4BB
  8
0
 10
35.1407344520413218
 20
0.1828680011931052
 30
0.0
 40
18.6208723080627401
 50
126.0649914854449065
 51
126.3431620804196029
  0
ARC
  5
4BC
  8
0
 10
23.77540286580847
 20
14.9043363736720895
 30
0.0
 40
0.4162767756619214
 50
26.9391194287575999
 51
32.3220852522276303
  0
ARC
  5
4BD
  8
0
 10
24.4716151250217706
 20
15.3003319900721095
 30
0.0
 40
0.3856301388852862
 50
206.725046256516606
 51
212.5361584244625988
  0
LINE
  5
4BE
  8
0
 10
24.2567191186089701
 20
15.08168738087587
 30
0.0
 11
24.2359991064427405
 21
15.0729433401073099
 31
0.0
  0
ARC
  5
4BF
  8
0
 10
24.2320556633273014
 20
15.0822877829674997
 30
0.0
 40
0.0101424531535492
 50
218.672538756806091
 51
292.880204000343781
  0
ARC
  5
4C0
  8
0
 10
25.4802919192692592
 20
15.8679021771210405
 30
0.0
 40
1.4849622667272551
 50
207.023936977712907
 51
212.2296854506332124
  0
ARC
  5
4C1
  8
0
 10
24.1666587891108406
 20
15.1984669019510701
 30
0.0
 40
0.0106022561087848
 50
130.0309778414564903
 51
209.8445401849735106
  0
ARC
  5
4C2
  8
0
 10
35.1949432236428805
 20
0.2078060946699569
 30
0.0
 40
18.6208723080627401
 50
126.2508150846139046
 51
126.3431620804196029
  0
ARC
  5
4C3
  8
0
 10
23.8296116374100286
 20
14.9292744671489501
 30
0.0
 40
0.4162767756619214
 50
26.9391194287575999
 51
32.3220852522276303
  0
ARC
  5
4C4
  8
0
 10
24.5258238966233293
 20
15.3252700835489595
 30
0.0
 40
0.3856301388852862
 50
206.725046256516606
 51
212.5361584244625988
  0
ARC
  5
4C5
  8
0
 10
23.5737779150396705
 20
14.1916662028011
 30
0.0
 40
0.9965615013316519
 50
22.4637757101311308
 51
33.6227651199903974
  0
ARC
  5
4C6
  8
0
 10
24.5150375726992387
 20
14.5997962095677192
 30
0.0
 40
0.034065605475407
 50
201.3799896743011004
 51
233.3891194679304988
  0
ARC
  5
4C7
  8
0
 10
22.4360397711257491
 20
12.6679250635476208
 30
0.0
 40
2.7036248823168978
 50
27.1780039880402207
 51
33.3168182217654518
  0
ARC
  5
4C8
  8
0
 10
97.143741517991046
 20
51.2665958563822102
 30
0.0
 40
81.4111446322965833
 50
206.7834277426210861
 51
206.9761377187797109
  0
ARC
  5
4C9
  8
0
 10
24.553572373941531
 20
14.3007604738080296
 30
0.0
 40
0.0209865034817837
 50
203.7755298238938906
 51
280.1219017758850782
  0
LINE
  5
4CA
  8
0
 10
24.5343669544517518
 20
14.2922996706184904
 30
0.0
 11
24.3552744323482493
 21
14.6437885360340907
 31
0.0
  0
LINE
  5
4CB
  8
0
 10
24.3353397742560809
 20
14.6829125054380807
 30
0.0
 11
24.2269123465715097
 21
14.8957133141438405
 31
0.0
  0
ARC
  5
4CC
  8
0
 10
24.2455253142636806
 20
14.9051970949111805
 30
0.0
 40
0.0208898220182047
 50
117.9999997817011064
 51
207.000000091793396
  0
LINE
  5
4CD
  8
0
 10
24.2357181369447403
 20
14.9236417130147796
 30
0.0
 11
24.2760224396034303
 21
14.9450718909123701
 31
0.0
  0
LINE
  5
4CE
  8
0
 10
24.5363114797777904
 20
14.4435653783419404
 30
0.0
 11
24.4914723231517506
 21
14.4216958604184899
 31
0.0
  0
ARC
  5
4CF
  8
0
 10
24.482314827854939
 20
14.4404715082107007
 30
0.0
 40
0.0208898221660268
 50
206.999999994869313
 51
295.9999999928912757
  0
ARC
  5
4D0
  8
0
 10
24.3738874001517516
 20
14.6532723168184909
 30
0.0
 40
0.0208898221000009
 50
115.4326225295456965
 51
206.9999999948672098
  0
ARC
  5
4D1
  8
0
 10
24.3539527420517494
 20
14.6923962862184894
 30
0.0
 40
0.0208898220999988
 50
206.9999999948684888
 51
298.7201875164847138
  0
ARC
  5
4D2
  8
0
 10
23.7519172817526893
 20
14.5940237909455792
 30
0.0
 40
0.6308097850985241
 50
26.7478234473419612
 51
35.3075961363560324
  0
ARC
  5
4D3
  8
0
 10
24.3083026294788098
 20
14.9656554655775302
 30
0.0
 40
0.0421983675692392
 50
189.6107556833925969
 51
212.1034182329468081
  0
LINE
  5
4D4
  8
0
 10
24.1757374704934414
 20
14.9951540525113902
 30
0.0
 11
24.0673100428088702
 21
15.20795486121715
 31
0.0
  0
ARC
  5
4D5
  8
0
 10
24.0859230105010305
 20
15.2174386419844794
 30
0.0
 40
0.0208898220182047
 50
117.9999997817011064
 51
207.000000091793396
  0
LINE
  5
4D6
  8
0
 10
24.0761158331821008
 20
15.2358832600880802
 30
0.0
 11
24.1164201358407801
 21
15.2573134379856796
 31
0.0
  0
ARC
  5
4D7
  8
0
 10
24.1943504382890993
 20
15.0046378332918007
 30
0.0
 40
0.0208898220999988
 50
206.9999999948684888
 51
298.7201875164847138
  0
ARC
  5
4D8
  8
0
 10
23.5923149779900392
 20
14.9062653380188905
 30
0.0
 40
0.6308097850985241
 50
28.8328248716332602
 51
35.3075961363560324
  0
ARC
  5
4D9
  8
0
 10
24.1487003257161597
 20
15.2778970126508309
 30
0.0
 40
0.0421983675692392
 50
189.6107556833925969
 51
212.1034182329468081
  0
LINE
  5
4DA
  8
0
 10
24.2043886771473993
 20
14.9863179416984096
 30
0.0
 11
24.2471163199429895
 21
15.0080887630948503
 31
0.0
  0
ARC
  5
4DB
  8
0
 10
24.2826791123115413
 20
15.0239433281585395
 30
0.0
 40
0.0436114921347792
 50
204.3469973008650129
 51
226.3784505386853141
  0
ARC
  5
4DC
  8
0
 10
23.8477025467439816
 20
14.8601208066297605
 30
0.0
 40
0.4259411677233512
 50
18.0889249167327684
 51
28.7021616610050003
  0
ARC
  5
4DD
  8
0
 10
25.0705781653620896
 20
15.4210158031288902
 30
0.0
 40
0.9543744563771852
 50
206.6444008886277004
 51
210.8355380570536965
  0
LINE
  5
4DE
  8
0
 10
23.4375416444199303
 20
16.6894136995724409
 30
0.0
 11
23.3930117626525593
 21
16.6661197292576695
 31
0.0
  0
ARC
  5
4DF
  8
0
 10
23.3977129891106514
 20
16.6571326370826789
 30
0.0
 40
0.0101424531535492
 50
117.6144591208635006
 51
191.8221243644009917
  0
ARC
  5
4E0
  8
0
 10
24.7979314280631193
 20
17.1204597894995807
 30
0.0
 40
1.4849622667272551
 50
198.2649776705738986
 51
203.470726143494403
  0
ARC
  5
4E1
  8
0
 10
23.4457505420945793
 20
16.5327673189734909
 30
0.0
 40
0.0106022561087848
 50
200.6501229362337142
 51
280.4636852797510755
  0
ARC
  5
4E2
  8
0
 10
18.8951205123601618
 20
34.578119500085819
 30
0.0
 40
18.6208723080627401
 50
284.1515010407877071
 51
284.2464113114705242
  0
LINE
  5
4E3
  8
0
 10
23.4781060469167215
 20
16.5286152554038708
 30
0.0
 11
23.4657434051788591
 21
16.522148249469339
 31
0.0
  0
ARC
  5
4E4
  8
0
 10
23.4704446316369513
 20
16.5131611572943484
 30
0.0
 40
0.0101424531535492
 50
117.6144591208635006
 51
191.8221243644009917
  0
ARC
  5
4E5
  8
0
 10
24.8706630705894192
 20
16.9764883097112502
 30
0.0
 40
1.4849622667272551
 50
198.2649776705738986
 51
203.470726143494403
  0
ARC
  5
4E6
  8
0
 10
23.5184821846208898
 20
16.3887958391851605
 30
0.0
 40
0.0106022561087848
 50
200.6501229362337142
 51
280.4636852797510755
  0
ARC
  5
4E7
  8
0
 10
18.9678521548864687
 20
34.4341480202974921
 30
0.0
 40
18.6208723080627401
 50
284.1515010407877071
 51
284.3640517259797207
  0
ARC
  5
4E8
  8
0
 10
23.2258560302956987
 20
16.3350610894137986
 30
0.0
 40
0.2855456210356124
 50
19.2323186948287912
 51
27.0636701397178001
  0
ARC
  5
4E9
  8
0
 10
23.7512032098203285
 20
16.5596609613662586
 30
0.0
 40
0.2871285281612969
 50
199.2539387639957909
 51
207.0420500705494078
  0
LINE
  5
4EA
  8
0
 10
23.4613690099599097
 20
16.6426498615828997
 30
0.0
 11
23.4479555195516589
 21
16.6356331475251515
 31
0.0
  0
ARC
  5
4EB
  8
0
 10
23.452656746009751
 20
16.6266460553501609
 30
0.0
 40
0.0101424531535492
 50
117.6144591208635006
 51
191.8221243644009917
  0
ARC
  5
4EC
  8
0
 10
24.8528751849622189
 20
17.0899732077670485
 30
0.0
 40
1.4849622667272551
 50
198.2649776705738986
 51
203.470726143494403
  0
ARC
  5
4ED
  8
0
 10
23.5006942989936789
 20
16.5022807372409694
 30
0.0
 40
0.0106022561087848
 50
200.6501229362337142
 51
280.4636852797510755
  0
ARC
  5
4EE
  8
0
 10
18.9500642692592685
 20
34.5476329183533011
 30
0.0
 40
18.6208723080627401
 50
284.1515010407877071
 51
284.2515411147481927
  0
ARC
  5
4EF
  8
0
 10
23.078582172367561
 20
16.4134736317848784
 30
0.0
 40
0.4162767756619214
 50
18.1725778689797117
 51
23.55554369244987
  0
ARC
  5
4F0
  8
0
 10
23.8270141538321312
 20
16.6987342270446213
 30
0.0
 40
0.3856301388852862
 50
197.9585046967445976
 51
203.7696168646905051
  0
LINE
  5
4F1
  8
0
 10
23.6139576413720391
 20
16.3071055263566116
 30
0.0
 11
23.558661935160341
 21
16.2737229611765706
 31
0.0
  0
ARC
  5
4F2
  8
0
 10
23.563903850529119
 20
16.2650401229747814
 30
0.0
 40
0.0101424531535492
 50
121.119795989390596
 51
195.3274612329279876
  0
ARC
  5
4F3
  8
0
 10
24.9331741091425805
 20
16.81311191190931
 30
0.0
 40
1.4849622667272551
 50
201.7703145391010935
 51
206.9760630120213989
  0
ARC
  5
4F4
  8
0
 10
23.6194554139461701
 20
16.1438445675818301
 30
0.0
 40
0.0106022561087848
 50
204.1554598047607101
 51
283.9690221482778156
  0
ARC
  5
4F5
  8
0
 10
17.9740190158271389
 20
33.8772034395690866
 30
0.0
 40
18.6208723080627401
 50
287.6568379093146746
 51
287.843857731270873
  0
LINE
  5
4F6
  8
0
 10
23.6811547870807004
 20
16.0673621985775199
 30
0.0
 11
23.6678489671065897
 21
16.0593293433525801
 31
0.0
  0
ARC
  5
4F7
  8
0
 10
23.6730908824753712
 20
16.0506465051507909
 30
0.0
 40
0.0101424531535492
 50
121.119795989390596
 51
195.3274612329279876
  0
ARC
  5
4F8
  8
0
 10
25.0423611410888292
 20
16.5987182940853195
 30
0.0
 40
1.4849622667272551
 50
201.7703145391010935
 51
206.9760630120213989
  0
ARC
  5
4F9
  8
0
 10
23.7286424458924188
 20
15.9294509497578396
 30
0.0
 40
0.0106022561087848
 50
204.1554598047607101
 51
283.9690221482778156
  0
ARC
  5
4FA
  8
0
 10
18.0832060477733911
 20
33.6628098217450784
 30
0.0
 40
18.6208723080627401
 50
287.6568379093146746
 51
287.8177309741568024
  0
ARC
  5
4FB
  8
0
 10
23.4398491874142287
 20
15.8579251265491301
 30
0.0
 40
0.2855456210356124
 50
22.7376555633555597
 51
30.5690070082449097
  0
ARC
  5
4FC
  8
0
 10
23.9504811232843586
 20
16.1142253169217895
 30
0.0
 40
0.2871285281612969
 50
202.7592756325227015
 51
210.5473869390766026
  0
LINE
  5
4FD
  8
0
 10
23.7161104545160093
 20
16.1426916256440407
 30
0.0
 11
23.6705646563761505
 21
16.1151951764756589
 31
0.0
  0
ARC
  5
4FE
  8
0
 10
23.6758065717449391
 20
16.1065123382738697
 30
0.0
 40
0.0101424531535492
 50
121.119795989390596
 51
195.3274612329279876
  0
ARC
  5
4FF
  8
0
 10
25.0450768303583793
 20
16.654584127208409
 30
0.0
 40
1.4849622667272551
 50
201.7703145391010935
 51
206.9760630120213989
  0
ARC
  5
500
  8
0
 10
23.7313581351619689
 20
15.9853167828809202
 30
0.0
 40
0.0106022561087848
 50
204.1554598047607101
 51
283.9690221482778156
  0
ARC
  5
501
  8
0
 10
18.0859217370429413
 20
33.7186756548681572
 30
0.0
 40
18.6208723080627401
 50
287.6568379093146746
 51
287.751682730243374
  0
ARC
  5
502
  8
0
 10
23.3154655355324714
 20
15.8708672525292105
 30
0.0
 40
0.4162767756619214
 50
21.6779147375068213
 51
27.0608805609767593
  0
ARC
  5
503
  8
0
 10
24.045056017388081
 20
16.201354418501829
 30
0.0
 40
0.3856301388852862
 50
201.4638415652715935
 51
207.2749537332175862
  0
LINE
  5
504
  8
0
 10
23.7823727570236905
 20
16.0126445344503985
 30
0.0
 11
23.7671768080838604
 21
16.003470589659571
 31
0.0
  0
ARC
  5
505
  8
0
 10
23.7766717688039613
 20
15.9911772952200497
 30
0.0
 40
0.0155331699035597
 50
127.6813887709217994
 51
176.9697495046854101
  0
ARC
  5
506
  8
0
 10
24.1615678496571995
 20
16.0997225468625516
 30
0.0
 40
0.4146452425749012
 50
195.0580928202305984
 51
213.9183522256263075
  0
ARC
  5
507
  8
0
 10
23.828328791934581
 20
15.87701211891609
 30
0.0
 40
0.013884175572738
 50
218.6216490884436041
 51
279.1207135388451093
  0
ARC
  5
508
  8
0
 10
18.1825338887506511
 20
33.6069510680520693
 30
0.0
 40
18.6208723080627401
 50
287.6568379093146746
 51
287.7344487304224003
  0
ARC
  5
509
  8
0
 10
23.6706670250462103
 20
15.8762774961797799
 30
0.0
 40
0.1333757386523435
 50
15.9417885495754099
 51
32.7970067489071226
  0
ARC
  5
50A
  8
0
 10
23.8659405827047095
 20
15.9647317815150398
 30
0.0
 40
0.0847236468055812
 50
191.029884114449402
 51
217.7089111840363955
  0
LINE
  5
50B
  8
0
 10
23.9203891112475198
 20
15.7024203450947493
 30
0.0
 11
23.8673901167970293
 21
15.6673575512610697
 31
0.0
  0
ARC
  5
50C
  8
0
 10
23.8722690059154417
 20
15.6592097955984499
 30
0.0
 40
0.0094968142746542
 50
120.9132420997044051
 51
201.2428965412728985
  0
ARC
  5
50D
  8
0
 10
26.09213864822269
 20
16.734135121636541
 30
0.0
 40
2.4758981828441531
 50
205.8200079992352016
 51
208.9142314604634976
  0
ARC
  5
50E
  8
0
 10
23.9330316344033101
 20
15.5410824340670999
 30
0.0
 40
0.009104036996555
 50
206.3695550544308048
 51
294.9050320013408282
  0
ARC
  5
50F
  8
0
 10
23.7209450505349011
 20
16.1533753652155916
 30
0.0
 40
0.657042144289078
 50
289.1853361373756002
 51
294.3383399125185065
  0
LINE
  5
510
  8
0
 10
24.0153798435862207
 20
15.5553423778969009
 30
0.0
 11
23.9668558340806186
 21
15.5260479530474402
 31
0.0
  0
ARC
  5
511
  8
0
 10
23.9720977494494001
 20
15.5173651148456493
 30
0.0
 40
0.0101424531535492
 50
121.119795989390596
 51
195.3274612329279876
  0
ARC
  5
512
  8
0
 10
25.3413680080628616
 20
16.0654369037801885
 30
0.0
 40
1.4849622667272551
 50
201.7703145391010935
 51
206.9760630120213989
  0
ARC
  5
513
  8
0
 10
24.0276493128664512
 20
15.3961695594527104
 30
0.0
 40
0.0106022561087848
 50
204.1554598047607101
 51
283.9690221482778156
  0
ARC
  5
514
  8
0
 10
18.3822129147474094
 20
33.129528431439951
 30
0.0
 40
18.6208723080627401
 50
287.6568379093146746
 51
287.8554860918486042
  0
ARC
  5
515
  8
0
 10
23.8633328618796696
 20
15.3868224134989404
 30
0.0
 40
0.1481178370817495
 50
18.3268555226087209
 51
33.4070969593322218
  0
ARC
  5
516
  8
0
 10
24.1067833672770817
 20
15.5048622729655801
 30
0.0
 40
0.1252381322233758
 50
196.9389857200137044
 51
214.7949667619294871
  0
ARC
  5
517
  8
0
 10
23.0617380228499194
 20
15.1966010746729907
 30
0.0
 40
0.9965615013316519
 50
20.3772348697438801
 51
31.5362242796032284
  0
ARC
  5
518
  8
0
 10
23.945180679682089
 20
15.7182033346854002
 30
0.0
 40
0.034065605475407
 50
180.6108805218038071
 51
212.6200103154330066
  0
ARC
  5
519
  8
0
 10
21.1602598441979488
 20
15.1717841514032301
 30
0.0
 40
2.7036248823168978
 50
20.6831817679690317
 51
26.8219960016941599
  0
ARC
  5
51A
  8
0
 10
96.2993258021211602
 20
52.9238550117291524
 30
0.0
 40
81.4111446322965833
 50
207.0238622709543961
 51
207.2165722471131062
  0
ARC
  5
51B
  8
0
 10
23.7259058754343997
 20
15.9251474391925303
 30
0.0
 40
0.0209865034817837
 50
133.8780982138491993
 51
210.2244701658403869
  0
LINE
  5
51C
  8
0
 10
23.7077722795259298
 20
15.9145830637817998
 30
0.0
 11
23.8868648016294287
 21
15.5630941983662101
 31
0.0
  0
LINE
  5
51D
  8
0
 10
23.90679945972159
 20
15.5239702289622201
 30
0.0
 11
24.0152268874061612
 21
15.3111694202564603
 31
0.0
  0
ARC
  5
51E
  8
0
 10
24.0338398551304095
 20
15.3206532009608196
 30
0.0
 40
0.0208898220182047
 50
206.9999998979409952
 51
296.0000002080333275
  0
LINE
  5
51F
  8
0
 10
24.0429973504329304
 20
15.3018775533358493
 30
0.0
 11
24.0840250032548511
 21
15.3218880766035994
 31
0.0
  0
LINE
  5
520
  8
0
 10
23.8312917710340493
 20
15.8272444656170101
 30
0.0
 11
23.7872431643809783
 21
15.8038234060111407
 31
0.0
  0
ARC
  5
521
  8
0
 10
23.7970503418385704
 20
15.7853787878138601
 30
0.0
 40
0.0208898221660268
 50
117.9999999968430018
 51
206.9999999948649929
  0
ARC
  5
522
  8
0
 10
23.905477769432931
 20
15.5725779791506191
 30
0.0
 40
0.0208898221000009
 50
206.9999999948670961
 51
298.5673774601884816
  0
ARC
  5
523
  8
0
 10
23.9254124275172586
 20
15.5334540097426306
 30
0.0
 40
0.0208898220999988
 50
115.2798124732496063
 51
206.9999999948657887
  0
ARC
  5
524
  8
0
 10
23.491959842064599
 20
15.10421899317463
 30
0.0
 40
0.6308097850985241
 50
18.6924038533782806
 51
27.2521765423924691
  0
ARC
  5
525
  8
0
 10
24.1196512845164115
 20
15.3359045771604006
 30
0.0
 40
0.0421983675692392
 50
201.8965817567876115
 51
224.3892443063413964
  0
ARC
  5
526
  8
0
 10
24.9360998543978489
 20
15.6849443490483509
 30
0.0
 40
0.9543744563771852
 50
203.1644619326808083
 51
207.5653050050933928
  0
LINE
  5
527
  8
0
 10
23.2836239703817895
 20
16.9914941440246992
 30
0.0
 11
23.2716410484049412
 21
16.9852257728156388
 31
0.0
  0
ARC
  5
528
  8
0
 10
23.2763422748630298
 20
16.9762386806406482
 30
0.0
 40
0.0101424531535492
 50
117.6144591208635006
 51
191.8221243644009917
  0
ARC
  5
529
  8
0
 10
24.6765607138155012
 20
17.43956583305755
 30
0.0
 40
1.4849622667272551
 50
198.2649776705738986
 51
203.470726143494403
  0
ARC
  5
52A
  8
0
 10
23.3243798278469612
 20
16.8518733625314709
 30
0.0
 40
0.0106022561087848
 50
200.6501229362337142
 51
280.4636852797510755
  0
ARC
  5
52B
  8
0
 10
18.7737497981125401
 20
34.897225543643799
 30
0.0
 40
18.6208723080627401
 50
284.1515010407877071
 51
284.2464481022386167
  0
ARC
  5
52C
  8
0
 10
22.9022677012208291
 20
16.7630662570753799
 30
0.0
 40
0.4162767756619214
 50
18.1725778689797117
 51
23.55554369244987
  0
ARC
  5
52D
  8
0
 10
23.6506996826853992
 20
17.0483268523351192
 30
0.0
 40
0.3856301388852862
 50
197.9585046967445976
 51
203.7696168646905051
  0
ARC
  5
57F
  8
0
 10
25.6244429072566895
 20
12.0694310313421909
 30
0.0
 40
0.0346487357116955
 50
97.2512080167130932
 51
172.7715485933821071
  0
LINE
  5
586
  8
0
 10
25.620069547840199
 20
12.1038026564686394
 30
0.0
 11
26.6700695478398906
 21
12.1038026564686394
 31
0.0
  0
ENDSEC
  0
EOF
