  0
SECTION
  2
HEADER
  9
$ACADVER
  1
AC1009
  9
$INSBASE
 10
-9.017749680309965
 20
41.8552105633575593
 30
0.0
  9
$EXTMIN
 10
-9.5689307827099626
 20
41.461509775957559
 30
0.0
  9
$EXTMAX
 10
-8.4665685779099622
 20
51.3040294609575511
 30
0.0
  9
$LIMMIN
 10
0.0
 20
0.0
  9
$LIMMAX
 10
11.6929133858000007
 20
8.2677165353999982
  9
$ORTHOMODE
 70
     0
  9
$REGENMODE
 70
     1
  9
$FILLMODE
 70
     1
  9
$QTEXTMODE
 70
     0
  9
$MIRRTEXT
 70
     0
  9
$DRAGMODE
 70
     2
  9
$LTSCALE
 40
0.6431102362
  9
$OSMODE
 70
  2039
  9
$ATTMODE
 70
     1
  9
$TEXTSIZE
 40
0.2
  9
$TRACEWID
 40
0.05
  9
$TEXTSTYLE
  7
STANDARD
  9
$CLAYER
  8
0
  9
$CELTYPE
  6
BYLAYER
  9
$CECOLOR
 62
   256
  9
$DIMSCALE
 40
1.0
  9
$DIMASZ
 40
0.1875
  9
$DIMEXO
 40
0.0625
  9
$DIMDLI
 40
0.4443307087
  9
$DIMRND
 40
0.0
  9
$DIMDLE
 40
0.0
  9
$DIMEXE
 40
0.125
  9
$DIMTP
 40
0.01
  9
$DIMTM
 40
0.01
  9
$DIMTXT
 40
0.15625
  9
$DIMCEN
 40
0.1052362205
  9
$DIMTSZ
 40
0.0
  9
$DIMTOL
 70
     1
  9
$DIMLIM
 70
     0
  9
$DIMTIH
 70
     1
  9
$DIMTOH
 70
     1
  9
$DIMSE1
 70
     0
  9
$DIMSE2
 70
     0
  9
$DIMTAD
 70
     0
  9
$DIMZIN
 70
     0
  9
$DIMBLK
  1

  9
$DIMASO
 70
     1
  9
$DIMSHO
 70
     1
  9
$DIMPOST
  1

  9
$DIMAPOST
  1

  9
$DIMALT
 70
     0
  9
$DIMALTD
 70
     2
  9
$DIMALTF
 40
25.3999999999999986
  9
$DIMLFAC
 40
1.0
  9
$DIMTOFL
 70
     0
  9
$DIMTVP
 40
0.0
  9
$DIMTIX
 70
     0
  9
$DIMSOXD
 70
     0
  9
$DIMSAH
 70
     0
  9
$DIMBLK1
  1

  9
$DIMBLK2
  1

  9
$DIMSTYLE
  2
STANDARD
  9
$DIMCLRD
 70
     0
  9
$DIMCLRE
 70
     0
  9
$DIMCLRT
 70
     0
  9
$DIMTFAC
 40
1.0
  9
$DIMGAP
 40
0.09
  9
$LUNITS
 70
     2
  9
$LUPREC
 70
     4
  9
$SKETCHINC
 40
0.1
  9
$FILLETRAD
 40
0.0
  9
$AUNITS
 70
     0
  9
$AUPREC
 70
     0
  9
$MENU
  1
.
  9
$ELEVATION
 40
0.0
  9
$PELEVATION
 40
0.0
  9
$THICKNESS
 40
0.0
  9
$LIMCHECK
 70
     0
  9
$BLIPMODE
 70
     0
  9
$CHAMFERA
 40
0.0
  9
$CHAMFERB
 40
0.0
  9
$SKPOLY
 70
     0
  9
$TDCREATE
 40
2457730.4652893519960344
  9
$TDUPDATE
 40
2459690.7110648150555789
  9
$TDINDWG
 40
0.0828789236
  9
$TDUSRTIMER
 40
0.0828789236
  9
$USRTIMER
 70
     1
  9
$ANGBASE
 50
0.0
  9
$ANGDIR
 70
     0
  9
$PDMODE
 70
     0
  9
$PDSIZE
 40
0.3125
  9
$PLINEWID
 40
0.0
  9
$COORDS
 70
     1
  9
$SPLFRAME
 70
     0
  9
$SPLINETYPE
 70
     6
  9
$SPLINESEGS
 70
     8
  9
$ATTDIA
 70
     1
  9
$ATTREQ
 70
     1
  9
$HANDLING
 70
     1
  9
$HANDSEED
  5
430F
  9
$SURFTAB1
 70
     6
  9
$SURFTAB2
 70
     6
  9
$SURFTYPE
 70
     6
  9
$SURFU
 70
     6
  9
$SURFV
 70
     6
  9
$UCSNAME
  2

  9
$UCSORG
 10
0.0
 20
0.0
 30
0.0
  9
$UCSXDIR
 10
1.0
 20
0.0
 30
0.0
  9
$UCSYDIR
 10
0.0
 20
1.0
 30
0.0
  9
$PUCSNAME
  2

  9
$PUCSORG
 10
0.0
 20
0.0
 30
0.0
  9
$PUCSXDIR
 10
1.0
 20
0.0
 30
0.0
  9
$PUCSYDIR
 10
0.0
 20
1.0
 30
0.0
  9
$USERI1
 70
     0
  9
$USERI2
 70
     0
  9
$USERI3
 70
     0
  9
$USERI4
 70
     0
  9
$USERI5
 70
     0
  9
$USERR1
 40
0.0
  9
$USERR2
 40
0.0
  9
$USERR3
 40
0.0
  9
$USERR4
 40
0.0
  9
$USERR5
 40
0.0
  9
$WORLDVIEW
 70
     1
  9
$SHADEDGE
 70
     3
  9
$SHADEDIF
 70
    70
  9
$TILEMODE
 70
     1
  9
$MAXACTVP
 70
    64
  9
$PLIMCHECK
 70
     0
  9
$PEXTMIN
 10
1.0000000000000000E+20
 20
1.0000000000000000E+20
 30
1.0000000000000000E+20
  9
$PEXTMAX
 10
-1.0000000000000000E+20
 20
-1.0000000000000000E+20
 30
-1.0000000000000000E+20
  9
$PLIMMIN
 10
0.0
 20
0.0
  9
$PLIMMAX
 10
12.0
 20
9.0
  9
$UNITMODE
 70
     0
  9
$VISRETAIN
 70
     1
  9
$PLINEGEN
 70
     0
  9
$PSLTSCALE
 70
     1
  0
ENDSEC
  0
SECTION
  2
TABLES
  0
TABLE
  2
VPORT
 70
     1
  0
VPORT
  2
*ACTIVE
 70
     0
 10
0.0
 20
0.0
 11
1.0
 21
1.0
 12
7.24003632271475
 22
-7.0031976322150022
 13
0.0
 23
0.0
 14
1.0
 24
1.0
 15
0.0
 25
0.0
 16
-0.0000000000000089
 26
0.0
 36
41.1171683823618608
 17
-5.5045306682586661
 27
46.8987674713134695
 37
0.0
 40
30.0715627965512411
 41
2.000833333333333
 42
50.0
 43
0.0
 44
0.0
 50
0.0
 51
0.0
 71
     0
 72
   100
 73
     1
 74
     1
 75
     0
 76
     0
 77
     0
 78
     0
  0
ENDTAB
  0
TABLE
  2
LTYPE
 70
     2
  0
LTYPE
  2
CONTINUOUS
 70
     0
  3
Solid line
 72
    65
 73
     0
 40
0.0
  0
LTYPE
  2
PHANTOM2
 70
     0
  3
___ _ _ ___ _ _ ___ _ _ ___ _ _
 72
    65
 73
     6
 40
1.25
 49
0.625
 49
-0.125
 49
0.125
 49
-0.125
 49
0.125
 49
-0.125
  0
ENDTAB
  0
TABLE
  2
LAYER
 70
     2
  0
LAYER
  2
0
 70
     0
 62
     7
  6
CONTINUOUS
  0
LAYER
  2
DEFPOINTS
 70
     0
 62
     7
  6
CONTINUOUS
  0
ENDTAB
  0
TABLE
  2
STYLE
 70
     1
  0
STYLE
  2
STANDARD
 70
     0
 40
0.0
 41
0.8
 50
0.0
 71
     0
 42
0.2
  3
txt
  4

  0
ENDTAB
  0
TABLE
  2
VIEW
 70
     0
  0
ENDTAB
  0
TABLE
  2
UCS
 70
     0
  0
ENDTAB
  0
TABLE
  2
APPID
 70
     5
  0
APPID
  2
ACAD
 70
     0
  0
APPID
  2
ACAD_NAV_VCDISPLAY
 70
     0
  0
APPID
  2
ACAD_MLEADERVER
 70
     0
  0
APPID
  2
ACAD_EXEMPT_FROM_CAD_STANDARDS
 70
     0
  0
APPID
  2
ACDBATTR
 70
     0
  0
ENDTAB
  0
TABLE
  2
DIMSTYLE
 70
     1
  0
DIMSTYLE
  2
STANDARD
 70
     0
  3

  4

  5

  6

  7

 40
1.0
 41
0.1875
 42
0.0625
 43
0.38
 44
0.125
 45
0.0
 46
0.0
 47
0.01
 48
0.01
140
0.15625
141
0.09
142
0.0
143
25.3999999999999986
144
1.0
145
0.0
146
1.0
147
0.09
 71
     1
 72
     0
 73
     1
 74
     1
 75
     0
 76
     0
 77
     0
 78
     4
170
     0
171
     2
172
     0
173
     0
174
     0
175
     0
176
     0
177
     0
178
     0
  0
ENDTAB
  0
ENDSEC
  0
SECTION
  2
BLOCKS
  0
BLOCK
  8
0
  2
$MODEL_SPACE
 70
     0
 10
0.0
 20
0.0
 30
0.0
  3
$MODEL_SPACE
  1

  0
ENDBLK
  5
21
  8
0
  0
BLOCK
 67
     1
  8
0
  2
$PAPER_SPACE
 70
     0
 10
0.0
 20
0.0
 30
0.0
  3
$PAPER_SPACE
  1

  0
ENDBLK
  5
1D
 67
     1
  8
0
  0
ENDSEC
  0
SECTION
  2
ENTITIES
  0
ATTDEF
  5
766
  8
DEFPOINTS
 10
-9.0176075739411807
 20
41.8586633881524293
 30
0.0
 40
0.001
  1
K-21335BR
  3

  2
MODELNUMBER
 70
     0
1001
ACDBATTR
1070
     0
1070
     1
  0
ATTDEF
  5
767
  8
DEFPOINTS
 10
-9.0176075739411807
 20
41.856996721485757
 30
0.0
 40
0.001
  1
SHIFT
  3

  2
TRADENAME
 70
     0
1001
ACDBATTR
1070
     0
1070
     1
  0
ATTDEF
  5
768
  8
DEFPOINTS
 10
-9.0176075739411807
 20
41.855330054819099
 30
0.0
 40
0.001
  1
HANDSHOWER
  3

  2
PRODUCT
 70
     0
1001
ACDBATTR
1070
     0
1070
     1
  0
LINE
  5
3FE0
  8
0
 10
-8.4665685779099675
 20
51.3040294609575511
 30
0.0
 11
-8.4665685779099675
 21
41.8552105633575593
 31
0.0
  0
LINE
  5
3FE1
  8
0
 10
-8.4665685779099622
 20
51.3040294609575511
 30
0.0
 11
-9.568930782709959
 21
51.3040294609575511
 31
0.0
  0
LINE
  5
3FE2
  8
0
 10
-8.4665685779099675
 20
41.8552105633575593
 30
0.0
 11
-9.5689307827099626
 21
41.8552105633575593
 31
0.0
  0
ARC
  5
3FE3
  8
0
 10
-9.1870385977099858
 20
50.5894625318575777
 30
0.0
 40
0.0314960629999845
 50
359.9999999999772058
 51
89.9999998181011733
  0
LINE
  5
3FE4
  8
0
 10
-9.1870385976099982
 20
50.620958594857548
 30
0.0
 11
-9.2421567079099844
 21
50.6209585950325405
 31
0.0
  0
ARC
  5
3FE5
  8
0
 10
-9.2421567080748304
 20
50.5343444216677113
 30
0.0
 40
0.0866141733648345
 50
89.9999998909610071
 51
359.9999999271353204
  0
LINE
  5
3FE6
  8
0
 10
-9.1555425347099941
 20
50.5343444216575506
 30
0.0
 11
-9.1555425347099941
 21
50.5894625318575493
 31
0.0
  0
CIRCLE
  5
3FE7
  8
0
 10
-9.2421567466099788
 20
50.5343444154575607
 30
0.0
 40
0.0393695467000015
  0
ARC
  5
3FE8
  8
0
 10
-9.1870386037099792
 20
50.928045235457553
 30
0.0
 40
0.0314960629999845
 50
270.0000001818971782
 51
0.0000000000227982
  0
ARC
  5
3FE9
  8
0
 10
-9.1870386037099792
 20
50.928045235457553
 30
0.0
 40
0.0236220471999839
 50
270.0000001818971782
 51
0.0000000000227982
  0
LINE
  5
3FEA
  8
0
 10
-9.1870386036099916
 20
50.8965491724575614
 30
0.0
 11
-9.2421567139099778
 21
50.8965491722825831
 31
0.0
  0
LINE
  5
3FEB
  8
0
 10
-9.1870386036349903
 20
50.9044231882575673
 30
0.0
 11
-9.2421567139349765
 21
50.9044231880825677
 31
0.0
  0
ARC
  5
3FEC
  8
0
 10
-9.2421567140748238
 20
50.9831633456474123
 30
0.0
 40
0.0866141733648345
 50
0.0000000728647266
 51
270.0000001090389787
  0
ARC
  5
3FED
  8
0
 10
-9.2421567140748238
 20
50.9831633456474123
 30
0.0
 40
0.0787401575648339
 50
0.0000000728647266
 51
270.0000001090389787
  0
LINE
  5
3FEE
  8
0
 10
-9.1555425407099875
 20
50.9831633456575517
 30
0.0
 11
-9.1555425407099875
 21
50.928045235457553
 31
0.0
  0
LINE
  5
3FEF
  8
0
 10
-9.1634165565099881
 20
50.9831633456575517
 30
0.0
 11
-9.1634165565099881
 21
50.928045235457553
 31
0.0
  0
CIRCLE
  5
3FF0
  8
0
 10
-9.2421567526100006
 20
50.9831633518575629
 30
0.0
 40
0.0393695467000015
  0
CIRCLE
  5
3FF1
  8
0
 10
-9.017749680309965
 20
45.7272577189075591
 30
0.0
 40
0.2774174731651836
  0
CIRCLE
  5
3FF2
  8
0
 10
-9.017749680309965
 20
45.7272577189075591
 30
0.0
 40
0.2952755905999993
  0
CIRCLE
  5
3FF3
  8
0
 10
-9.0177472591099779
 20
46.5146593822575483
 30
0.0
 40
0.2774174731651836
  0
CIRCLE
  5
3FF4
  8
0
 10
-9.0177472591099779
 20
46.5146593822575483
 30
0.0
 40
0.2952755905999993
  0
CIRCLE
  5
3FF5
  8
0
 10
-9.1437315111099764
 20
47.4989113507575667
 30
0.0
 40
0.0649606298999999
  0
CIRCLE
  5
3FF6
  8
0
 10
-9.14090533650959
 20
47.498452167548983
 30
0.0
 40
0.0553037722562513
  0
CIRCLE
  5
3FF7
  8
0
 10
-9.1476370434128711
 20
47.4907252286699375
 30
0.0
 40
0.0411502671676912
  0
CIRCLE
  5
3FF8
  8
0
 10
-9.1476565144132422
 20
47.4908752406227777
 30
0.0
 40
0.0215590857944487
  0
CIRCLE
  5
3FF9
  8
0
 10
-9.2697157630099838
 20
47.6248956026575527
 30
0.0
 40
0.0649606298999999
  0
CIRCLE
  5
3FFA
  8
0
 10
-9.2668895884095939
 20
47.6244364194489691
 30
0.0
 40
0.0553037722562513
  0
CIRCLE
  5
3FFB
  8
0
 10
-9.2793405396841848
 20
47.6167094805699378
 30
0.0
 40
0.0401712225419377
  0
CIRCLE
  5
3FFC
  8
0
 10
-9.2793600106845844
 20
47.6168594925227708
 30
0.0
 40
0.0215590857944487
  0
CIRCLE
  5
3FFD
  8
0
 10
-9.1433833287989188
 20
47.7469541397021615
 30
0.0
 40
0.0649606298999999
  0
CIRCLE
  5
3FFE
  8
0
 10
-9.1405571541985324
 20
47.7464949564935495
 30
0.0
 40
0.0553037722562513
  0
CIRCLE
  5
3FFF
  8
0
 10
-9.1472888611017851
 20
47.7387680176145466
 30
0.0
 40
0.0411502671676912
  0
CIRCLE
  5
4000
  8
0
 10
-9.1473083321021562
 20
47.7389180295673512
 30
0.0
 40
0.0215590857944487
  0
CIRCLE
  5
4001
  8
0
 10
-9.2693675806988978
 20
47.8729383916021405
 30
0.0
 40
0.0649606298999999
  0
CIRCLE
  5
4002
  8
0
 10
-9.2665414060985114
 20
47.8724792083935498
 30
0.0
 40
0.0553037722562513
  0
CIRCLE
  5
4003
  8
0
 10
-9.2789923573731272
 20
47.8647522695145398
 30
0.0
 40
0.0401712225419377
  0
CIRCLE
  5
4004
  8
0
 10
-9.2790118283734984
 20
47.8649022814673586
 30
0.0
 40
0.0215590857944487
  0
CIRCLE
  5
4005
  8
0
 10
-9.1437315111117332
 20
48.0028483586576087
 30
0.0
 40
0.0649606298999999
  0
CIRCLE
  5
4006
  8
0
 10
-9.1409053365113522
 20
48.0023891754490108
 30
0.0
 40
0.0553037722562513
  0
CIRCLE
  5
4007
  8
0
 10
-9.1476370434146332
 20
47.994662236570008
 30
0.0
 40
0.0411502671676912
  0
CIRCLE
  5
4008
  8
0
 10
-9.1476565144150044
 20
47.9948122485228268
 30
0.0
 40
0.0215590857944487
  0
CIRCLE
  5
4009
  8
0
 10
-9.2697157630117442
 20
48.128832610557609
 30
0.0
 40
0.0649606298999999
  0
CIRCLE
  5
400A
  8
0
 10
-9.266889588411356
 20
48.1283734273490325
 30
0.0
 40
0.0553037722562513
  0
CIRCLE
  5
400B
  8
0
 10
-9.2793405396859452
 20
48.1206464884699869
 30
0.0
 40
0.0401712225419377
  0
CIRCLE
  5
400C
  8
0
 10
-9.2793600106863181
 20
48.12079650042282
 30
0.0
 40
0.0215590857944487
  0
CIRCLE
  5
400D
  8
0
 10
-9.1437315111099764
 20
48.2548168625576466
 30
0.0
 40
0.0649606298999999
  0
CIRCLE
  5
400E
  8
0
 10
-9.14090533650959
 20
48.2543576793490629
 30
0.0
 40
0.0553037722562513
  0
CIRCLE
  5
400F
  8
0
 10
-9.1476370434128711
 20
48.2466307404700316
 30
0.0
 40
0.0411502671676912
  0
CIRCLE
  5
4010
  8
0
 10
-9.1476565144132422
 20
48.2467807524228576
 30
0.0
 40
0.0215590857944487
  0
CIRCLE
  5
4011
  8
0
 10
-9.2697157630099838
 20
48.3808011144576611
 30
0.0
 40
0.0649606298999999
  0
CIRCLE
  5
4012
  8
0
 10
-9.2668895884095939
 20
48.3803419312490632
 30
0.0
 40
0.0553037722562513
  0
CIRCLE
  5
4013
  8
0
 10
-9.2793405396841848
 20
48.3726149923700532
 30
0.0
 40
0.0401712225419377
  0
CIRCLE
  5
4014
  8
0
 10
-9.2793600106845844
 20
48.3727650043228508
 30
0.0
 40
0.0215590857944487
  0
CIRCLE
  5
4015
  8
0
 10
-9.143731511110996
 20
48.506785366523367
 30
0.0
 40
0.0649606298999999
  0
CIRCLE
  5
4016
  8
0
 10
-9.1409053365106132
 20
48.5063261833147976
 30
0.0
 40
0.0553037722562513
  0
CIRCLE
  5
4017
  8
0
 10
-9.1476370434138659
 20
48.4985992444357734
 30
0.0
 40
0.0411502671676912
  0
CIRCLE
  5
4018
  8
0
 10
-9.1476565144142352
 20
48.4987492563885922
 30
0.0
 40
0.0215590857944487
  0
CIRCLE
  5
4019
  8
0
 10
-9.2697157630110052
 20
48.6327696184233673
 30
0.0
 40
0.0649606298999999
  0
CIRCLE
  5
401A
  8
0
 10
-9.2668895884106171
 20
48.6323104352147979
 30
0.0
 40
0.0553037722562513
  0
CIRCLE
  5
401B
  8
0
 10
-9.279340539685208
 20
48.6245834963357595
 30
0.0
 40
0.0401712225419377
  0
CIRCLE
  5
401C
  8
0
 10
-9.2793600106855791
 20
48.6247335082885783
 30
0.0
 40
0.0215590857944487
  0
CIRCLE
  5
401D
  8
0
 10
-9.1437315111113922
 20
48.7587538704570207
 30
0.0
 40
0.0649606298999999
  0
CIRCLE
  5
401E
  8
0
 10
-9.1409053365110111
 20
48.7582946872484371
 30
0.0
 40
0.0553037722562513
  0
CIRCLE
  5
401F
  8
0
 10
-9.1476370434142922
 20
48.7505677483694129
 30
0.0
 40
0.0411502671676912
  0
CIRCLE
  5
4020
  8
0
 10
-9.1476565144146633
 20
48.750717760322253
 30
0.0
 40
0.0215590857944487
  0
CIRCLE
  5
4021
  8
0
 10
-9.2697157630114049
 20
48.884738122357021
 30
0.0
 40
0.0649606298999999
  0
CIRCLE
  5
4022
  8
0
 10
-9.2668895884110185
 20
48.8842789391484303
 30
0.0
 40
0.0553037722562513
  0
CIRCLE
  5
4023
  8
0
 10
-9.2795582972510005
 20
48.8847381223575468
 30
0.0
 40
0.0401712225419377
  0
CIRCLE
  5
4024
  8
0
 10
-9.2793730029824957
 20
48.8847381223575468
 30
0.0
 40
0.0215590857944487
  0
CIRCLE
  5
4025
  8
0
 10
-9.1437315111099764
 20
50.2705648939575696
 30
0.0
 40
0.0649606298999999
  0
CIRCLE
  5
4026
  8
0
 10
-9.14090533650959
 20
50.2710240771661532
 30
0.0
 40
0.0553037722562513
  0
CIRCLE
  5
4027
  8
0
 10
-9.1476370434128711
 20
50.2787510160451774
 30
0.0
 40
0.0411502671676912
  0
CIRCLE
  5
4028
  8
0
 10
-9.1476565144132422
 20
50.2786010040923514
 30
0.0
 40
0.0215590857944487
  0
CIRCLE
  5
4029
  8
0
 10
-9.2697157630099838
 20
50.1445806420575479
 30
0.0
 40
0.0649606298999999
  0
CIRCLE
  5
402A
  8
0
 10
-9.2668895884095939
 20
50.1450398252661316
 30
0.0
 40
0.0553037722562513
  0
CIRCLE
  5
402B
  8
0
 10
-9.2793405396841848
 20
50.1527667641451629
 30
0.0
 40
0.0401712225419377
  0
CIRCLE
  5
402C
  8
0
 10
-9.2793600106845844
 20
50.1526167521923369
 30
0.0
 40
0.0215590857944487
  0
CIRCLE
  5
402D
  8
0
 10
-9.1433833287989188
 20
50.0225221050129676
 30
0.0
 40
0.0649606298999999
  0
CIRCLE
  5
402E
  8
0
 10
-9.1405571541985324
 20
50.0229812882215512
 30
0.0
 40
0.0553037722562513
  0
CIRCLE
  5
402F
  8
0
 10
-9.1472888611017851
 20
50.0307082271005825
 30
0.0
 40
0.0411502671676912
  0
CIRCLE
  5
4030
  8
0
 10
-9.1473083321021562
 20
50.0305582151477566
 30
0.0
 40
0.0215590857944487
  0
CIRCLE
  5
4031
  8
0
 10
-9.2693675806988978
 20
49.8965378531129673
 30
0.0
 40
0.0649606298999999
  0
CIRCLE
  5
4032
  8
0
 10
-9.2665414060985114
 20
49.8969970363215509
 30
0.0
 40
0.0553037722562513
  0
CIRCLE
  5
4033
  8
0
 10
-9.2789923573731272
 20
49.9047239752005822
 30
0.0
 40
0.0401712225419377
  0
CIRCLE
  5
4034
  8
0
 10
-9.2790118283734984
 20
49.9045739632477492
 30
0.0
 40
0.0215590857944487
  0
CIRCLE
  5
4035
  8
0
 10
-9.1437315111117332
 20
49.7666278860575133
 30
0.0
 40
0.0649606298999999
  0
CIRCLE
  5
4036
  8
0
 10
-9.1409053365113522
 20
49.7670870692660969
 30
0.0
 40
0.0553037722562513
  0
CIRCLE
  5
4037
  8
0
 10
-9.1476370434146332
 20
49.7748140081451282
 30
0.0
 40
0.0411502671676912
  0
CIRCLE
  5
4038
  8
0
 10
-9.1476565144150044
 20
49.7746639961923023
 30
0.0
 40
0.0215590857944487
  0
CIRCLE
  5
4039
  8
0
 10
-9.2697157630117442
 20
49.640643634157513
 30
0.0
 40
0.0649606298999999
  0
CIRCLE
  5
403A
  8
0
 10
-9.266889588411356
 20
49.6411028173660824
 30
0.0
 40
0.0553037722562513
  0
CIRCLE
  5
403B
  8
0
 10
-9.2793405396859452
 20
49.6488297562451066
 30
0.0
 40
0.0401712225419377
  0
CIRCLE
  5
403C
  8
0
 10
-9.2793600106863181
 20
49.6486797442922878
 30
0.0
 40
0.0215590857944487
  0
CIRCLE
  5
403D
  8
0
 10
-9.1437315111099764
 20
49.5146593821574825
 30
0.0
 40
0.0649606298999999
  0
CIRCLE
  5
403E
  8
0
 10
-9.14090533650959
 20
49.515118565366059
 30
0.0
 40
0.0553037722562513
  0
CIRCLE
  5
403F
  8
0
 10
-9.1476370434128711
 20
49.5228455042450904
 30
0.0
 40
0.0411502671676912
  0
CIRCLE
  5
4040
  8
0
 10
-9.1476565144132422
 20
49.5226954922922715
 30
0.0
 40
0.0215590857944487
  0
CIRCLE
  5
4041
  8
0
 10
-9.2697157630099838
 20
49.3886751302574822
 30
0.0
 40
0.0649606298999999
  0
CIRCLE
  5
4042
  8
0
 10
-9.2668895884095939
 20
49.3891343134660517
 30
0.0
 40
0.0553037722562513
  0
CIRCLE
  5
4043
  8
0
 10
-9.2793405396841848
 20
49.396861252345083
 30
0.0
 40
0.0401712225419377
  0
CIRCLE
  5
4044
  8
0
 10
-9.2793600106845844
 20
49.396711240392257
 30
0.0
 40
0.0215590857944487
  0
CIRCLE
  5
4045
  8
0
 10
-9.143731511110996
 20
49.2626908781917479
 30
0.0
 40
0.0649606298999999
  0
CIRCLE
  5
4046
  8
0
 10
-9.1409053365106132
 20
49.2631500614003386
 30
0.0
 40
0.0553037722562513
  0
CIRCLE
  5
4047
  8
0
 10
-9.1476370434138659
 20
49.2708770002793699
 30
0.0
 40
0.0411502671676912
  0
CIRCLE
  5
4048
  8
0
 10
-9.1476565144142352
 20
49.2707269883265369
 30
0.0
 40
0.0215590857944487
  0
CIRCLE
  5
4049
  8
0
 10
-9.2697157630110052
 20
49.1367066262917618
 30
0.0
 40
0.0649606298999999
  0
CIRCLE
  5
404A
  8
0
 10
-9.2668895884106171
 20
49.1371658095003312
 30
0.0
 40
0.0553037722562513
  0
CIRCLE
  5
404B
  8
0
 10
-9.279340539685208
 20
49.1448927483793625
 30
0.0
 40
0.0401712225419377
  0
CIRCLE
  5
404C
  8
0
 10
-9.2793600106855791
 20
49.1447427364265295
 30
0.0
 40
0.0215590857944487
  0
CIRCLE
  5
404D
  8
0
 10
-9.1437315111113922
 20
49.0107223742581084
 30
0.0
 40
0.0649606298999999
  0
CIRCLE
  5
404E
  8
0
 10
-9.1409053365110111
 20
49.0111815574666778
 30
0.0
 40
0.0553037722562513
  0
CIRCLE
  5
404F
  8
0
 10
-9.1476370434142922
 20
49.0189084963457091
 30
0.0
 40
0.0411502671676912
  0
CIRCLE
  5
4050
  8
0
 10
-9.1476565144146633
 20
49.0187584843928903
 30
0.0
 40
0.0215590857944487
  0
CIRCLE
  5
4051
  8
0
 10
-9.0177472591099779
 20
47.6248956026575527
 30
0.0
 40
0.0649606298999999
  0
CIRCLE
  5
4052
  8
0
 10
-9.0177876916792883
 20
47.624425093916642
 30
0.0
 40
0.0553037722562513
  0
CIRCLE
  5
4053
  8
0
 10
-9.0175606371644363
 20
47.6166749282857822
 30
0.0
 40
0.0411502671676912
  0
CIRCLE
  5
4054
  8
0
 10
-9.0176542598156146
 20
47.6168222068108733
 30
0.0
 40
0.0215590857944487
  0
CIRCLE
  5
4055
  8
0
 10
-9.0177472591099779
 20
47.8768641066575498
 30
0.0
 40
0.0649606298999999
  0
CIRCLE
  5
4056
  8
0
 10
-9.0177876916792883
 20
47.8763935979166391
 30
0.0
 40
0.0553037722562513
  0
CIRCLE
  5
4057
  8
0
 10
-9.0175606371644363
 20
47.8686434322857721
 30
0.0
 40
0.0411502671676912
  0
CIRCLE
  5
4058
  8
0
 10
-9.0176542598156146
 20
47.8687907108108703
 30
0.0
 40
0.0215590857944487
  0
CIRCLE
  5
4059
  8
0
 10
-9.0177472590099939
 20
48.1288326105575734
 30
0.0
 40
0.0649606298999999
  0
CIRCLE
  5
405A
  8
0
 10
-9.0177876915793007
 20
48.1283621018166414
 30
0.0
 40
0.0553037722562513
  0
CIRCLE
  5
405B
  8
0
 10
-9.0175606370644203
 20
48.1206119361857816
 30
0.0
 40
0.0411502671676912
  0
CIRCLE
  5
405C
  8
0
 10
-9.0176542597156271
 20
48.1207592147108727
 30
0.0
 40
0.0215590857944487
  0
CIRCLE
  5
405D
  8
0
 10
-9.0177472591099779
 20
48.3808011144575616
 30
0.0
 40
0.0649606298999999
  0
CIRCLE
  5
405E
  8
0
 10
-9.0177876916792883
 20
48.3803306057166509
 30
0.0
 40
0.0553037722562513
  0
CIRCLE
  5
405F
  8
0
 10
-9.0175606371644363
 20
48.3725804400857768
 30
0.0
 40
0.0411502671676912
  0
CIRCLE
  5
4060
  8
0
 10
-9.0176542598156146
 20
48.3727277186108608
 30
0.0
 40
0.0215590857944487
  0
CIRCLE
  5
4061
  8
0
 10
-9.0177472590099939
 20
48.6327696184575515
 30
0.0
 40
0.0649606298999999
  0
CIRCLE
  5
4062
  8
0
 10
-9.0177876915793007
 20
48.6322991097166479
 30
0.0
 40
0.0553037722562513
  0
CIRCLE
  5
4063
  8
0
 10
-9.0175606370644203
 20
48.6245489440857668
 30
0.0
 40
0.0411502671676912
  0
CIRCLE
  5
4064
  8
0
 10
-9.0176542597156271
 20
48.6246962226108721
 30
0.0
 40
0.0215590857944487
  0
CIRCLE
  5
4065
  8
0
 10
-9.0177472590099939
 20
48.8847381223575468
 30
0.0
 40
0.0649606298999999
  0
CIRCLE
  5
4066
  8
0
 10
-9.0177876915793007
 20
48.8842676136166432
 30
0.0
 40
0.0553037722562513
  0
CIRCLE
  5
4067
  8
0
 10
-9.0175129845162161
 20
48.8849257740424221
 30
0.0
 40
0.0411502671676912
  0
CIRCLE
  5
4068
  8
0
 10
-9.0176066071674228
 20
48.8850730525675132
 30
0.0
 40
0.0215590857944487
  0
CIRCLE
  5
4069
  8
0
 10
-9.0177472591099779
 20
50.1445806420575479
 30
0.0
 40
0.0649606298999999
  0
CIRCLE
  5
406A
  8
0
 10
-9.0177876916792883
 20
50.1450511507984729
 30
0.0
 40
0.0553037722562513
  0
CIRCLE
  5
406B
  8
0
 10
-9.0175606371644363
 20
50.1528013164293398
 30
0.0
 40
0.0411502671676912
  0
CIRCLE
  5
406C
  8
0
 10
-9.0176542598156146
 20
50.1526540379042629
 30
0.0
 40
0.0215590857944487
  0
CIRCLE
  5
406D
  8
0
 10
-9.0177472591099779
 20
49.8926121380575509
 30
0.0
 40
0.0649606298999999
  0
CIRCLE
  5
406E
  8
0
 10
-9.0177876916792883
 20
49.89308264679849
 30
0.0
 40
0.0553037722562513
  0
CIRCLE
  5
406F
  8
0
 10
-9.0175606371644363
 20
49.9008328124293499
 30
0.0
 40
0.0411502671676912
  0
CIRCLE
  5
4070
  8
0
 10
-9.0176542598156146
 20
49.9006855339042588
 30
0.0
 40
0.0215590857944487
  0
CIRCLE
  5
4071
  8
0
 10
-9.0177472590099939
 20
49.6406436341575485
 30
0.0
 40
0.0649606298999999
  0
CIRCLE
  5
4072
  8
0
 10
-9.0177876915793007
 20
49.6411141428984877
 30
0.0
 40
0.0553037722562513
  0
CIRCLE
  5
4073
  8
0
 10
-9.0175606370644203
 20
49.6488643085293475
 30
0.0
 40
0.0411502671676912
  0
CIRCLE
  5
4074
  8
0
 10
-9.0176542597156271
 20
49.6487170300042635
 30
0.0
 40
0.0215590857944487
  0
CIRCLE
  5
4075
  8
0
 10
-9.0177472591099779
 20
49.3886751302575675
 30
0.0
 40
0.0649606298999999
  0
CIRCLE
  5
4076
  8
0
 10
-9.0177876916792883
 20
49.3891456389984924
 30
0.0
 40
0.0553037722562513
  0
CIRCLE
  5
4077
  8
0
 10
-9.0175606371644363
 20
49.3968958046293523
 30
0.0
 40
0.0411502671676912
  0
CIRCLE
  5
4078
  8
0
 10
-9.0176542598156146
 20
49.3967485261042611
 30
0.0
 40
0.0215590857944487
  0
CIRCLE
  5
4079
  8
0
 10
-9.0177472590099939
 20
49.1367066262575491
 30
0.0
 40
0.0649606298999999
  0
CIRCLE
  5
407A
  8
0
 10
-9.0177876915793007
 20
49.1371771349984883
 30
0.0
 40
0.0553037722562513
  0
CIRCLE
  5
407B
  8
0
 10
-9.0175606370644203
 20
49.144927300629341
 30
0.0
 40
0.0411502671676912
  0
CIRCLE
  5
407C
  8
0
 10
-9.0176542597156271
 20
49.144780022104257
 30
0.0
 40
0.0215590857944487
  0
ARC
  5
407D
  8
0
 10
-8.8484559205099771
 20
50.5894625318575777
 30
0.0
 40
0.0314960629999845
 50
90.0000001818988125
 51
180.0000000000227942
  0
LINE
  5
407E
  8
0
 10
-8.8484559206099931
 20
50.620958594857548
 30
0.0
 11
-8.7933378103099784
 21
50.6209585950325405
 31
0.0
  0
ARC
  5
407F
  8
0
 10
-8.7933378101451591
 20
50.5343444216677113
 30
0.0
 40
0.0866141733648345
 50
180.000000072864708
 51
90.0000001090389787
  0
LINE
  5
4080
  8
0
 10
-8.8799519835099687
 20
50.5343444216575506
 30
0.0
 11
-8.8799519835099687
 21
50.5894625318575493
 31
0.0
  0
CIRCLE
  5
4081
  8
0
 10
-8.7933377716099841
 20
50.5343444154575607
 30
0.0
 40
0.0393695467000015
  0
ARC
  5
4082
  8
0
 10
-8.8484559145099837
 20
50.928045235457553
 30
0.0
 40
0.0314960629999845
 50
179.9999999999772058
 51
269.9999998181011733
  0
ARC
  5
4083
  8
0
 10
-8.8484559145099837
 20
50.928045235457553
 30
0.0
 40
0.0236220471999839
 50
179.9999999999772058
 51
269.9999998181011733
  0
LINE
  5
4084
  8
0
 10
-8.8484559146099713
 20
50.8965491724575614
 30
0.0
 11
-8.793337804309985
 21
50.8965491722825831
 31
0.0
  0
LINE
  5
4085
  8
0
 10
-8.8484559145849726
 20
50.9044231882575673
 30
0.0
 11
-8.7933378042849863
 21
50.9044231880825677
 31
0.0
  0
ARC
  5
4086
  8
0
 10
-8.7933378041451391
 20
50.9831633456474123
 30
0.0
 40
0.0866141733648345
 50
269.9999998909610213
 51
179.9999999271352067
  0
ARC
  5
4087
  8
0
 10
-8.7933378041451391
 20
50.9831633456474123
 30
0.0
 40
0.0787401575648339
 50
269.9999998909610213
 51
179.9999999271352067
  0
LINE
  5
4088
  8
0
 10
-8.8799519775099753
 20
50.9831633456575517
 30
0.0
 11
-8.8799519775099753
 21
50.928045235457553
 31
0.0
  0
LINE
  5
4089
  8
0
 10
-8.8720779617099748
 20
50.9831633456575517
 30
0.0
 11
-8.8720779617099748
 21
50.928045235457553
 31
0.0
  0
CIRCLE
  5
408A
  8
0
 10
-8.7933377656099907
 20
50.9831633518575629
 30
0.0
 40
0.0393695467000015
  0
CIRCLE
  5
408B
  8
0
 10
-8.8917630071099865
 20
47.4989113507575667
 30
0.0
 40
0.0649606298999999
  0
CIRCLE
  5
408C
  8
0
 10
-8.8945891817103728
 20
47.498452167548983
 30
0.0
 40
0.0553037722562513
  0
CIRCLE
  5
408D
  8
0
 10
-8.8878574748071202
 20
47.4907252286699375
 30
0.0
 40
0.0411502671676912
  0
CIRCLE
  5
408E
  8
0
 10
-8.8878380038067206
 20
47.4908752406227777
 30
0.0
 40
0.0215590857944487
  0
CIRCLE
  5
408F
  8
0
 10
-8.7657787552099791
 20
47.6248956026575527
 30
0.0
 40
0.0649606298999999
  0
CIRCLE
  5
4090
  8
0
 10
-8.7686049298103619
 20
47.6244364194489691
 30
0.0
 40
0.0553037722562513
  0
CIRCLE
  5
4091
  8
0
 10
-8.756153978535778
 20
47.6167094805699378
 30
0.0
 40
0.0401712225419377
  0
CIRCLE
  5
4092
  8
0
 10
-8.7561345075354051
 20
47.6168594925227708
 30
0.0
 40
0.0215590857944487
  0
CIRCLE
  5
4093
  8
0
 10
-8.8921111894210725
 20
47.7469541397021615
 30
0.0
 40
0.0649606298999999
  0
CIRCLE
  5
4094
  8
0
 10
-8.8949373640214588
 20
47.7464949564935495
 30
0.0
 40
0.0553037722562513
  0
CIRCLE
  5
4095
  8
0
 10
-8.8882056571181778
 20
47.7387680176145466
 30
0.0
 40
0.0411502671676912
  0
CIRCLE
  5
4096
  8
0
 10
-8.8881861861178066
 20
47.7389180295673512
 30
0.0
 40
0.0215590857944487
  0
CIRCLE
  5
4097
  8
0
 10
-8.7661269375210651
 20
47.8729383916021405
 30
0.0
 40
0.0649606298999999
  0
CIRCLE
  5
4098
  8
0
 10
-8.7689531121214515
 20
47.8724792083935498
 30
0.0
 40
0.0553037722562513
  0
CIRCLE
  5
4099
  8
0
 10
-8.7565021608468641
 20
47.8647522695145398
 30
0.0
 40
0.0401712225419377
  0
CIRCLE
  5
409A
  8
0
 10
-8.7564826898464645
 20
47.8649022814673586
 30
0.0
 40
0.0215590857944487
  0
CIRCLE
  5
409B
  8
0
 10
-8.8917630071082243
 20
48.0028483586576087
 30
0.0
 40
0.0649606298999999
  0
CIRCLE
  5
409C
  8
0
 10
-8.8945891817086107
 20
48.0023891754490108
 30
0.0
 40
0.0553037722562513
  0
CIRCLE
  5
409D
  8
0
 10
-8.887857474805358
 20
47.994662236570008
 30
0.0
 40
0.0411502671676912
  0
CIRCLE
  5
409E
  8
0
 10
-8.8878380038049585
 20
47.9948122485228268
 30
0.0
 40
0.0215590857944487
  0
CIRCLE
  5
409F
  8
0
 10
-8.7657787552082151
 20
48.128832610557609
 30
0.0
 40
0.0649606298999999
  0
CIRCLE
  5
40A0
  8
0
 10
-8.7686049298086033
 20
48.1283734273490325
 30
0.0
 40
0.0553037722562513
  0
CIRCLE
  5
40A1
  8
0
 10
-8.7561539785340141
 20
48.1206464884699869
 30
0.0
 40
0.0401712225419377
  0
CIRCLE
  5
40A2
  8
0
 10
-8.7561345075336448
 20
48.12079650042282
 30
0.0
 40
0.0215590857944487
  0
CIRCLE
  5
40A3
  8
0
 10
-8.8917630071099865
 20
48.2548168625576466
 30
0.0
 40
0.0649606298999999
  0
CIRCLE
  5
40A4
  8
0
 10
-8.8945891817103728
 20
48.2543576793490629
 30
0.0
 40
0.0553037722562513
  0
CIRCLE
  5
40A5
  8
0
 10
-8.8878574748071202
 20
48.2466307404700316
 30
0.0
 40
0.0411502671676912
  0
CIRCLE
  5
40A6
  8
0
 10
-8.8878380038067206
 20
48.2467807524228576
 30
0.0
 40
0.0215590857944487
  0
CIRCLE
  5
40A7
  8
0
 10
-8.7657787552099791
 20
48.3808011144576611
 30
0.0
 40
0.0649606298999999
  0
CIRCLE
  5
40A8
  8
0
 10
-8.7686049298103619
 20
48.3803419312490632
 30
0.0
 40
0.0553037722562513
  0
CIRCLE
  5
40A9
  8
0
 10
-8.756153978535778
 20
48.3726149923700532
 30
0.0
 40
0.0401712225419377
  0
CIRCLE
  5
40AA
  8
0
 10
-8.7561345075354051
 20
48.3727650043228508
 30
0.0
 40
0.0215590857944487
  0
CIRCLE
  5
40AB
  8
0
 10
-8.8917630071089633
 20
48.506785366523367
 30
0.0
 40
0.0649606298999999
  0
CIRCLE
  5
40AC
  8
0
 10
-8.8945891817093496
 20
48.5063261833147976
 30
0.0
 40
0.0553037722562513
  0
CIRCLE
  5
40AD
  8
0
 10
-8.887857474806097
 20
48.4985992444357734
 30
0.0
 40
0.0411502671676912
  0
CIRCLE
  5
40AE
  8
0
 10
-8.8878380038057259
 20
48.4987492563885922
 30
0.0
 40
0.0215590857944487
  0
CIRCLE
  5
40AF
  8
0
 10
-8.7657787552089843
 20
48.6327696184233673
 30
0.0
 40
0.0649606298999999
  0
CIRCLE
  5
40B0
  8
0
 10
-8.7686049298093707
 20
48.6323104352147979
 30
0.0
 40
0.0553037722562513
  0
CIRCLE
  5
40B1
  8
0
 10
-8.7561539785347549
 20
48.6245834963357595
 30
0.0
 40
0.0401712225419377
  0
CIRCLE
  5
40B2
  8
0
 10
-8.7561345075343837
 20
48.6247335082885783
 30
0.0
 40
0.0215590857944487
  0
CIRCLE
  5
40B3
  8
0
 10
-8.8917630071085618
 20
48.7587538704570207
 30
0.0
 40
0.0649606298999999
  0
CIRCLE
  5
40B4
  8
0
 10
-8.8945891817089517
 20
48.7582946872484371
 30
0.0
 40
0.0553037722562513
  0
CIRCLE
  5
40B5
  8
0
 10
-8.8878574748056991
 20
48.7505677483694129
 30
0.0
 40
0.0411502671676912
  0
CIRCLE
  5
40B6
  8
0
 10
-8.8878380038052995
 20
48.750717760322253
 30
0.0
 40
0.0215590857944487
  0
CIRCLE
  5
40B7
  8
0
 10
-8.7657787552085562
 20
48.884738122357021
 30
0.0
 40
0.0649606298999999
  0
CIRCLE
  5
40B8
  8
0
 10
-8.7686049298089443
 20
48.8842789391484303
 30
0.0
 40
0.0553037722562513
  0
CIRCLE
  5
40B9
  8
0
 10
-8.7559362209689908
 20
48.8847381223575468
 30
0.0
 40
0.0401712225419377
  0
CIRCLE
  5
40BA
  8
0
 10
-8.7561215152374956
 20
48.8847381223575468
 30
0.0
 40
0.0215590857944487
  0
CIRCLE
  5
40BB
  8
0
 10
-8.8917630071099865
 20
50.2705648939575696
 30
0.0
 40
0.0649606298999999
  0
CIRCLE
  5
40BC
  8
0
 10
-8.8945891817103728
 20
50.2710240771661532
 30
0.0
 40
0.0553037722562513
  0
CIRCLE
  5
40BD
  8
0
 10
-8.8878574748071202
 20
50.2787510160451774
 30
0.0
 40
0.0411502671676912
  0
CIRCLE
  5
40BE
  8
0
 10
-8.8878380038067206
 20
50.2786010040923514
 30
0.0
 40
0.0215590857944487
  0
CIRCLE
  5
40BF
  8
0
 10
-8.7657787552099791
 20
50.1445806420575479
 30
0.0
 40
0.0649606298999999
  0
CIRCLE
  5
40C0
  8
0
 10
-8.7686049298103619
 20
50.1450398252661316
 30
0.0
 40
0.0553037722562513
  0
CIRCLE
  5
40C1
  8
0
 10
-8.756153978535778
 20
50.1527667641451629
 30
0.0
 40
0.0401712225419377
  0
CIRCLE
  5
40C2
  8
0
 10
-8.7561345075354051
 20
50.1526167521923369
 30
0.0
 40
0.0215590857944487
  0
CIRCLE
  5
40C3
  8
0
 10
-8.8921111894210725
 20
50.0225221050129676
 30
0.0
 40
0.0649606298999999
  0
CIRCLE
  5
40C4
  8
0
 10
-8.8949373640214588
 20
50.0229812882215512
 30
0.0
 40
0.0553037722562513
  0
CIRCLE
  5
40C5
  8
0
 10
-8.8882056571181778
 20
50.0307082271005825
 30
0.0
 40
0.0411502671676912
  0
CIRCLE
  5
40C6
  8
0
 10
-8.8881861861178066
 20
50.0305582151477566
 30
0.0
 40
0.0215590857944487
  0
CIRCLE
  5
40C7
  8
0
 10
-8.7661269375210651
 20
49.8965378531129673
 30
0.0
 40
0.0649606298999999
  0
CIRCLE
  5
40C8
  8
0
 10
-8.7689531121214515
 20
49.8969970363215509
 30
0.0
 40
0.0553037722562513
  0
CIRCLE
  5
40C9
  8
0
 10
-8.7565021608468641
 20
49.9047239752005822
 30
0.0
 40
0.0401712225419377
  0
CIRCLE
  5
40CA
  8
0
 10
-8.7564826898464645
 20
49.9045739632477492
 30
0.0
 40
0.0215590857944487
  0
CIRCLE
  5
40CB
  8
0
 10
-8.8917630071082243
 20
49.7666278860575133
 30
0.0
 40
0.0649606298999999
  0
CIRCLE
  5
40CC
  8
0
 10
-8.8945891817086107
 20
49.7670870692660969
 30
0.0
 40
0.0553037722562513
  0
CIRCLE
  5
40CD
  8
0
 10
-8.887857474805358
 20
49.7748140081451282
 30
0.0
 40
0.0411502671676912
  0
CIRCLE
  5
40CE
  8
0
 10
-8.8878380038049585
 20
49.7746639961923023
 30
0.0
 40
0.0215590857944487
  0
CIRCLE
  5
40CF
  8
0
 10
-8.7657787552082151
 20
49.640643634157513
 30
0.0
 40
0.0649606298999999
  0
CIRCLE
  5
40D0
  8
0
 10
-8.7686049298086033
 20
49.6411028173660824
 30
0.0
 40
0.0553037722562513
  0
CIRCLE
  5
40D1
  8
0
 10
-8.7561539785340141
 20
49.6488297562451066
 30
0.0
 40
0.0401712225419377
  0
CIRCLE
  5
40D2
  8
0
 10
-8.7561345075336448
 20
49.6486797442922878
 30
0.0
 40
0.0215590857944487
  0
CIRCLE
  5
40D3
  8
0
 10
-8.8917630071099865
 20
49.5146593821574825
 30
0.0
 40
0.0649606298999999
  0
CIRCLE
  5
40D4
  8
0
 10
-8.8945891817103728
 20
49.515118565366059
 30
0.0
 40
0.0553037722562513
  0
CIRCLE
  5
40D5
  8
0
 10
-8.8878574748071202
 20
49.5228455042450904
 30
0.0
 40
0.0411502671676912
  0
CIRCLE
  5
40D6
  8
0
 10
-8.8878380038067206
 20
49.5226954922922715
 30
0.0
 40
0.0215590857944487
  0
CIRCLE
  5
40D7
  8
0
 10
-8.7657787552099791
 20
49.3886751302574822
 30
0.0
 40
0.0649606298999999
  0
CIRCLE
  5
40D8
  8
0
 10
-8.7686049298103619
 20
49.3891343134660517
 30
0.0
 40
0.0553037722562513
  0
CIRCLE
  5
40D9
  8
0
 10
-8.756153978535778
 20
49.396861252345083
 30
0.0
 40
0.0401712225419377
  0
CIRCLE
  5
40DA
  8
0
 10
-8.7561345075354051
 20
49.396711240392257
 30
0.0
 40
0.0215590857944487
  0
CIRCLE
  5
40DB
  8
0
 10
-8.8917630071089633
 20
49.2626908781917479
 30
0.0
 40
0.0649606298999999
  0
CIRCLE
  5
40DC
  8
0
 10
-8.8945891817093496
 20
49.2631500614003386
 30
0.0
 40
0.0553037722562513
  0
CIRCLE
  5
40DD
  8
0
 10
-8.887857474806097
 20
49.2708770002793699
 30
0.0
 40
0.0411502671676912
  0
CIRCLE
  5
40DE
  8
0
 10
-8.8878380038057259
 20
49.2707269883265369
 30
0.0
 40
0.0215590857944487
  0
CIRCLE
  5
40DF
  8
0
 10
-8.7657787552089843
 20
49.1367066262917618
 30
0.0
 40
0.0649606298999999
  0
CIRCLE
  5
40E0
  8
0
 10
-8.7686049298093707
 20
49.1371658095003312
 30
0.0
 40
0.0553037722562513
  0
CIRCLE
  5
40E1
  8
0
 10
-8.7561539785347549
 20
49.1448927483793625
 30
0.0
 40
0.0401712225419377
  0
CIRCLE
  5
40E2
  8
0
 10
-8.7561345075343837
 20
49.1447427364265295
 30
0.0
 40
0.0215590857944487
  0
CIRCLE
  5
40E3
  8
0
 10
-8.8917630071085618
 20
49.0107223742581084
 30
0.0
 40
0.0649606298999999
  0
CIRCLE
  5
40E4
  8
0
 10
-8.8945891817089517
 20
49.0111815574666778
 30
0.0
 40
0.0553037722562513
  0
CIRCLE
  5
40E5
  8
0
 10
-8.8878574748056991
 20
49.0189084963457091
 30
0.0
 40
0.0411502671676912
  0
CIRCLE
  5
40E6
  8
0
 10
-8.8878380038052995
 20
49.0187584843928903
 30
0.0
 40
0.0215590857944487
  0
LINE
  5
40E7
  8
0
 10
-9.0649913536099831
 20
46.8061309416575284
 30
0.0
 11
-9.0649913536099831
 21
46.7880244311431568
 31
0.0
  0
LINE
  5
40E8
  8
0
 10
-9.0649913536099831
 20
46.2412943333719397
 30
0.0
 11
-9.0649913536099831
 21
46.2231878228575823
 31
0.0
  0
LINE
  5
40E9
  8
0
 10
-9.0649937748099667
 20
46.0187292783075321
 30
0.0
 11
-9.0649937748099667
 21
46.0006227677931818
 31
0.0
  0
LINE
  5
40EA
  8
0
 10
-8.9705031646099798
 20
46.8061309416575284
 30
0.0
 11
-8.9705031646099798
 21
46.7880244311431568
 31
0.0
  0
LINE
  5
40EB
  8
0
 10
-8.9705031646099798
 20
46.2412943333719397
 30
0.0
 11
-8.9705031646099798
 21
46.2231878228575823
 31
0.0
  0
LINE
  5
40EC
  8
0
 10
-8.9705055858099634
 20
46.0187292783075321
 30
0.0
 11
-8.9705055858099634
 21
46.0006227677931818
 31
0.0
  0
LINE
  5
40ED
  8
0
 10
-9.568930782709959
 20
51.3040294609575511
 30
0.0
 11
-9.568930782709959
 21
41.8552105633575593
 31
0.0
  0
ARC
  5
40EF
  8
0
 10
-9.1870386037099792
 20
50.5894625318700903
 30
0.0
 40
0.0236220471999839
 50
359.9999999999772058
 51
89.9999998181028076
  0
LINE
  5
40F0
  8
0
 10
-9.1870386036349903
 20
50.613084579070069
 30
0.0
 11
-9.2421567139349765
 21
50.6130845792450614
 31
0.0
  0
ARC
  5
40F1
  8
0
 10
-9.2421567140748238
 20
50.5343444216802169
 30
0.0
 40
0.0787401575648339
 50
89.9999998909610071
 51
359.9999999271353204
  0
LINE
  5
40F2
  8
0
 10
-9.1634165565099881
 20
50.5343444216700775
 30
0.0
 11
-9.1634165565099881
 21
50.5894625318700832
 31
0.0
  0
ARC
  5
40F3
  8
0
 10
-8.8484559145099837
 20
50.5894625318700903
 30
0.0
 40
0.0236220471999839
 50
90.0000001818988125
 51
180.0000000000227942
  0
LINE
  5
40F4
  8
0
 10
-8.8484559145849726
 20
50.613084579070069
 30
0.0
 11
-8.7933378042849863
 21
50.6130845792450614
 31
0.0
  0
ARC
  5
40F5
  8
0
 10
-8.7933378041451391
 20
50.5343444216802169
 30
0.0
 40
0.0787401575648339
 50
180.000000072864708
 51
90.0000001090389787
  0
LINE
  5
40F6
  8
0
 10
-8.8720779617099748
 20
50.5343444216700775
 30
0.0
 11
-8.8720779617099748
 21
50.5894625318700832
 31
0.0
  0
LINE
  5
40F7
  8
0
 10
-9.379954404809963
 20
41.8473365476575623
 30
0.0
 11
-9.379954404809963
 21
41.7843444216575577
 31
0.0
  0
LINE
  5
40F8
  8
0
 10
-9.3779859008099642
 20
41.461509775957559
 30
0.0
 11
-8.6575134341492213
 21
41.461509775957559
 31
0.0
  0
ARC
  5
40F9
  8
0
 10
-9.38782842050996
 20
41.8473365476575623
 30
0.0
 40
0.007874015699997
 50
359.9999999999919282
 51
90.0
  0
LINE
  5
40FA
  8
0
 10
-9.4062535184864142
 20
41.7764704058575589
 30
0.0
 11
-8.6279859008099642
 21
41.7764704058575589
 31
0.0
  0
ARC
  5
40FB
  8
0
 10
-9.3878284205099636
 20
41.7843444216575577
 30
0.0
 40
0.0078740157000006
 50
270.0
 51
0.0000000000016284
  0
LINE
  5
40FC
  8
0
 10
-9.4271984992099647
 20
41.5317087277590602
 30
0.0
 11
-9.4271984992099647
 21
41.5512890747534911
 31
0.0
  0
LINE
  5
40FD
  8
0
 10
-9.4271984992099647
 20
41.6031558663888319
 30
0.0
 11
-9.4271984992099647
 21
41.6227614984335332
 31
0.0
  0
LINE
  5
40FE
  8
0
 10
-9.4271984992099647
 20
41.6746282900688882
 30
0.0
 11
-9.4271984992099647
 21
41.6942055754436112
 31
0.0
  0
LINE
  5
40FF
  8
0
 10
-9.4271984992099647
 20
41.746072367078952
 30
0.0
 11
-9.4271984992099647
 21
41.7567853665575583
 31
0.0
  0
LINE
  5
4100
  8
0
 10
-9.3844907826099622
 20
41.6523462595523526
 30
0.0
 11
-9.3844907826099622
 21
41.6450301280921096
 31
0.0
  0
LINE
  5
4101
  8
0
 10
-9.3844907826099622
 20
41.5808738358723033
 30
0.0
 11
-9.3844907826099622
 21
41.5735577044120603
 31
0.0
  0
LINE
  5
4102
  8
0
 10
-9.3844907826099622
 20
41.5094266972425174
 30
0.0
 11
-9.3844907826099622
 21
41.5021105657822673
 31
0.0
  0
LINE
  5
4103
  8
0
 10
-9.3844907826099622
 20
41.7164742051021804
 30
0.0
 11
-9.3844907826099622
 21
41.7237903365624234
 31
0.0
  0
LINE
  5
4104
  8
0
 10
-9.4271984992099647
 20
41.746072367078952
 30
0.0
 11
-9.3844907826099622
 21
41.7237903365624234
 31
0.0
  0
LINE
  5
4105
  8
0
 10
-9.3844907826099622
 20
41.7164742051021804
 30
0.0
 11
-9.4271984992099647
 21
41.6942055754436112
 31
0.0
  0
LINE
  5
4106
  8
0
 10
-9.4271984992099647
 20
41.6746282900688882
 30
0.0
 11
-9.3844907826099622
 21
41.6523462595523526
 31
0.0
  0
LINE
  5
4107
  8
0
 10
-9.3844907826099622
 20
41.6450301280921096
 30
0.0
 11
-9.4271984992099647
 21
41.6227614984335332
 31
0.0
  0
LINE
  5
4108
  8
0
 10
-9.4271984992099647
 20
41.6031558663888319
 30
0.0
 11
-9.3844907826099622
 21
41.5808738358723033
 31
0.0
  0
LINE
  5
4109
  8
0
 10
-9.3844907826099622
 20
41.5735577044120603
 30
0.0
 11
-9.4271984992099647
 21
41.5512890747534911
 31
0.0
  0
LINE
  5
410A
  8
0
 10
-9.4271984992099647
 20
41.5317087277590602
 30
0.0
 11
-9.3844907826099622
 21
41.5094266972425174
 31
0.0
  0
LINE
  5
410B
  8
0
 10
-9.3844907826099622
 20
41.5021105657822673
 30
0.0
 11
-9.4069013744789558
 21
41.4904252496265613
 31
0.0
  0
LINE
  5
410C
  8
0
 10
-9.406901374478954
 20
41.4904252496265613
 30
0.0
 11
-9.3779859008099642
 21
41.461509775957559
 31
0.0
  0
LINE
  5
410D
  8
0
 10
-9.4094049359099632
 20
41.7745789298575616
 30
0.0
 11
-9.4271984992099647
 21
41.7567853665575583
 31
0.0
  0
ARC
  5
410E
  8
0
 10
-9.4018497619547432
 20
41.7655621883168777
 30
0.0
 40
0.0117635998531517
 50
111.9844225692957025
 51
129.9598140619172
  0
LINE
  5
410F
  8
0
 10
-8.6555449558099671
 20
41.8473365476575623
 30
0.0
 11
-8.6555449558099671
 21
41.7843444216575577
 31
0.0
  0
ARC
  5
4110
  8
0
 10
-8.6476709401099701
 20
41.8473365476575623
 30
0.0
 40
0.007874015699997
 50
90.0
 51
180.0000000000081002
  0
ARC
  5
4111
  8
0
 10
-8.6476709401099665
 20
41.7843444216575577
 30
0.0
 40
0.0078740157000006
 50
179.9999999999984084
 51
270.0
  0
LINE
  5
4112
  8
0
 10
-8.6083008614099654
 20
41.5674428643236027
 30
0.0
 11
-8.6083008614099654
 21
41.5870232113180265
 31
0.0
  0
LINE
  5
4113
  8
0
 10
-8.6083008614099654
 20
41.6388900029533815
 30
0.0
 11
-8.6083008614099654
 21
41.6584956349980686
 31
0.0
  0
LINE
  5
4114
  8
0
 10
-8.6083008614099654
 20
41.7103624266334307
 30
0.0
 11
-8.6083008614099654
 21
41.7299397120081466
 31
0.0
  0
LINE
  5
4115
  8
0
 10
-8.6510085780099661
 20
41.688080396116888
 30
0.0
 11
-8.6510085780099661
 21
41.6807642646566521
 31
0.0
  0
LINE
  5
4116
  8
0
 10
-8.6510085780099661
 20
41.6166079724368387
 30
0.0
 11
-8.6510085780099661
 21
41.6092918409766028
 31
0.0
  0
LINE
  5
4117
  8
0
 10
-8.6510085780099661
 20
41.5451608338070528
 30
0.0
 11
-8.6510085780099661
 21
41.5378447023468169
 31
0.0
  0
LINE
  5
4118
  8
0
 10
-8.6510085780099661
 20
41.75220834166673
 30
0.0
 11
-8.6510085780099661
 21
41.7595244731269588
 31
0.0
  0
LINE
  5
4119
  8
0
 10
-8.624743387860029
 20
41.7732278929076202
 30
0.0
 11
-8.6510085780099661
 21
41.7595244731269588
 31
0.0
  0
LINE
  5
411A
  8
0
 10
-8.6510085780099661
 20
41.75220834166673
 30
0.0
 11
-8.6083008614099654
 21
41.7299397120081466
 31
0.0
  0
LINE
  5
411B
  8
0
 10
-8.6083008614099654
 20
41.7103624266334307
 30
0.0
 11
-8.6510085780099661
 21
41.688080396116888
 31
0.0
  0
LINE
  5
411C
  8
0
 10
-8.6510085780099661
 20
41.6807642646566521
 30
0.0
 11
-8.6083008614099654
 21
41.6584956349980686
 31
0.0
  0
LINE
  5
411D
  8
0
 10
-8.6083008614099654
 20
41.6388900029533815
 30
0.0
 11
-8.6510085780099661
 21
41.6166079724368387
 31
0.0
  0
LINE
  5
411E
  8
0
 10
-8.6510085780099661
 20
41.6092918409766028
 30
0.0
 11
-8.6083008614099654
 21
41.5870232113180265
 31
0.0
  0
LINE
  5
411F
  8
0
 10
-8.6083008614099654
 20
41.5674428643236027
 30
0.0
 11
-8.6510085780099661
 21
41.5451608338070528
 31
0.0
  0
LINE
  5
4120
  8
0
 10
-8.6510085780099661
 20
41.5378447023468169
 30
0.0
 11
-8.6083008614099636
 21
41.5155760726882406
 31
0.0
  0
LINE
  5
4121
  8
0
 10
-8.6279859008099642
 20
41.7764704058575589
 30
0.0
 11
-8.624743387860029
 21
41.7732278929076273
 31
0.0
  0
LINE
  5
4122
  8
0
 10
-8.6083008614099654
 20
41.5107223743575631
 30
0.0
 11
-8.6083008614099654
 21
41.5155760726882406
 31
0.0
  0
LINE
  5
4123
  8
0
 10
-8.6390884559881354
 20
41.4799347798816527
 30
0.0
 11
-8.6083008614099654
 21
41.5107223743575702
 31
0.0
  0
LINE
  5
4124
  8
0
 10
-8.6510181057099622
 20
41.4737135145835865
 30
0.0
 11
-8.6390884559881354
 21
41.4799347798816527
 31
0.0
  0
LINE
  5
4125
  8
0
 10
-8.6510181057099622
 20
41.4737135145835865
 30
0.0
 11
-8.6510181057099622
 21
41.4680051556575719
 31
0.0
  0
LINE
  5
4126
  8
0
 10
-8.6510181057099622
 20
41.4680051556575719
 30
0.0
 11
-8.6575134341492213
 21
41.461509775957559
 31
0.0
  0
LINE
  5
4127
  8
0
 10
-8.6510181057099622
 20
41.4680051556575719
 30
0.0
 11
-8.7019300013612249
 21
41.4680051556575719
 31
0.0
  0
ARC
  5
4128
  8
0
 10
-8.6580746117257679
 20
41.4880249535220997
 30
0.0
 40
0.0159565523106308
 50
279.7528942992353791
 51
296.2464103862823777
  0
ARC
  5
4129
  8
0
 10
-8.7142444035187658
 20
41.8560946108742797
 30
0.0
 40
0.3882847791903511
 50
271.8174330853543097
 51
278.7209811663092864
  0
LINE
  5
412A
  8
0
 10
-9.3844907826099622
 20
41.505768631512403
 30
0.0
 11
-8.6510085780099661
 21
41.5415027680769384
 31
0.0
  0
LINE
  5
412B
  8
0
 10
-8.6510085780099661
 20
41.6129499067067172
 30
0.0
 11
-9.3844907826099622
 21
41.5772157701421818
 31
0.0
  0
LINE
  5
412C
  8
0
 10
-9.3844907826099622
 20
41.6486881938222311
 30
0.0
 11
-8.6510085780099661
 21
41.6844223303867665
 31
0.0
  0
LINE
  5
412D
  8
0
 10
-8.6510085780099661
 20
41.7558664073968373
 30
0.0
 11
-9.3844907826099622
 21
41.7201322708323019
 31
0.0
  0
ENDSEC
  0
EOF
