  0
SECTION
  2
HEADER
  9
$ACADVER
  1
AC1009
  9
$INSBASE
 10
4420.3035297213718877
 20
263.8753266022949902
 30
0.0
  9
$EXTMIN
 10
4419.1067915188714323
 20
253.1691454999688915
 30
0.0
  9
$EXTMAX
 10
4421.5002679238714336
 20
263.8800340787008736
 30
0.0
  9
$LIMMIN
 10
0.0
 20
0.0
  9
$LIMMAX
 10
11.6929133858000007
 20
8.2677165353999982
  9
$ORTHOMODE
 70
     1
  9
$REGENMODE
 70
     1
  9
$FILLMODE
 70
     1
  9
$QTEXTMODE
 70
     0
  9
$MIRRTEXT
 70
     0
  9
$DRAGMODE
 70
     2
  9
$LTSCALE
 40
0.6431102362
  9
$OSMODE
 70
     7
  9
$ATTMODE
 70
     1
  9
$TEXTSIZE
 40
0.2
  9
$TRACEWID
 40
0.05
  9
$TEXTSTYLE
  7
STANDARD
  9
$CLAYER
  8
0
  9
$CELTYPE
  6
BYLAYER
  9
$CECOLOR
 62
   256
  9
$DIMSCALE
 40
1.0
  9
$DIMASZ
 40
0.1875
  9
$DIMEXO
 40
0.0625
  9
$DIMDLI
 40
0.4443307087
  9
$DIMRND
 40
0.0
  9
$DIMDLE
 40
0.0
  9
$DIMEXE
 40
0.125
  9
$DIMTP
 40
0.01
  9
$DIMTM
 40
0.01
  9
$DIMTXT
 40
2.0
  9
$DIMCEN
 40
0.1052362205
  9
$DIMTSZ
 40
0.0
  9
$DIMTOL
 70
     1
  9
$DIMLIM
 70
     0
  9
$DIMTIH
 70
     1
  9
$DIMTOH
 70
     1
  9
$DIMSE1
 70
     0
  9
$DIMSE2
 70
     0
  9
$DIMTAD
 70
     0
  9
$DIMZIN
 70
     0
  9
$DIMBLK
  1

  9
$DIMASO
 70
     1
  9
$DIMSHO
 70
     1
  9
$DIMPOST
  1
\X
  9
$DIMAPOST
  1

  9
$DIMALT
 70
     1
  9
$DIMALTD
 70
     2
  9
$DIMALTF
 40
25.3999999999999986
  9
$DIMLFAC
 40
1.0
  9
$DIMTOFL
 70
     0
  9
$DIMTVP
 40
0.0
  9
$DIMTIX
 70
     0
  9
$DIMSOXD
 70
     0
  9
$DIMSAH
 70
     0
  9
$DIMBLK1
  1

  9
$DIMBLK2
  1

  9
$DIMSTYLE
  2
STANDARD
  9
$DIMCLRD
 70
     0
  9
$DIMCLRE
 70
     0
  9
$DIMCLRT
 70
     0
  9
$DIMTFAC
 40
1.0
  9
$DIMGAP
 40
0.09
  9
$LUNITS
 70
     2
  9
$LUPREC
 70
     4
  9
$SKETCHINC
 40
0.1
  9
$FILLETRAD
 40
0.0
  9
$AUNITS
 70
     0
  9
$AUPREC
 70
     0
  9
$MENU
  1
.
  9
$ELEVATION
 40
0.0
  9
$PELEVATION
 40
0.0
  9
$THICKNESS
 40
0.0
  9
$LIMCHECK
 70
     0
  9
$BLIPMODE
 70
     0
  9
$CHAMFERA
 40
0.0
  9
$CHAMFERB
 40
0.0
  9
$SKPOLY
 70
     0
  9
$TDCREATE
 40
2458060.468368056230247
  9
$TDUPDATE
 40
2459590.6349305561743677
  9
$TDINDWG
 40
0.4926459491
  9
$TDUSRTIMER
 40
0.4926459491
  9
$USRTIMER
 70
     1
  9
$ANGBASE
 50
0.0
  9
$ANGDIR
 70
     0
  9
$PDMODE
 70
     0
  9
$PDSIZE
 40
0.3125
  9
$PLINEWID
 40
0.0
  9
$COORDS
 70
     1
  9
$SPLFRAME
 70
     0
  9
$SPLINETYPE
 70
     6
  9
$SPLINESEGS
 70
     8
  9
$ATTDIA
 70
     1
  9
$ATTREQ
 70
     1
  9
$HANDLING
 70
     1
  9
$HANDSEED
  5
1D73F
  9
$SURFTAB1
 70
     6
  9
$SURFTAB2
 70
     6
  9
$SURFTYPE
 70
     6
  9
$SURFU
 70
     6
  9
$SURFV
 70
     6
  9
$UCSNAME
  2

  9
$UCSORG
 10
0.0
 20
0.0
 30
0.0
  9
$UCSXDIR
 10
1.0
 20
0.0
 30
0.0
  9
$UCSYDIR
 10
0.0
 20
1.0
 30
0.0
  9
$PUCSNAME
  2

  9
$PUCSORG
 10
0.0
 20
0.0
 30
0.0
  9
$PUCSXDIR
 10
1.0
 20
0.0
 30
0.0
  9
$PUCSYDIR
 10
0.0
 20
1.0
 30
0.0
  9
$USERI1
 70
     0
  9
$USERI2
 70
     0
  9
$USERI3
 70
     0
  9
$USERI4
 70
     0
  9
$USERI5
 70
     0
  9
$USERR1
 40
0.0
  9
$USERR2
 40
0.0
  9
$USERR3
 40
0.0
  9
$USERR4
 40
0.0
  9
$USERR5
 40
0.0
  9
$WORLDVIEW
 70
     1
  9
$SHADEDGE
 70
     3
  9
$SHADEDIF
 70
    70
  9
$TILEMODE
 70
     1
  9
$MAXACTVP
 70
    64
  9
$PLIMCHECK
 70
     0
  9
$PEXTMIN
 10
1.0000000000000000E+20
 20
1.0000000000000000E+20
 30
1.0000000000000000E+20
  9
$PEXTMAX
 10
-1.0000000000000000E+20
 20
-1.0000000000000000E+20
 30
-1.0000000000000000E+20
  9
$PLIMMIN
 10
0.0
 20
0.0
  9
$PLIMMAX
 10
12.0
 20
9.0
  9
$UNITMODE
 70
     0
  9
$VISRETAIN
 70
     1
  9
$PLINEGEN
 70
     0
  9
$PSLTSCALE
 70
     1
  0
ENDSEC
  0
SECTION
  2
TABLES
  0
TABLE
  2
VPORT
 70
     1
  0
VPORT
  2
*ACTIVE
 70
     0
 10
0.0
 20
0.0
 11
1.0
 21
1.0
 12
508.9381732760588761
 22
125.9449846867958058
 13
0.0
 23
0.0
 14
1.0
 24
1.0
 15
0.0
 25
0.0
 16
0.0
 26
0.0
 36
60.4960186965801583
 17
3911.3653564453120453
 27
132.5796051025390057
 37
0.0
 40
10.78757751843645
 41
2.2831541218637992
 42
50.0
 43
0.0
 44
0.0
 50
0.0
 51
0.0
 71
     0
 72
   100
 73
     1
 74
     1
 75
     0
 76
     0
 77
     0
 78
     0
  0
ENDTAB
  0
TABLE
  2
LTYPE
 70
     2
  0
LTYPE
  2
CONTINUOUS
 70
     0
  3
Solid line
 72
    65
 73
     0
 40
0.0
  0
LTYPE
  2
PHANTOM2
 70
     0
  3
___ _ _ ___ _ _ ___ _ _ ___ _ _
 72
    65
 73
     6
 40
1.25
 49
0.625
 49
-0.125
 49
0.125
 49
-0.125
 49
0.125
 49
-0.125
  0
ENDTAB
  0
TABLE
  2
LAYER
 70
     2
  0
LAYER
  2
0
 70
     0
 62
   255
  6
CONTINUOUS
  0
LAYER
  2
DEFPOINTS
 70
     0
 62
     7
  6
CONTINUOUS
  0
ENDTAB
  0
TABLE
  2
STYLE
 70
     1
  0
STYLE
  2
STANDARD
 70
     0
 40
0.0
 41
0.8
 50
0.0
 71
     0
 42
0.2
  3
txt
  4

  0
ENDTAB
  0
TABLE
  2
VIEW
 70
     0
  0
ENDTAB
  0
TABLE
  2
UCS
 70
     0
  0
ENDTAB
  0
TABLE
  2
APPID
 70
    11
  0
APPID
  2
ACAD
 70
     0
  0
APPID
  2
ACAD_MLEADERVER
 70
     0
  0
APPID
  2
ACAD_EXEMPT_FROM_CAD_STANDARDS
 70
     0
  0
APPID
  2
ACAD_NAV_VCDISPLAY
 70
     0
  0
APPID
  2
ACAECLAYERSTANDARD
 70
     0
  0
APPID
  2
ACCMTRANSPARENCY
 70
     0
  0
APPID
  2
ACAD_DSTYLE_DIMJAG
 70
     0
  0
APPID
  2
ACAD_DSTYLE_DIMTALN
 70
     0
  0
APPID
  2
ACDBATTR
 70
     0
  0
APPID
  2
ACADANNOTATIVE
 70
     0
  0
APPID
  2
DCO15
 70
     0
  0
ENDTAB
  0
TABLE
  2
DIMSTYLE
 70
     1
  0
DIMSTYLE
  2
STANDARD
 70
     0
  3

  4

  5

  6

  7

 40
1.0
 41
0.1875
 42
0.0625
 43
0.38
 44
0.125
 45
0.0
 46
0.0
 47
0.01
 48
0.01
140
0.15625
141
0.09
142
0.0
143
25.3999999999999986
144
1.0
145
0.0
146
1.0
147
0.09
 71
     1
 72
     0
 73
     1
 74
     1
 75
     0
 76
     0
 77
     0
 78
     4
170
     0
171
     2
172
     0
173
     0
174
     0
175
     0
176
     0
177
     0
178
     0
  0
ENDTAB
  0
ENDSEC
  0
SECTION
  2
BLOCKS
  0
BLOCK
  8
0
  2
$MODEL_SPACE
 70
     0
 10
0.0
 20
0.0
 30
0.0
  3
$MODEL_SPACE
  1

  0
ENDBLK
  5
21
  8
0
  0
BLOCK
 67
     1
  8
0
  2
$PAPER_SPACE
 70
     0
 10
0.0
 20
0.0
 30
0.0
  3
$PAPER_SPACE
  1

  0
ENDBLK
  5
1D
 67
     1
  8
0
  0
ENDSEC
  0
SECTION
  2
ENTITIES
  0
LINE
  5
1D567
  8
0
 10
4419.8704598680706113
 20
253.1691454999950111
 30
0.0
 11
4420.7365995745713008
 21
253.1691454999950111
 31
0.0
  0
LINE
  5
1D568
  8
0
 10
4419.1224273590705707
 20
263.696608130294976
 30
0.0
 11
4419.1067915188714323
 21
263.8753266022949902
 31
0.0
  0
LINE
  5
1D569
  8
0
 10
4419.6932935008717322
 20
261.9068226652950102
 30
0.0
 11
4419.6932935008717322
 21
263.6391061298950262
 31
0.0
  0
LINE
  5
1D56A
  8
0
 10
4419.7621911386713691
 20
261.8989486495950132
 30
0.0
 11
4419.7621911386713691
 21
261.8749329014950149
 31
0.0
  0
LINE
  5
1D56B
  8
0
 10
4419.7953266550712215
 20
260.6070867786950203
 30
0.0
 11
4419.7953267596712976
 21
260.5377271139950039
 31
0.0
  0
LINE
  5
1D56C
  8
0
 10
4419.8507738157713902
 20
253.1888305392949974
 30
0.0
 11
4419.8507738157713902
 21
262.5761140038949861
 31
0.0
  0
LINE
  5
1D56D
  8
0
 10
4420.7562856268714313
 20
253.1888305392949974
 30
0.0
 11
4420.7562856268714313
 21
262.5761140038949861
 31
0.0
  0
LINE
  5
1D56E
  8
0
 10
4421.4846320835713414
 20
263.696608130294976
 30
0.0
 11
4421.5002679238714336
 21
263.8753266022949902
 31
0.0
  0
LINE
  5
1D56F
  8
0
 10
4419.8507738157713902
 20
261.8749329014950149
 30
0.0
 11
4419.7105354432706008
 21
261.8749329014950149
 31
0.0
  0
LINE
  5
1D570
  8
0
 10
4419.6932935008717322
 20
261.9068226652950102
 30
0.0
 11
4419.8507738157713902
 21
261.9068226652950102
 31
0.0
  0
LINE
  5
1D571
  8
0
 10
4419.1851802936716922
 20
263.6391061298950262
 30
0.0
 11
4421.4218796615714382
 21
263.6391061298950262
 31
0.0
  0
LINE
  5
1D572
  8
0
 10
4421.5002679238714336
 20
263.8753266022949902
 30
0.0
 11
4419.1067915188714323
 21
263.8753266022949902
 31
0.0
  0
ARC
  5
1D573
  8
0
 10
4420.3035297213718877
 20
262.5761140038949861
 30
0.0
 40
0.4527559055
 50
0.0
 51
180.0
  0
ARC
  5
1D574
  8
0
 10
4421.4218796615714382
 20
263.7020982558950095
 30
0.0
 40
0.062992126
 50
270.0
 51
355.0000000000017053
  0
ARC
  5
1D575
  8
0
 10
4419.1851797810750213
 20
263.7020982558968853
 30
0.0
 40
0.062992126003962
 50
185.0000000013957049
 51
270.0004662423801847
  0
ARC
  5
1D576
  8
0
 10
4420.7366005875983319
 20
253.1888305392427014
 30
0.0
 40
0.0196850392737849
 50
269.9970514599340277
 51
0.0000001521666924
  0
ARC
  5
1D577
  8
0
 10
4419.8704588550453991
 20
253.1888305392427014
 30
0.0
 40
0.019685039273786
 50
179.9999998478429859
 51
270.0029485400659723
  0
ARC
  5
1D578
  8
0
 10
4419.7700651543718777
 20
261.8989486495950132
 30
0.0
 40
0.0078740157
 50
90.0
 51
180.0
  0
ARC
  5
1D579
  8
0
 10
4419.711262341606016
 20
261.8546088641223264
 30
0.0
 40
0.0203370321413242
 50
92.0483362279573498
 51
178.1994191898214126
  0
ARC
  5
1D57A
  8
0
 10
4419.8624397090270577
 20
260.6059974543097724
 30
0.0
 40
0.0671218938862921
 50
139.5530760346221086
 51
179.070103266208406
  0
ARC
  5
1D57B
  8
0
 10
4419.932693648809618
 20
260.5465298972598021
 30
0.0
 40
0.1591651597885426
 50
120.9763656503272955
 51
139.6688212716248927
  0
ARC
  5
1D57C
  8
0
 10
4419.8149448312306049
 20
260.5376564702053201
 30
0.0
 40
0.0196181987521448
 50
179.7936813773054894
 51
263.699043599607819
  0
ARC
  5
1D57D
  8
0
 10
4419.7106267750850748
 20
260.549830918454802
 30
0.0
 40
0.0196917231783661
 50
180.3158123339609062
 51
265.1165453751845007
  0
LINE
  5
1D57E
  8
0
 10
4419.7089504343721273
 20
260.5302106777950257
 30
0.0
 11
4419.7956302342709023
 21
260.5197442584949954
 31
0.0
  0
LINE
  5
1D57F
  8
0
 10
4419.7956302342709023
 20
260.5197442584949954
 30
0.0
 11
4419.8053288597802748
 21
260.5188470412568904
 31
0.0
  0
LINE
  5
1D580
  8
0
 10
4419.8053288597802748
 20
260.5188470412568904
 30
0.0
 11
4419.8134825846600506
 21
260.5180928823762088
 31
0.0
  0
ARC
  5
1D581
  8
0
 10
4419.8856219721556045
 20
261.6083679762409133
 30
0.0
 40
1.0926590829394001
 50
266.214472417445279
 51
268.1723568151571726
  0
LINE
  5
1D582
  8
0
 10
4420.9137659417710893
 20
261.9068226652950102
 30
0.0
 11
4420.9137659417710893
 21
263.6391061298950262
 31
0.0
  0
LINE
  5
1D583
  8
0
 10
4420.8448683039714524
 20
261.8989486495950132
 30
0.0
 11
4420.8448683039714524
 21
261.8749329014950149
 31
0.0
  0
LINE
  5
1D584
  8
0
 10
4420.8117327875716001
 20
260.6070867786950203
 30
0.0
 11
4420.8117326829706144
 21
260.5377271139950039
 31
0.0
  0
LINE
  5
1D585
  8
0
 10
4420.7562856268714313
 20
261.8749329014950149
 30
0.0
 11
4420.8965239993713112
 21
261.8749329014950149
 31
0.0
  0
LINE
  5
1D586
  8
0
 10
4420.9137659417710893
 20
261.9068226652950102
 30
0.0
 11
4420.7562856268714313
 21
261.9068226652950102
 31
0.0
  0
ARC
  5
1D587
  8
0
 10
4420.8369942882709438
 20
261.8989486495950132
 30
0.0
 40
0.0078740157
 50
0.0
 51
90.0
  0
ARC
  5
1D588
  8
0
 10
4420.8957971010349866
 20
261.8546088641223264
 30
0.0
 40
0.0203370321413364
 50
1.800580810227401
 51
87.9516637720426644
  0
ARC
  5
1D589
  8
0
 10
4420.7446197336157638
 20
260.6059974543097724
 30
0.0
 40
0.0671218938862921
 50
0.9298967337916257
 51
40.4469239653779127
  0
ARC
  5
1D58A
  8
0
 10
4420.674365793832294
 20
260.5465298972598021
 30
0.0
 40
0.1591651597885426
 50
40.3311787283750789
 51
59.0236343496726619
  0
ARC
  5
1D58B
  8
0
 10
4420.7921146114113071
 20
260.5376564702053201
 30
0.0
 40
0.0196181987521448
 50
276.300956400392181
 51
0.2063186226945021
  0
ARC
  5
1D58C
  8
0
 10
4420.8964326675577468
 20
260.549830918454802
 30
0.0
 40
0.0196917231783808
 50
274.883454624815613
 51
359.6841876626061207
  0
LINE
  5
1D58D
  8
0
 10
4420.8981090082706942
 20
260.5302106777950257
 30
0.0
 11
4420.8114292083719192
 21
260.5197442584949954
 31
0.0
  0
LINE
  5
1D58E
  8
0
 10
4420.8114292083719192
 20
260.5197442584949954
 30
0.0
 11
4420.8017305828616372
 21
260.5188470412568904
 31
0.0
  0
LINE
  5
1D58F
  8
0
 10
4420.8017305828616372
 20
260.5188470412568904
 30
0.0
 11
4420.7935768579836804
 21
260.5180928823762088
 31
0.0
  0
ARC
  5
1D590
  8
0
 10
4420.7214374704853981
 20
261.6083679762409133
 30
0.0
 40
1.0926590829394001
 50
271.8276431848428274
 51
273.7855275825546073
  0
LINE
  5
1D592
  8
0
 10
4420.9161240916027964
 20
260.5497223789133727
 30
0.0
 11
4420.9161240916027964
 21
261.8552478717949725
 31
0.0
  0
LINE
  5
1D593
  8
0
 10
4419.6909353510400251
 20
260.5497223789145096
 30
0.0
 11
4419.6909353510400251
 21
261.8552478717950862
 31
0.0
  0
ATTDEF
  5
1D594
  8
DEFPOINTS
 10
4420.3045995881548151
 20
263.8790340787008972
 30
0.0
 40
0.001
  1
K-20589BR-4
  3

  2
MODELNUMBER
 70
     0
1001
ACDBATTR
1070
     0
1070
     1
  0
ATTDEF
  5
1D595
  8
DEFPOINTS
 10
4420.3045995881548151
 20
263.8773672383217104
 30
0.0
 40
0.001
  1

  3

  2
TRADENAME
 70
     0
1001
ACDBATTR
1070
     0
1070
     1
  0
ATTDEF
  5
1D596
  8
DEFPOINTS
 10
4420.3045995881548151
 20
263.8757007453676238
 30
0.0
 40
0.001
  1
KITCHEN SINK FAUCET
  3

  2
PRODUCT
 70
     0
1001
ACDBATTR
1070
     0
1070
     1
  0
ENDSEC
  0
EOF
