  0
SECTION
  2
HEADER
  9
$ACADVER
  1
AC1009
  9
$INSBASE
 10
4425.4543667866273609
 20
253.9820349175035119
 30
0.0
  9
$EXTMIN
 10
4424.2576285841769277
 20
252.7852967149534891
 30
0.0
  9
$EXTMAX
 10
4426.6511049891760194
 20
263.300932555253496
 30
0.0
  9
$LIMMIN
 10
0.0
 20
0.0
  9
$LIMMAX
 10
11.6929133858000007
 20
8.2677165353999982
  9
$ORTHOMODE
 70
     1
  9
$REGENMODE
 70
     1
  9
$FILLMODE
 70
     1
  9
$QTEXTMODE
 70
     0
  9
$MIRRTEXT
 70
     0
  9
$DRAGMODE
 70
     2
  9
$LTSCALE
 40
0.6431102362
  9
$OSMODE
 70
     7
  9
$ATTMODE
 70
     1
  9
$TEXTSIZE
 40
0.2
  9
$TRACEWID
 40
0.05
  9
$TEXTSTYLE
  7
STANDARD
  9
$CLAYER
  8
0
  9
$CELTYPE
  6
BYLAYER
  9
$CECOLOR
 62
   256
  9
$DIMSCALE
 40
1.0
  9
$DIMASZ
 40
0.1875
  9
$DIMEXO
 40
0.0625
  9
$DIMDLI
 40
0.4443307087
  9
$DIMRND
 40
0.0
  9
$DIMDLE
 40
0.0
  9
$DIMEXE
 40
0.125
  9
$DIMTP
 40
0.01
  9
$DIMTM
 40
0.01
  9
$DIMTXT
 40
2.0
  9
$DIMCEN
 40
0.1052362205
  9
$DIMTSZ
 40
0.0
  9
$DIMTOL
 70
     1
  9
$DIMLIM
 70
     0
  9
$DIMTIH
 70
     1
  9
$DIMTOH
 70
     1
  9
$DIMSE1
 70
     0
  9
$DIMSE2
 70
     0
  9
$DIMTAD
 70
     0
  9
$DIMZIN
 70
     0
  9
$DIMBLK
  1

  9
$DIMASO
 70
     1
  9
$DIMSHO
 70
     1
  9
$DIMPOST
  1
\X
  9
$DIMAPOST
  1

  9
$DIMALT
 70
     1
  9
$DIMALTD
 70
     2
  9
$DIMALTF
 40
25.3999999999999986
  9
$DIMLFAC
 40
1.0
  9
$DIMTOFL
 70
     0
  9
$DIMTVP
 40
0.0
  9
$DIMTIX
 70
     0
  9
$DIMSOXD
 70
     0
  9
$DIMSAH
 70
     0
  9
$DIMBLK1
  1

  9
$DIMBLK2
  1

  9
$DIMSTYLE
  2
STANDARD
  9
$DIMCLRD
 70
     0
  9
$DIMCLRE
 70
     0
  9
$DIMCLRT
 70
     0
  9
$DIMTFAC
 40
1.0
  9
$DIMGAP
 40
0.09
  9
$LUNITS
 70
     2
  9
$LUPREC
 70
     4
  9
$SKETCHINC
 40
0.1
  9
$FILLETRAD
 40
0.0
  9
$AUNITS
 70
     0
  9
$AUPREC
 70
     0
  9
$MENU
  1
.
  9
$ELEVATION
 40
0.0
  9
$PELEVATION
 40
0.0
  9
$THICKNESS
 40
0.0
  9
$LIMCHECK
 70
     0
  9
$BLIPMODE
 70
     0
  9
$CHAMFERA
 40
0.0
  9
$CHAMFERB
 40
0.0
  9
$SKPOLY
 70
     0
  9
$TDCREATE
 40
2458060.468368056230247
  9
$TDUPDATE
 40
2459590.6350925927981734
  9
$TDINDWG
 40
0.4927038194
  9
$TDUSRTIMER
 40
0.4927038194
  9
$USRTIMER
 70
     1
  9
$ANGBASE
 50
0.0
  9
$ANGDIR
 70
     0
  9
$PDMODE
 70
     0
  9
$PDSIZE
 40
0.3125
  9
$PLINEWID
 40
0.0
  9
$COORDS
 70
     1
  9
$SPLFRAME
 70
     0
  9
$SPLINETYPE
 70
     6
  9
$SPLINESEGS
 70
     8
  9
$ATTDIA
 70
     1
  9
$ATTREQ
 70
     1
  9
$HANDLING
 70
     1
  9
$HANDSEED
  5
1D6AD
  9
$SURFTAB1
 70
     6
  9
$SURFTAB2
 70
     6
  9
$SURFTYPE
 70
     6
  9
$SURFU
 70
     6
  9
$SURFV
 70
     6
  9
$UCSNAME
  2

  9
$UCSORG
 10
0.0
 20
0.0
 30
0.0
  9
$UCSXDIR
 10
1.0
 20
0.0
 30
0.0
  9
$UCSYDIR
 10
0.0
 20
1.0
 30
0.0
  9
$PUCSNAME
  2

  9
$PUCSORG
 10
0.0
 20
0.0
 30
0.0
  9
$PUCSXDIR
 10
1.0
 20
0.0
 30
0.0
  9
$PUCSYDIR
 10
0.0
 20
1.0
 30
0.0
  9
$USERI1
 70
     0
  9
$USERI2
 70
     0
  9
$USERI3
 70
     0
  9
$USERI4
 70
     0
  9
$USERI5
 70
     0
  9
$USERR1
 40
0.0
  9
$USERR2
 40
0.0
  9
$USERR3
 40
0.0
  9
$USERR4
 40
0.0
  9
$USERR5
 40
0.0
  9
$WORLDVIEW
 70
     1
  9
$SHADEDGE
 70
     3
  9
$SHADEDIF
 70
    70
  9
$TILEMODE
 70
     1
  9
$MAXACTVP
 70
    64
  9
$PLIMCHECK
 70
     0
  9
$PEXTMIN
 10
1.0000000000000000E+20
 20
1.0000000000000000E+20
 30
1.0000000000000000E+20
  9
$PEXTMAX
 10
-1.0000000000000000E+20
 20
-1.0000000000000000E+20
 30
-1.0000000000000000E+20
  9
$PLIMMIN
 10
0.0
 20
0.0
  9
$PLIMMAX
 10
12.0
 20
9.0
  9
$UNITMODE
 70
     0
  9
$VISRETAIN
 70
     1
  9
$PLINEGEN
 70
     0
  9
$PSLTSCALE
 70
     1
  0
ENDSEC
  0
SECTION
  2
TABLES
  0
TABLE
  2
VPORT
 70
     1
  0
VPORT
  2
*ACTIVE
 70
     0
 10
0.0
 20
0.0
 11
1.0
 21
1.0
 12
514.0890103413639736
 22
125.4635095325644016
 13
0.0
 23
0.0
 14
1.0
 24
1.0
 15
0.0
 25
0.0
 16
0.0
 26
0.0
 36
60.4960186965801583
 17
3911.3653564453120453
 27
132.5796051025390057
 37
0.0
 40
10.5948980147882192
 41
2.2831541218637992
 42
50.0
 43
0.0
 44
0.0
 50
0.0
 51
0.0
 71
     0
 72
   100
 73
     1
 74
     1
 75
     0
 76
     0
 77
     0
 78
     0
  0
ENDTAB
  0
TABLE
  2
LTYPE
 70
     2
  0
LTYPE
  2
CONTINUOUS
 70
     0
  3
Solid line
 72
    65
 73
     0
 40
0.0
  0
LTYPE
  2
PHANTOM2
 70
     0
  3
___ _ _ ___ _ _ ___ _ _ ___ _ _
 72
    65
 73
     6
 40
1.25
 49
0.625
 49
-0.125
 49
0.125
 49
-0.125
 49
0.125
 49
-0.125
  0
ENDTAB
  0
TABLE
  2
LAYER
 70
     2
  0
LAYER
  2
0
 70
     0
 62
   255
  6
CONTINUOUS
  0
LAYER
  2
DEFPOINTS
 70
     0
 62
     7
  6
CONTINUOUS
  0
ENDTAB
  0
TABLE
  2
STYLE
 70
     1
  0
STYLE
  2
STANDARD
 70
     0
 40
0.0
 41
0.8
 50
0.0
 71
     0
 42
0.2
  3
txt
  4

  0
ENDTAB
  0
TABLE
  2
VIEW
 70
     0
  0
ENDTAB
  0
TABLE
  2
UCS
 70
     0
  0
ENDTAB
  0
TABLE
  2
APPID
 70
    11
  0
APPID
  2
ACAD
 70
     0
  0
APPID
  2
ACAD_MLEADERVER
 70
     0
  0
APPID
  2
ACAD_EXEMPT_FROM_CAD_STANDARDS
 70
     0
  0
APPID
  2
ACAD_NAV_VCDISPLAY
 70
     0
  0
APPID
  2
ACAECLAYERSTANDARD
 70
     0
  0
APPID
  2
ACCMTRANSPARENCY
 70
     0
  0
APPID
  2
ACAD_DSTYLE_DIMJAG
 70
     0
  0
APPID
  2
ACAD_DSTYLE_DIMTALN
 70
     0
  0
APPID
  2
ACDBATTR
 70
     0
  0
APPID
  2
ACADANNOTATIVE
 70
     0
  0
APPID
  2
DCO15
 70
     0
  0
ENDTAB
  0
TABLE
  2
DIMSTYLE
 70
     1
  0
DIMSTYLE
  2
STANDARD
 70
     0
  3

  4

  5

  6

  7

 40
1.0
 41
0.1875
 42
0.0625
 43
0.38
 44
0.125
 45
0.0
 46
0.0
 47
0.01
 48
0.01
140
0.15625
141
0.09
142
0.0
143
25.3999999999999986
144
1.0
145
0.0
146
1.0
147
0.09
 71
     1
 72
     0
 73
     1
 74
     1
 75
     0
 76
     0
 77
     0
 78
     4
170
     0
171
     2
172
     0
173
     0
174
     0
175
     0
176
     0
177
     0
178
     0
  0
ENDTAB
  0
ENDSEC
  0
SECTION
  2
BLOCKS
  0
BLOCK
  8
0
  2
$MODEL_SPACE
 70
     0
 10
0.0
 20
0.0
 30
0.0
  3
$MODEL_SPACE
  1

  0
ENDBLK
  5
21
  8
0
  0
BLOCK
 67
     1
  8
0
  2
$PAPER_SPACE
 70
     0
 10
0.0
 20
0.0
 30
0.0
  3
$PAPER_SPACE
  1

  0
ENDBLK
  5
1D
 67
     1
  8
0
  0
ENDSEC
  0
SECTION
  2
ENTITIES
  0
LINE
  5
1D464
  8
0
 10
4425.177867717375193
 20
256.1867593269535064
 30
0.0
 11
4425.0016108810759761
 21
256.1867593269535064
 31
0.0
  0
LINE
  5
1D465
  8
0
 10
4425.0016108810759761
 20
256.1946333426535034
 30
0.0
 11
4425.2012463446935726
 21
256.1946333426535034
 31
0.0
  0
LINE
  5
1D466
  8
0
 10
4425.0016108810759761
 20
262.8481766497534977
 30
0.0
 11
4425.0016108810759761
 21
256.1946333426535034
 31
0.0
  0
LINE
  5
1D467
  8
0
 10
4425.0016108810759761
 20
256.1867593269535064
 30
0.0
 11
4425.0016108810759761
 21
256.0238994719534844
 31
0.0
  0
LINE
  5
1D468
  8
0
 10
4425.0606659992763525
 20
256.1867593269535064
 30
0.0
 11
4425.0606659992763525
 21
256.1946333426535034
 31
0.0
  0
ARC
  5
1D469
  8
0
 10
4425.4543667866273609
 20
253.9635404743661127
 30
0.0
 40
0.5917289834306054
 50
262.2894186455741874
 51
277.7105813544258126
  0
ARC
  5
1D46A
  8
0
 10
4425.4543667866755641
 20
253.9820349174534897
 30
0.0
 40
1.1967382024999991
 50
117.472541424589707
 51
62.5274585809864121
  0
CIRCLE
  5
1D46C
  8
0
 10
4425.4543667866755641
 20
262.8481766497534977
 30
0.0
 40
0.4527559055
  0
ARC
  5
1D46D
  8
0
 10
4425.4530020688007426
 20
253.9833905309019997
 30
0.0
 40
0.6112296524559095
 50
177.0953204484488026
 51
262.6658420622280801
  0
LINE
  5
1D46E
  8
0
 10
4424.8425577109101141
 20
254.0143642933624051
 30
0.0
 11
4424.9461638187758581
 21
255.8001601344535061
 31
0.0
  0
ARC
  5
1D46F
  8
0
 10
4425.6259919005242409
 20
255.7504253126072058
 30
0.0
 40
0.6816449025980976
 50
156.3469452106388928
 51
175.8158128974615124
  0
ARC
  5
1D470
  8
0
 10
4425.3009753944979821
 20
255.8767168549165945
 30
0.0
 40
0.3335893203226574
 50
111.6564005596167988
 51
153.8189531875325997
  0
ARC
  5
1D471
  8
0
 10
4425.3768737748796411
 20
255.6345368716332018
 30
0.0
 40
0.5869864147349145
 50
95.3454146802544358
 51
109.8177929852027006
  0
ARC
  5
1D472
  8
0
 10
4505.1368699587874289
 20
-1673.8228329066569131
 30
0.0
 40
1931.6914210898810325
 50
92.3641285673086685
 51
92.3680523931501654
  0
LINE
  5
1D473
  8
0
 10
4425.7308658558758907
 20
256.1867593269535064
 30
0.0
 11
4425.9071226921760172
 21
256.1867593269535064
 31
0.0
  0
LINE
  5
1D474
  8
0
 10
4425.9071226921760172
 20
256.1946333426535034
 30
0.0
 11
4425.7074872285584206
 21
256.1946333426535034
 31
0.0
  0
LINE
  5
1D475
  8
0
 10
4425.9071226921760172
 20
262.8481766497534977
 30
0.0
 11
4425.9071226921760172
 21
256.1946333426535034
 31
0.0
  0
LINE
  5
1D476
  8
0
 10
4425.9071226921760172
 20
256.1867593269535064
 30
0.0
 11
4425.9071226921760172
 21
256.0238994719534844
 31
0.0
  0
LINE
  5
1D477
  8
0
 10
4425.8480675739747312
 20
256.1867593269535064
 30
0.0
 11
4425.8480675739747312
 21
256.1946333426535034
 31
0.0
  0
ARC
  5
1D478
  8
0
 10
4425.4557315044521602
 20
253.9833905309019997
 30
0.0
 40
0.6112296524559095
 50
277.3341579377719199
 51
2.9046795515511512
  0
LINE
  5
1D479
  8
0
 10
4426.0661758623418791
 20
254.0143642933624051
 30
0.0
 11
4425.9625697544761351
 21
255.8001601344535061
 31
0.0
  0
ARC
  5
1D47A
  8
0
 10
4425.2827416727268428
 20
255.7504253126072058
 30
0.0
 40
0.6816449025980976
 50
4.1841871025385204
 51
23.653054789361061
  0
ARC
  5
1D47B
  8
0
 10
4425.6077581787521922
 20
255.8767168549165945
 30
0.0
 40
0.3335893203226574
 50
26.1810468124674713
 51
68.3435994403831586
  0
ARC
  5
1D47C
  8
0
 10
4425.5318597983723521
 20
255.6345368716332018
 30
0.0
 40
0.5869864147349145
 50
70.1822070147973136
 51
84.6545853197455784
  0
ARC
  5
1D47D
  8
0
 10
4345.7718475825067799
 20
-1673.8232210446299177
 30
0.0
 40
1931.6918095588109736
 50
87.6319476074235126
 51
87.6358714324826735
  0
ATTDEF
  5
1D47F
  8
DEFPOINTS
 10
4425.454570151837288
 20
253.9807391596472996
 30
0.0
 40
0.001
  1
K-20589BR-4
  3

  2
MODELNUMBER
 70
     0
1001
ACDBATTR
1070
     0
1070
     1
  0
ATTDEF
  5
1D480
  8
DEFPOINTS
 10
4425.454570151837288
 20
253.979072319268198
 30
0.0
 40
0.001
  1

  3

  2
TRADENAME
 70
     0
1001
ACDBATTR
1070
     0
1070
     1
  0
ATTDEF
  5
1D481
  8
DEFPOINTS
 10
4425.454570151837288
 20
253.9774058263139977
 30
0.0
 40
0.001
  1
KITCHEN SINK FAUCET
  3

  2
PRODUCT
 70
     0
1001
ACDBATTR
1070
     0
1070
     1
  0
ENDSEC
  0
EOF
