  0
SECTION
  2
HEADER
  9
$ACADVER
  1
AC1009
  9
$INSBASE
 10
3000.920633164083938
 20
185.8708977753173883
 30
0.0
  9
$EXTMIN
 10
2990.3569031884999276
 20
180.4122315858473087
 30
-0.0000000349181948
  9
$EXTMAX
 10
3011.4956849273930857
 20
186.6197925907021045
 30
0.0000000814935746
  9
$LIMMIN
 10
0.0
 20
0.0
  9
$LIMMAX
 10
11.6929133858000007
 20
8.2677165353999982
  9
$ORTHOMODE
 70
     0
  9
$REGENMODE
 70
     1
  9
$FILLMODE
 70
     1
  9
$QTEXTMODE
 70
     0
  9
$MIRRTEXT
 70
     0
  9
$DRAGMODE
 70
     2
  9
$LTSCALE
 40
0.6431102362
  9
$OSMODE
 70
   575
  9
$ATTMODE
 70
     1
  9
$TEXTSIZE
 40
0.2
  9
$TRACEWID
 40
0.05
  9
$TEXTSTYLE
  7
STANDARD
  9
$CLAYER
  8
0
  9
$CELTYPE
  6
BYLAYER
  9
$CECOLOR
 62
   256
  9
$DIMSCALE
 40
1.0
  9
$DIMASZ
 40
0.1875
  9
$DIMEXO
 40
0.0625
  9
$DIMDLI
 40
0.4443307087
  9
$DIMRND
 40
0.0
  9
$DIMDLE
 40
0.0
  9
$DIMEXE
 40
0.125
  9
$DIMTP
 40
0.01
  9
$DIMTM
 40
0.01
  9
$DIMTXT
 40
2.0
  9
$DIMCEN
 40
0.1052362205
  9
$DIMTSZ
 40
0.0
  9
$DIMTOL
 70
     1
  9
$DIMLIM
 70
     0
  9
$DIMTIH
 70
     1
  9
$DIMTOH
 70
     1
  9
$DIMSE1
 70
     0
  9
$DIMSE2
 70
     0
  9
$DIMTAD
 70
     0
  9
$DIMZIN
 70
     0
  9
$DIMBLK
  1

  9
$DIMASO
 70
     1
  9
$DIMSHO
 70
     1
  9
$DIMPOST
  1
\X
  9
$DIMAPOST
  1

  9
$DIMALT
 70
     1
  9
$DIMALTD
 70
     2
  9
$DIMALTF
 40
25.3999999999999986
  9
$DIMLFAC
 40
1.0
  9
$DIMTOFL
 70
     0
  9
$DIMTVP
 40
0.0
  9
$DIMTIX
 70
     0
  9
$DIMSOXD
 70
     0
  9
$DIMSAH
 70
     0
  9
$DIMBLK1
  1

  9
$DIMBLK2
  1

  9
$DIMSTYLE
  2
STANDARD
  9
$DIMCLRD
 70
     0
  9
$DIMCLRE
 70
     0
  9
$DIMCLRT
 70
     0
  9
$DIMTFAC
 40
1.0
  9
$DIMGAP
 40
0.09
  9
$LUNITS
 70
     2
  9
$LUPREC
 70
     4
  9
$SKETCHINC
 40
0.1
  9
$FILLETRAD
 40
0.0
  9
$AUNITS
 70
     0
  9
$AUPREC
 70
     0
  9
$MENU
  1
.
  9
$ELEVATION
 40
0.0
  9
$PELEVATION
 40
0.0
  9
$THICKNESS
 40
0.0
  9
$LIMCHECK
 70
     0
  9
$BLIPMODE
 70
     0
  9
$CHAMFERA
 40
0.0
  9
$CHAMFERB
 40
0.0
  9
$SKPOLY
 70
     0
  9
$TDCREATE
 40
2458060.468368056230247
  9
$TDUPDATE
 40
2459505.0691435178741813
  9
$TDINDWG
 40
0.3695440972
  9
$TDUSRTIMER
 40
0.3695440972
  9
$USRTIMER
 70
     1
  9
$ANGBASE
 50
0.0
  9
$ANGDIR
 70
     0
  9
$PDMODE
 70
     0
  9
$PDSIZE
 40
0.3125
  9
$PLINEWID
 40
0.0
  9
$COORDS
 70
     1
  9
$SPLFRAME
 70
     0
  9
$SPLINETYPE
 70
     6
  9
$SPLINESEGS
 70
     8
  9
$ATTDIA
 70
     1
  9
$ATTREQ
 70
     1
  9
$HANDLING
 70
     1
  9
$HANDSEED
  5
72F9
  9
$SURFTAB1
 70
     6
  9
$SURFTAB2
 70
     6
  9
$SURFTYPE
 70
     6
  9
$SURFU
 70
     6
  9
$SURFV
 70
     6
  9
$UCSNAME
  2

  9
$UCSORG
 10
0.0
 20
0.0
 30
0.0
  9
$UCSXDIR
 10
1.0
 20
0.0
 30
0.0
  9
$UCSYDIR
 10
0.0
 20
1.0
 30
0.0
  9
$PUCSNAME
  2

  9
$PUCSORG
 10
0.0
 20
0.0
 30
0.0
  9
$PUCSXDIR
 10
1.0
 20
0.0
 30
0.0
  9
$PUCSYDIR
 10
0.0
 20
1.0
 30
0.0
  9
$USERI1
 70
     0
  9
$USERI2
 70
     0
  9
$USERI3
 70
     0
  9
$USERI4
 70
     0
  9
$USERI5
 70
     0
  9
$USERR1
 40
0.0
  9
$USERR2
 40
0.0
  9
$USERR3
 40
0.0
  9
$USERR4
 40
0.0
  9
$USERR5
 40
0.0
  9
$WORLDVIEW
 70
     1
  9
$SHADEDGE
 70
     3
  9
$SHADEDIF
 70
    70
  9
$TILEMODE
 70
     1
  9
$MAXACTVP
 70
    64
  9
$PLIMCHECK
 70
     0
  9
$PEXTMIN
 10
1.0000000000000000E+20
 20
1.0000000000000000E+20
 30
1.0000000000000000E+20
  9
$PEXTMAX
 10
-1.0000000000000000E+20
 20
-1.0000000000000000E+20
 30
-1.0000000000000000E+20
  9
$PLIMMIN
 10
0.0
 20
0.0
  9
$PLIMMAX
 10
12.0
 20
9.0
  9
$UNITMODE
 70
     0
  9
$VISRETAIN
 70
     1
  9
$PLINEGEN
 70
     0
  9
$PSLTSCALE
 70
     1
  0
ENDSEC
  0
SECTION
  2
TABLES
  0
TABLE
  2
VPORT
 70
     1
  0
VPORT
  2
*ACTIVE
 70
     0
 10
0.0
 20
0.0
 11
1.0
 21
1.0
 12
-23.8927978356738606
 22
10.3697260454871092
 13
0.0
 23
0.0
 14
1.0
 24
1.0
 15
0.0
 25
0.0
 16
0.0
 26
0.0
 36
53.9206147545299501
 17
3024.819091796875
 27
173.1462860107421875
 37
0.0
 40
12.9209620345022795
 41
2.4470774091627172
 42
50.0
 43
0.0
 44
0.0
 50
0.0
 51
0.0
 71
     0
 72
   100
 73
     1
 74
     1
 75
     0
 76
     0
 77
     0
 78
     0
  0
ENDTAB
  0
TABLE
  2
LTYPE
 70
     2
  0
LTYPE
  2
CONTINUOUS
 70
     0
  3
Solid line
 72
    65
 73
     0
 40
0.0
  0
LTYPE
  2
PHANTOM2
 70
     0
  3
___ _ _ ___ _ _ ___ _ _ ___ _ _
 72
    65
 73
     6
 40
1.25
 49
0.625
 49
-0.125
 49
0.125
 49
-0.125
 49
0.125
 49
-0.125
  0
ENDTAB
  0
TABLE
  2
LAYER
 70
     2
  0
LAYER
  2
0
 70
     0
 62
   255
  6
CONTINUOUS
  0
LAYER
  2
DEFPOINTS
 70
     0
 62
     7
  6
CONTINUOUS
  0
ENDTAB
  0
TABLE
  2
STYLE
 70
     1
  0
STYLE
  2
STANDARD
 70
     0
 40
0.0
 41
0.8
 50
0.0
 71
     0
 42
0.2
  3
txt
  4

  0
ENDTAB
  0
TABLE
  2
VIEW
 70
     0
  0
ENDTAB
  0
TABLE
  2
UCS
 70
     0
  0
ENDTAB
  0
TABLE
  2
APPID
 70
     9
  0
APPID
  2
ACAD
 70
     0
  0
APPID
  2
ACAD_MLEADERVER
 70
     0
  0
APPID
  2
ACAD_EXEMPT_FROM_CAD_STANDARDS
 70
     0
  0
APPID
  2
ACAD_NAV_VCDISPLAY
 70
     0
  0
APPID
  2
ACAECLAYERSTANDARD
 70
     0
  0
APPID
  2
ACCMTRANSPARENCY
 70
     0
  0
APPID
  2
ACAD_DSTYLE_DIMJAG
 70
     0
  0
APPID
  2
ACAD_DSTYLE_DIMTALN
 70
     0
  0
APPID
  2
ACDBATTR
 70
     0
  0
ENDTAB
  0
TABLE
  2
DIMSTYLE
 70
     1
  0
DIMSTYLE
  2
STANDARD
 70
     0
  3

  4

  5

  6

  7

 40
1.0
 41
0.1875
 42
0.0625
 43
0.38
 44
0.125
 45
0.0
 46
0.0
 47
0.01
 48
0.01
140
0.15625
141
0.09
142
0.0
143
25.3999999999999986
144
1.0
145
0.0
146
1.0
147
0.09
 71
     1
 72
     0
 73
     1
 74
     1
 75
     0
 76
     0
 77
     0
 78
     4
170
     0
171
     2
172
     0
173
     0
174
     0
175
     0
176
     0
177
     0
178
     0
  0
ENDTAB
  0
ENDSEC
  0
SECTION
  2
BLOCKS
  0
BLOCK
  8
0
  2
$MODEL_SPACE
 70
     0
 10
0.0
 20
0.0
 30
0.0
  3
$MODEL_SPACE
  1

  0
ENDBLK
  5
21
  8
0
  0
BLOCK
 67
     1
  8
0
  2
$PAPER_SPACE
 70
     0
 10
0.0
 20
0.0
 30
0.0
  3
$PAPER_SPACE
  1

  0
ENDBLK
  5
1D
 67
     1
  8
0
  0
ENDSEC
  0
SECTION
  2
ENTITIES
  0
ATTDEF
  5
3930
  8
DEFPOINTS
 10
3000.920653057366053
 20
185.8694363521381945
 30
0.0
 40
0.001
  1
K-17916BR-RL
  3

  2
MODELNUMBER
 70
     0
1001
ACDBATTR
1070
     0
1070
     1
  0
ATTDEF
  5
3931
  8
DEFPOINTS
 10
3000.920653057366053
 20
185.8677696854715009
 30
0.0
 40
0.001
  1
DERRING
  3

  2
TRADENAME
 70
     0
1001
ACDBATTR
1070
     0
1070
     1
  0
ATTDEF
  5
3932
  8
DEFPOINTS
 10
3000.920653057366053
 20
185.8661030188048926
 30
0.0
 40
0.001
  1
BATHROOM SINK
  3

  2
PRODUCT
 70
     0
1001
ACDBATTR
1070
     0
1070
     1
  0
LINE
  5
70CC
  8
0
 10
3011.3211322953397939
 20
186.6100225929199894
 30
0.0
 11
2990.5201340328299011
 21
186.6100227604050872
 31
0.0
  0
LINE
  5
70CD
  8
0
 10
2990.7959032520961955
 20
185.8708977753173883
 30
0.0
 11
3011.0453630760730448
 21
185.8708977753173883
 31
0.0
  0
LINE
  5
70CE
  8
0
 10
3010.9004615128328624
 20
185.810897775317386
 30
0.0
 11
2990.9408048153359232
 21
185.810897775317386
 31
0.0
  0
LINE
  5
70CF
  8
0
 10
2999.4632296961572138
 20
181.7043168765428902
 30
0.0
 11
2999.5556673341498026
 21
180.6477498396174042
 31
0.0
  0
LINE
  5
70D0
  8
0
 10
3002.0365502701661171
 20
180.4195387573471976
 30
0.0
 11
2999.8047160580040327
 21
180.4195387753173918
 31
0.0
  0
ARC
  5
70D1
  8
0
 10
2990.7960010050092023
 20
185.990897836575698
 30
0.0
 40
0.120000101073339
 50
196.8419876763844059
 51
269.9533264562351746
  0
ARC
  5
70D2
  8
0
 10
2990.8067101667497809
 20
185.7508977753174122
 30
0.0
 40
0.12
 50
41.8103148957970703
 51
90.0
  0
ARC
  5
70D3
  8
0
 10
2990.9408742454497769
 20
185.8708977753173883
 30
0.0
 40
0.06
 50
221.8103148982972925
 51
270.0
  0
ARC
  5
70D4
  8
0
 10
2991.2521848931892237
 20
185.6794714296555924
 30
0.0
 40
0.1320603119920762
 50
56.2602482056824726
 51
84.3835944561815836
  0
ARC
  5
70D5
  8
0
 10
2999.8047160087498924
 20
180.6695387753173918
 30
0.0
 40
0.2500000000000091
 50
185.0000000000021885
 51
270.0000112881393193
  0
ARC
  5
70D6
  8
0
 10
2975.2592614973209493
 20
163.9113838334749005
 30
0.0
 40
27.1434676100735288
 50
51.1248939190378522
 51
53.7079042316977606
  0
ARC
  5
70D7
  8
0
 10
3004.7011806444697868
 20
200.4141278052080111
 30
0.0
 40
19.7529830656636705
 50
231.0930662121839134
 51
238.2837064067130939
  0
ARC
  5
70D8
  8
0
 10
3000.6184269972809489
 20
194.0065366922326007
 30
0.0
 40
12.1563810721821302
 50
238.7761704589051988
 51
249.0640658809714125
  0
ARC
  5
70D9
  8
0
 10
3092.2669372431200827
 20
412.1536637841700781
 30
0.0
 40
248.767367615646009
 50
247.3021358973572887
 51
247.5868944858924863
  0
ARC
  5
70DA
  8
0
 10
3000.1205735161388475
 20
189.0247478323165922
 30
0.0
 40
7.3609619833244331
 50
248.4471618050758934
 51
257.7025254597132857
  0
ARC
  5
70DB
  8
0
 10
2999.8829250255212173
 20
187.9739207454333041
 30
0.0
 40
6.283635638887338
 50
257.7789619007173201
 51
266.4864379342906773
  0
ARC
  5
70DC
  8
0
 10
2999.513295756043135
 20
181.9334825773919988
 30
0.0
 40
0.2319022882110251
 50
266.1769695421019719
 51
276.5782774875203813
  0
ARC
  5
70DD
  8
0
 10
2999.4925407961500241
 20
182.0959272317791999
 30
0.0
 40
0.395660248293386
 50
276.8691408530572744
 51
286.4144442568814952
  0
ARC
  5
70DE
  8
0
 10
2999.16045946571694
 20
183.1489294203616112
 30
0.0
 40
1.49973244974832
 50
287.2162115678804071
 51
294.834959008810074
  0
ARC
  5
70DF
  8
0
 10
3002.4374735320679974
 20
175.9571135095957004
 30
0.0
 40
6.4035293361132943
 50
111.2676653465019996
 51
114.4176006486457027
  0
ARC
  5
70E0
  8
0
 10
3000.5884210078529577
 20
180.6799863936786892
 30
0.0
 40
1.3316420334894781
 50
100.3422917605455069
 51
110.8365816951454974
  0
ARC
  5
70E1
  8
0
 10
3000.4625525775741153
 20
181.3200419202188129
 30
0.0
 40
0.6794471578079428
 50
90.5960153768908043
 51
99.5904713845911971
  0
ARC
  5
70E2
  8
0
 10
3001.1201707660688953
 20
87.4410369538579744
 30
0.0
 40
94.5607514953059649
 50
89.8390622846143003
 51
90.4027465243752744
  0
ARC
  5
70E3
  8
0
 10
2988.8725891157250771
 20
185.4211746878063991
 30
0.0
 40
1.886017573151954
 50
16.4777336587135288
 51
32.7282793596517223
  0
ARC
  5
70E4
  8
0
 10
2990.68988178853715
 20
186.5828954639405026
 30
0.0
 40
0.2709105441094973
 50
197.7322131441952138
 51
211.6202424272069891
  0
ARC
  5
70E5
  8
0
 10
2990.5379294590170502
 20
186.5366646220334133
 30
0.0
 40
0.1121194337695536
 50
171.9262895282392947
 51
198.8797846504706115
  0
ARC
  5
70E6
  8
0
 10
2990.4879732587210128
 20
186.5396118374854098
 30
0.0
 40
0.0623792288795436
 50
120.2696990183991943
 51
168.1593560328938111
  0
ARC
  5
70E7
  8
0
 10
2990.5252363649719882
 20
186.4598074495847868
 30
0.0
 40
0.1503019407662891
 50
91.9454058601481847
 51
117.2016962161224001
  0
LINE
  5
70E8
  8
0
 10
3002.3780365541938409
 20
181.7043168530734931
 30
0.0
 11
3002.2855988991868799
 21
180.6477498176365941
 31
0.0
  0
ARC
  5
70E9
  8
0
 10
3011.0452654013752181
 20
185.9908976123143987
 30
0.0
 40
0.1200000000655051
 50
270.0944565533786772
 51
343.1580273411994995
  0
ARC
  5
70EA
  8
0
 10
3011.0346770543628736
 20
185.7507368918028021
 30
0.0
 40
0.1201972711976041
 50
91.4098681011312237
 51
138.1710028731453122
  0
ARC
  5
70EB
  8
0
 10
3010.9003924907879082
 20
185.8708970411925065
 30
0.0
 40
0.0599993055759346
 50
270.0659119751476283
 51
318.1898257062526909
  0
ARC
  5
70EC
  8
0
 10
3010.5890814211761608
 20
185.6794712739591091
 30
0.0
 40
0.1320603119920762
 50
95.6157152786158377
 51
123.7397508716423005
  0
ARC
  5
70ED
  8
0
 10
3002.0365502249378551
 20
180.6695387573471976
 30
0.0
 40
0.2500000000000076
 50
270.0000103654758732
 51
354.9999990773334844
  0
ARC
  5
70EE
  8
0
 10
3026.582004466500166
 20
163.9113834202352109
 30
0.0
 40
27.1434676100735288
 50
126.2920948456458063
 51
128.8751051582929961
  0
ARC
  5
70EF
  8
0
 10
2997.1400859071759442
 20
200.4141278660881937
 30
0.0
 40
19.7529830656636705
 50
301.7162926706145072
 51
308.9069328651398223
  0
ARC
  5
70F0
  8
0
 10
3001.2228394511807892
 20
194.0065366873660082
 30
0.0
 40
12.1563810721821302
 50
290.9359331963681257
 51
301.2238286184197023
  0
ARC
  5
70F1
  8
0
 10
2909.574332718288133
 20
412.1536652551712905
 30
0.0
 40
248.767367615646009
 50
292.4131045914422202
 51
292.6978631799896107
  0
ARC
  5
70F2
  8
0
 10
3001.7206928520981819
 20
189.0247478194328039
 30
0.0
 40
7.3609619833244331
 50
282.2974736176097963
 51
291.5528372722591826
  0
ARC
  5
70F3
  8
0
 10
3001.9583413257928441
 20
187.9739207287223905
 30
0.0
 40
6.283635638887338
 50
273.5135611430571885
 51
282.2210371766062735
  0
ARC
  5
70F4
  8
0
 10
3002.3279704979991038
 20
181.9334825547288972
 30
0.0
 40
0.2319022882110251
 50
263.4217215898124778
 51
273.8230295352399253
  0
ARC
  5
70F5
  8
0
 10
3002.3487254605079215
 20
182.0959272087818022
 30
0.0
 40
0.395660248293386
 50
253.5855548204474985
 51
263.1308582242745047
  0
ARC
  5
70F6
  8
0
 10
3002.6808068078980796
 20
183.1489293920164982
 30
0.0
 40
1.49973244974832
 50
245.1650400685057036
 51
252.7837875094396907
  0
ARC
  5
70F7
  8
0
 10
2999.4037926257328763
 20
175.9571135340221986
 30
0.0
 40
6.4035293361132943
 50
65.5823984286817137
 51
68.7323337308416029
  0
ARC
  5
70F8
  8
0
 10
3001.2528452260030463
 20
180.6799863883290129
 30
0.0
 40
1.3316420334894781
 50
69.1634173821907723
 51
79.6577073167821226
  0
ARC
  5
70F9
  8
0
 10
3001.3022974909249569
 20
180.7269584966593072
 30
0.0
 40
1.2771883193806159
 50
81.4621292235450341
 51
86.2521647540459213
  0
ARC
  5
70FA
  8
0
 10
3012.9686771944811881
 20
185.421174493790005
 30
0.0
 40
1.886017573151954
 50
147.2717197176781099
 51
163.5222654186154045
  0
ARC
  5
70FB
  8
0
 10
3011.1513845403769665
 20
186.5828952991888912
 30
0.0
 40
0.2709105441094973
 50
328.3797566501285132
 51
342.2677859331420223
  0
ARC
  5
70FC
  8
0
 10
3011.30333686915219
 20
186.5366644548348916
 30
0.0
 40
0.1121194337695536
 50
341.1202144268610255
 51
8.0737095490960602
  0
ARC
  5
70FD
  8
0
 10
3011.3532930694950664
 20
186.5396116694824116
 30
0.0
 40
0.0623792288795436
 50
11.8406430444409096
 51
59.7303000589372317
  0
ARC
  5
70FE
  8
0
 10
3011.3160299622568346
 20
186.4598072829610089
 30
0.0
 40
0.1503019399373869
 50
62.7983028262272498
 51
88.0545937704380748
  0
ENDSEC
  0
EOF
