  0
SECTION
  2
HEADER
  9
$ACADVER
  1
AC1009
  9
$INSBASE
 10
382.0121677947673788
 20
68.3447393265326468
 30
0.0
  9
$EXTMIN
 10
372.4080445349961224
 20
61.1511053450070108
 30
-0.0015258207003583
  9
$EXTMAX
 10
391.6191196089840787
 20
68.346825204434495
 30
0.0000000349246037
  9
$LIMMIN
 10
0.0
 20
0.0
  9
$LIMMAX
 10
11.6929133858000007
 20
8.2677165353999982
  9
$ORTHOMODE
 70
     0
  9
$REGENMODE
 70
     1
  9
$FILLMODE
 70
     1
  9
$QTEXTMODE
 70
     0
  9
$MIRRTEXT
 70
     0
  9
$DRAGMODE
 70
     2
  9
$LTSCALE
 40
0.6431102362
  9
$OSMODE
 70
   575
  9
$ATTMODE
 70
     1
  9
$TEXTSIZE
 40
0.2
  9
$TRACEWID
 40
0.05
  9
$TEXTSTYLE
  7
STANDARD
  9
$CLAYER
  8
0
  9
$CELTYPE
  6
BYLAYER
  9
$CECOLOR
 62
   256
  9
$DIMSCALE
 40
1.0
  9
$DIMASZ
 40
0.1875
  9
$DIMEXO
 40
0.0625
  9
$DIMDLI
 40
0.4443307087
  9
$DIMRND
 40
0.0
  9
$DIMDLE
 40
0.0
  9
$DIMEXE
 40
0.125
  9
$DIMTP
 40
0.01
  9
$DIMTM
 40
0.01
  9
$DIMTXT
 40
1.0
  9
$DIMCEN
 40
0.1052362205
  9
$DIMTSZ
 40
0.0
  9
$DIMTOL
 70
     1
  9
$DIMLIM
 70
     0
  9
$DIMTIH
 70
     0
  9
$DIMTOH
 70
     1
  9
$DIMSE1
 70
     0
  9
$DIMSE2
 70
     0
  9
$DIMTAD
 70
     0
  9
$DIMZIN
 70
     0
  9
$DIMBLK
  1

  9
$DIMASO
 70
     1
  9
$DIMSHO
 70
     1
  9
$DIMPOST
  1
\X
  9
$DIMAPOST
  1

  9
$DIMALT
 70
     1
  9
$DIMALTD
 70
     2
  9
$DIMALTF
 40
25.3999999999999986
  9
$DIMLFAC
 40
1.0
  9
$DIMTOFL
 70
     0
  9
$DIMTVP
 40
0.0
  9
$DIMTIX
 70
     0
  9
$DIMSOXD
 70
     0
  9
$DIMSAH
 70
     0
  9
$DIMBLK1
  1

  9
$DIMBLK2
  1

  9
$DIMSTYLE
  2
STANDARD
  9
$DIMCLRD
 70
     0
  9
$DIMCLRE
 70
     0
  9
$DIMCLRT
 70
     0
  9
$DIMTFAC
 40
1.0
  9
$DIMGAP
 40
0.09
  9
$LUNITS
 70
     2
  9
$LUPREC
 70
     4
  9
$SKETCHINC
 40
0.1
  9
$FILLETRAD
 40
0.0
  9
$AUNITS
 70
     0
  9
$AUPREC
 70
     0
  9
$MENU
  1
.
  9
$ELEVATION
 40
0.0
  9
$PELEVATION
 40
0.0
  9
$THICKNESS
 40
0.0
  9
$LIMCHECK
 70
     0
  9
$BLIPMODE
 70
     0
  9
$CHAMFERA
 40
0.0
  9
$CHAMFERB
 40
0.0
  9
$SKPOLY
 70
     0
  9
$TDCREATE
 40
2458172.5207638889551163
  9
$TDUPDATE
 40
2459505.0615509259514511
  9
$TDINDWG
 40
0.289210162
  9
$TDUSRTIMER
 40
0.289210162
  9
$USRTIMER
 70
     1
  9
$ANGBASE
 50
0.0
  9
$ANGDIR
 70
     0
  9
$PDMODE
 70
     0
  9
$PDSIZE
 40
0.3125
  9
$PLINEWID
 40
0.0
  9
$COORDS
 70
     1
  9
$SPLFRAME
 70
     0
  9
$SPLINETYPE
 70
     6
  9
$SPLINESEGS
 70
     8
  9
$ATTDIA
 70
     1
  9
$ATTREQ
 70
     1
  9
$HANDLING
 70
     1
  9
$HANDSEED
  5
10702
  9
$SURFTAB1
 70
     6
  9
$SURFTAB2
 70
     6
  9
$SURFTYPE
 70
     6
  9
$SURFU
 70
     6
  9
$SURFV
 70
     6
  9
$UCSNAME
  2

  9
$UCSORG
 10
0.0
 20
0.0
 30
0.0
  9
$UCSXDIR
 10
1.0
 20
0.0
 30
0.0
  9
$UCSYDIR
 10
0.0
 20
1.0
 30
0.0
  9
$PUCSNAME
  2

  9
$PUCSORG
 10
0.0
 20
0.0
 30
0.0
  9
$PUCSXDIR
 10
1.0
 20
0.0
 30
0.0
  9
$PUCSYDIR
 10
0.0
 20
1.0
 30
0.0
  9
$USERI1
 70
     0
  9
$USERI2
 70
     0
  9
$USERI3
 70
     0
  9
$USERI4
 70
     0
  9
$USERI5
 70
     0
  9
$USERR1
 40
0.0
  9
$USERR2
 40
0.0
  9
$USERR3
 40
0.0
  9
$USERR4
 40
0.0
  9
$USERR5
 40
0.0
  9
$WORLDVIEW
 70
     1
  9
$SHADEDGE
 70
     3
  9
$SHADEDIF
 70
    70
  9
$TILEMODE
 70
     1
  9
$MAXACTVP
 70
    64
  9
$PLIMCHECK
 70
     0
  9
$PEXTMIN
 10
1.0000000000000000E+20
 20
1.0000000000000000E+20
 30
1.0000000000000000E+20
  9
$PEXTMAX
 10
-1.0000000000000000E+20
 20
-1.0000000000000000E+20
 30
-1.0000000000000000E+20
  9
$PLIMMIN
 10
0.0
 20
0.0
  9
$PLIMMAX
 10
12.0
 20
9.0
  9
$UNITMODE
 70
     0
  9
$VISRETAIN
 70
     1
  9
$PLINEGEN
 70
     0
  9
$PSLTSCALE
 70
     1
  0
ENDSEC
  0
SECTION
  2
TABLES
  0
TABLE
  2
VPORT
 70
     1
  0
VPORT
  2
*ACTIVE
 70
     0
 10
0.0
 20
0.0
 11
1.0
 21
1.0
 12
-47.6157072572476565
 22
-4.9535763397805681
 13
0.0
 23
0.0
 14
1.0
 24
1.0
 15
0.0
 25
0.0
 16
0.0
 26
0.0
 36
14.6338572656650907
 17
429.6292891080536833
 27
69.7025415122186871
 37
0.0
 40
12.8909430439761596
 41
2.4983870967741928
 42
50.0
 43
0.0
 44
0.0
 50
0.0
 51
0.0
 71
     0
 72
   100
 73
     1
 74
     1
 75
     0
 76
     0
 77
     0
 78
     0
  0
ENDTAB
  0
TABLE
  2
LTYPE
 70
     2
  0
LTYPE
  2
CONTINUOUS
 70
     0
  3
Solid line
 72
    65
 73
     0
 40
0.0
  0
LTYPE
  2
PHANTOM2
 70
     0
  3
___ _ _ ___ _ _ ___ _ _ ___ _ _
 72
    65
 73
     6
 40
1.25
 49
0.625
 49
-0.125
 49
0.125
 49
-0.125
 49
0.125
 49
-0.125
  0
ENDTAB
  0
TABLE
  2
LAYER
 70
     2
  0
LAYER
  2
0
 70
     0
 62
   255
  6
CONTINUOUS
  0
LAYER
  2
DEFPOINTS
 70
     0
 62
     7
  6
CONTINUOUS
  0
ENDTAB
  0
TABLE
  2
STYLE
 70
     1
  0
STYLE
  2
STANDARD
 70
     0
 40
0.0
 41
0.8
 50
0.0
 71
     0
 42
0.2
  3
txt
  4

  0
ENDTAB
  0
TABLE
  2
VIEW
 70
     0
  0
ENDTAB
  0
TABLE
  2
UCS
 70
     0
  0
ENDTAB
  0
TABLE
  2
APPID
 70
    10
  0
APPID
  2
ACAD
 70
     0
  0
APPID
  2
ACAD_MLEADERVER
 70
     0
  0
APPID
  2
ACAD_EXEMPT_FROM_CAD_STANDARDS
 70
     0
  0
APPID
  2
ACAD_DSTYLE_DIMJAG
 70
     0
  0
APPID
  2
ACAD_DSTYLE_DIMTALN
 70
     0
  0
APPID
  2
ACAD_NAV_VCDISPLAY
 70
     0
  0
APPID
  2
ACAECLAYERSTANDARD
 70
     0
  0
APPID
  2
ACCMTRANSPARENCY
 70
     0
  0
APPID
  2
DCO15
 70
     0
  0
APPID
  2
ACDBATTR
 70
     0
  0
ENDTAB
  0
TABLE
  2
DIMSTYLE
 70
     1
  0
DIMSTYLE
  2
STANDARD
 70
     0
  3

  4

  5

  6

  7

 40
1.0
 41
0.1875
 42
0.0625
 43
0.38
 44
0.125
 45
0.0
 46
0.0
 47
0.01
 48
0.01
140
0.15625
141
0.09
142
0.0
143
25.3999999999999986
144
1.0
145
0.0
146
1.0
147
0.09
 71
     1
 72
     0
 73
     1
 74
     1
 75
     0
 76
     0
 77
     0
 78
     4
170
     0
171
     2
172
     0
173
     0
174
     0
175
     0
176
     0
177
     0
178
     0
  0
ENDTAB
  0
ENDSEC
  0
SECTION
  2
BLOCKS
  0
BLOCK
  8
0
  2
$MODEL_SPACE
 70
     0
 10
0.0
 20
0.0
 30
0.0
  3
$MODEL_SPACE
  1

  0
ENDBLK
  5
21
  8
0
  0
BLOCK
 67
     1
  8
0
  2
$PAPER_SPACE
 70
     0
 10
0.0
 20
0.0
 30
0.0
  3
$PAPER_SPACE
  1

  0
ENDBLK
  5
1D
 67
     1
  8
0
  0
ENDSEC
  0
SECTION
  2
ENTITIES
  0
ATTDEF
  5
D55F
  8
DEFPOINTS
 10
382.0121972918514075
 20
68.3436254067972442
 30
0.0
 40
0.001
  1
K-17889BR-RL
  3

  2
MODELNUMBER
 70
     0
1001
ACDBATTR
1070
     0
1070
     1
  0
ATTDEF
  5
D560
  8
DEFPOINTS
 10
382.0121972918514075
 20
68.341958740130579
 30
0.0
 40
0.001
  1
DERRING
  3

  2
TRADENAME
 70
     0
1001
ACDBATTR
1070
     0
1070
     1
  0
ATTDEF
  5
D561
  8
DEFPOINTS
 10
382.0121972918514075
 20
68.3402920734639139
 30
0.0
 40
0.001
  1
BATHROOM SINK 
  3

  2
PRODUCT
 70
     0
1001
ACDBATTR
1070
     0
1070
     1
  0
LINE
  5
DD7F
  8
0
 10
380.6573953196672733
 20
61.2640545119826498
 30
0.0
 11
380.5592599061673127
 21
62.3617973506826502
 31
0.0
  0
LINE
  5
DD80
  8
0
 10
380.7769186713674117
 20
61.1547395953826509
 30
0.0
 11
383.2473617148672815
 21
61.1547395953826509
 31
0.0
  0
LINE
  5
DD81
  8
0
 10
383.3669402697673263
 20
61.2640545119826498
 30
0.0
 11
383.4650756832672869
 21
62.3617973506826502
 31
0.0
  0
LINE
  5
DD82
  8
0
 10
372.5371677947672993
 20
67.9047395953826509
 30
0.0
 11
391.4871677947672879
 21
67.9047395953826509
 31
0.0
  0
LINE
  5
DD83
  8
0
 10
391.297573861267324
 20
68.344739329382648
 30
0.0
 11
372.7267574917672732
 21
68.3447393236826457
 31
0.0
  0
ARC
  5
DD84
  8
0
 10
391.2971632810342157
 20
68.0347350875098016
 30
0.0
 40
0.3100045137659904
 50
0.0
 51
89.9241155520434319
  0
ARC
  5
DD85
  8
0
 10
372.7271722868554775
 20
68.0347351090661903
 30
0.0
 40
0.3100044921205756
 50
90.0766634536190338
 51
180.0
  0
ARC
  5
DD86
  8
0
 10
373.0335914340283239
 20
67.7133847637128241
 30
0.0
 40
0.1925397300824305
 50
15.2544170620585593
 51
83.6402362372093506
  0
ARC
  5
DD87
  8
0
 10
390.9903930728091836
 20
67.7136759713631733
 30
0.0
 40
0.1921244913483915
 50
96.0238873877786858
 51
164.8018204136317024
  0
ARC
  5
DD88
  8
0
 10
383.6543230200232983
 20
62.3448771596971767
 30
0.0
 40
0.1900022298085224
 50
92.451714825153644
 51
174.8908942630829131
  0
ARC
  5
DD89
  8
0
 10
380.370013667301123
 20
62.3448776880546092
 30
0.0
 40
0.1900010892296721
 50
5.1089765241265841
 51
87.5486091303532845
  0
ARC
  5
DD8A
  8
0
 10
383.2474169057874178
 20
61.2747396069041699
 30
0.0
 40
0.1200000242133442
 50
269.9736482811496785
 51
354.8914782232665743
  0
ARC
  5
DD8B
  8
0
 10
380.7769186604672882
 20
61.2747395953826484
 30
0.0
 40
0.12
 50
185.1085172871997031
 51
270.0000052306011753
  0
ARC
  5
DD8C
  8
0
 10
372.5371722464381037
 20
68.0247440470533462
 30
0.0
 40
0.1200044517532606
 50
180.0
 51
269.9978745626590921
  0
ARC
  5
DD8D
  8
0
 10
391.487163304440287
 20
68.0247440857096706
 30
0.0
 40
0.1200044904110327
 50
270.0021438929982196
 51
0.0
  0
ARC
  5
DD8E
  8
0
 10
379.9217607053254255
 20
69.5647558935034027
 30
0.0
 40
6.9400944240379001
 50
195.0383302045694904
 51
213.1459534286825033
  0
ARC
  5
DD8F
  8
0
 10
379.9217784868558283
 20
69.5648779733426039
 30
0.0
 40
6.9401760628235492
 50
213.1467170166683047
 51
239.0239010236279
  0
ARC
  5
DD90
  8
0
 10
380.0546336708276272
 20
69.8485075588486239
 30
0.0
 40
7.2518038696900691
 50
239.2772912494997115
 51
263.0035590274176798
  0
ARC
  5
DD91
  8
0
 10
380.8657097398719884
 20
73.9432371148384391
 30
0.0
 40
11.4189461499032703
 50
261.4666472871900851
 51
267.5528246572534954
  0
ARC
  5
DD92
  8
0
 10
382.012173171836821
 20
31.375030906028929
 30
0.0
 40
31.2024894317541808
 50
86.9981429850393653
 51
93.0018768341209636
  0
ARC
  5
DD93
  8
0
 10
383.1577425911324895
 20
73.9537762750419176
 30
0.0
 40
11.4295128545798796
 50
272.4493431950950821
 51
282.1741148873953762
  0
ARC
  5
DD94
  8
0
 10
384.1032596654289932
 20
69.5639720268619612
 30
0.0
 40
6.9390362367012379
 50
282.1863547934217991
 51
301.8223029949458009
  0
ARC
  5
DD95
  8
0
 10
384.103032175615283
 20
69.5643559565941985
 30
0.0
 40
6.9394824093307612
 50
301.8222274831765048
 51
331.7663312601119969
  0
ARC
  5
DD96
  8
0
 10
384.1051982213739961
 20
69.5638085641607944
 30
0.0
 40
6.9373151345879673
 50
331.761851363142398
 51
344.9636042430784073
  0
LINE
  5
DD97
  8
0
 10
391.6071677947672924
 20
68.0347350875098016
 30
0.0
 11
391.6071677947672924
 21
68.0247440857096706
 31
0.0
  0
LINE
  5
DD98
  8
0
 10
372.4171677947674084
 20
68.0347351090661903
 30
0.0
 11
372.4171677947674084
 21
68.0247440470533462
 31
0.0
  0
ENDSEC
  0
EOF
