  0
SECTION
  2
HEADER
  9
$ACADVER
  1
AC1009
  9
$INSBASE
 10
4160.3653778543521184
 20
141.7787505159147088
 30
0.0
  9
$EXTMIN
 10
4154.5803756662517117
 20
141.4130867806460117
 30
-0.0015258207003583
  9
$EXTMAX
 10
4160.9171467052583466
 20
151.2754139967611877
 30
0.0000000349246037
  9
$LIMMIN
 10
0.0
 20
0.0
  9
$LIMMAX
 10
11.6929133858000007
 20
8.2677165353999982
  9
$ORTHOMODE
 70
     0
  9
$REGENMODE
 70
     1
  9
$FILLMODE
 70
     1
  9
$QTEXTMODE
 70
     0
  9
$MIRRTEXT
 70
     0
  9
$DRAGMODE
 70
     2
  9
$LTSCALE
 40
0.6431102362
  9
$OSMODE
 70
     7
  9
$ATTMODE
 70
     1
  9
$TEXTSIZE
 40
0.2
  9
$TRACEWID
 40
0.05
  9
$TEXTSTYLE
  7
STANDARD
  9
$CLAYER
  8
0
  9
$CELTYPE
  6
BYLAYER
  9
$CECOLOR
 62
   256
  9
$DIMSCALE
 40
1.0
  9
$DIMASZ
 40
0.1875
  9
$DIMEXO
 40
0.0625
  9
$DIMDLI
 40
0.4443307087
  9
$DIMRND
 40
0.0
  9
$DIMDLE
 40
0.0
  9
$DIMEXE
 40
0.125
  9
$DIMTP
 40
0.01
  9
$DIMTM
 40
0.01
  9
$DIMTXT
 40
2.0
  9
$DIMCEN
 40
0.1052362205
  9
$DIMTSZ
 40
0.0
  9
$DIMTOL
 70
     1
  9
$DIMLIM
 70
     0
  9
$DIMTIH
 70
     1
  9
$DIMTOH
 70
     1
  9
$DIMSE1
 70
     0
  9
$DIMSE2
 70
     0
  9
$DIMTAD
 70
     0
  9
$DIMZIN
 70
     0
  9
$DIMBLK
  1

  9
$DIMASO
 70
     1
  9
$DIMSHO
 70
     1
  9
$DIMPOST
  1
\X
  9
$DIMAPOST
  1

  9
$DIMALT
 70
     1
  9
$DIMALTD
 70
     2
  9
$DIMALTF
 40
25.3999999999999986
  9
$DIMLFAC
 40
1.0
  9
$DIMTOFL
 70
     0
  9
$DIMTVP
 40
0.0
  9
$DIMTIX
 70
     0
  9
$DIMSOXD
 70
     0
  9
$DIMSAH
 70
     0
  9
$DIMBLK1
  1

  9
$DIMBLK2
  1

  9
$DIMSTYLE
  2
STANDARD
  9
$DIMCLRD
 70
     0
  9
$DIMCLRE
 70
     0
  9
$DIMCLRT
 70
     0
  9
$DIMTFAC
 40
1.0
  9
$DIMGAP
 40
0.09
  9
$LUNITS
 70
     2
  9
$LUPREC
 70
     4
  9
$SKETCHINC
 40
0.1
  9
$FILLETRAD
 40
0.0
  9
$AUNITS
 70
     0
  9
$AUPREC
 70
     0
  9
$MENU
  1
.
  9
$ELEVATION
 40
0.0
  9
$PELEVATION
 40
0.0
  9
$THICKNESS
 40
0.0
  9
$LIMCHECK
 70
     0
  9
$BLIPMODE
 70
     0
  9
$CHAMFERA
 40
0.0
  9
$CHAMFERB
 40
0.0
  9
$SKPOLY
 70
     0
  9
$TDCREATE
 40
2458060.468368056230247
  9
$TDUPDATE
 40
2459590.7203356479294598
  9
$TDINDWG
 40
0.3428542824
  9
$TDUSRTIMER
 40
0.3428542824
  9
$USRTIMER
 70
     1
  9
$ANGBASE
 50
0.0
  9
$ANGDIR
 70
     0
  9
$PDMODE
 70
     0
  9
$PDSIZE
 40
0.3125
  9
$PLINEWID
 40
0.0
  9
$COORDS
 70
     1
  9
$SPLFRAME
 70
     0
  9
$SPLINETYPE
 70
     6
  9
$SPLINESEGS
 70
     8
  9
$ATTDIA
 70
     1
  9
$ATTREQ
 70
     1
  9
$HANDLING
 70
     1
  9
$HANDSEED
  5
93AF
  9
$SURFTAB1
 70
     6
  9
$SURFTAB2
 70
     6
  9
$SURFTYPE
 70
     6
  9
$SURFU
 70
     6
  9
$SURFV
 70
     6
  9
$UCSNAME
  2

  9
$UCSORG
 10
0.0
 20
0.0
 30
0.0
  9
$UCSXDIR
 10
1.0
 20
0.0
 30
0.0
  9
$UCSYDIR
 10
0.0
 20
1.0
 30
0.0
  9
$PUCSNAME
  2

  9
$PUCSORG
 10
0.0
 20
0.0
 30
0.0
  9
$PUCSXDIR
 10
1.0
 20
0.0
 30
0.0
  9
$PUCSYDIR
 10
0.0
 20
1.0
 30
0.0
  9
$USERI1
 70
     0
  9
$USERI2
 70
     0
  9
$USERI3
 70
     0
  9
$USERI4
 70
     0
  9
$USERI5
 70
     0
  9
$USERR1
 40
0.0
  9
$USERR2
 40
0.0
  9
$USERR3
 40
0.0
  9
$USERR4
 40
0.0
  9
$USERR5
 40
0.0
  9
$WORLDVIEW
 70
     1
  9
$SHADEDGE
 70
     3
  9
$SHADEDIF
 70
    70
  9
$TILEMODE
 70
     1
  9
$MAXACTVP
 70
    64
  9
$PLIMCHECK
 70
     0
  9
$PEXTMIN
 10
1.0000000000000000E+20
 20
1.0000000000000000E+20
 30
1.0000000000000000E+20
  9
$PEXTMAX
 10
-1.0000000000000000E+20
 20
-1.0000000000000000E+20
 30
-1.0000000000000000E+20
  9
$PLIMMIN
 10
0.0
 20
0.0
  9
$PLIMMAX
 10
12.0
 20
9.0
  9
$UNITMODE
 70
     0
  9
$VISRETAIN
 70
     1
  9
$PLINEGEN
 70
     0
  9
$PSLTSCALE
 70
     1
  0
ENDSEC
  0
SECTION
  2
TABLES
  0
TABLE
  2
VPORT
 70
     1
  0
VPORT
  2
*ACTIVE
 70
     0
 10
0.0
 20
0.0
 11
1.0
 21
1.0
 12
82.1382875529425291
 22
20.3785674053052084
 13
0.0
 23
0.0
 14
1.0
 24
1.0
 15
0.0
 25
0.0
 16
0.0
 26
0.0
 36
53.3788880271138382
 17
4075.6104736328129547
 27
125.9656829833983949
 37
0.0
 40
9.9329405374716373
 41
2.2831541218637992
 42
50.0
 43
0.0
 44
0.0
 50
0.0
 51
0.0
 71
     0
 72
   100
 73
     1
 74
     1
 75
     0
 76
     0
 77
     0
 78
     0
  0
ENDTAB
  0
TABLE
  2
LTYPE
 70
     2
  0
LTYPE
  2
CONTINUOUS
 70
     0
  3
Solid line
 72
    65
 73
     0
 40
0.0
  0
LTYPE
  2
PHANTOM2
 70
     0
  3
___ _ _ ___ _ _ ___ _ _ ___ _ _
 72
    65
 73
     6
 40
1.25
 49
0.625
 49
-0.125
 49
0.125
 49
-0.125
 49
0.125
 49
-0.125
  0
ENDTAB
  0
TABLE
  2
LAYER
 70
     2
  0
LAYER
  2
0
 70
     0
 62
   255
  6
CONTINUOUS
  0
LAYER
  2
DEFPOINTS
 70
     0
 62
     7
  6
CONTINUOUS
  0
ENDTAB
  0
TABLE
  2
STYLE
 70
     1
  0
STYLE
  2
STANDARD
 70
     0
 40
0.0
 41
0.8
 50
0.0
 71
     0
 42
0.2
  3
txt
  4

  0
ENDTAB
  0
TABLE
  2
VIEW
 70
     0
  0
ENDTAB
  0
TABLE
  2
UCS
 70
     0
  0
ENDTAB
  0
TABLE
  2
APPID
 70
    10
  0
APPID
  2
ACAD
 70
     0
  0
APPID
  2
ACAD_MLEADERVER
 70
     0
  0
APPID
  2
ACAD_EXEMPT_FROM_CAD_STANDARDS
 70
     0
  0
APPID
  2
ACAD_NAV_VCDISPLAY
 70
     0
  0
APPID
  2
ACAECLAYERSTANDARD
 70
     0
  0
APPID
  2
ACCMTRANSPARENCY
 70
     0
  0
APPID
  2
ACAD_DSTYLE_DIMJAG
 70
     0
  0
APPID
  2
ACAD_DSTYLE_DIMTALN
 70
     0
  0
APPID
  2
ACDBATTR
 70
     0
  0
APPID
  2
ACADANNOTATIVE
 70
     0
  0
ENDTAB
  0
TABLE
  2
DIMSTYLE
 70
     2
  0
DIMSTYLE
  2
STANDARD
 70
     0
  3

  4

  5

  6

  7

 40
1.0
 41
0.1875
 42
0.0625
 43
0.38
 44
0.125
 45
0.0
 46
0.0
 47
0.01
 48
0.01
140
0.15625
141
0.09
142
0.0
143
25.3999999999999986
144
1.0
145
0.0
146
1.0
147
0.09
 71
     1
 72
     0
 73
     1
 74
     1
 75
     0
 76
     0
 77
     0
 78
     4
170
     0
171
     2
172
     0
173
     0
174
     0
175
     0
176
     0
177
     0
178
     0
  0
ENDTAB
  0
ENDSEC
  0
SECTION
  2
BLOCKS
  0
BLOCK
  8
0
  2
$MODEL_SPACE
 70
     0
 10
0.0
 20
0.0
 30
0.0
  3
$MODEL_SPACE
  1

  0
ENDBLK
  5
21
  8
0
  0
BLOCK
 67
     1
  8
0
  2
$PAPER_SPACE
 70
     0
 10
0.0
 20
0.0
 30
0.0
  3
$PAPER_SPACE
  1

  0
ENDBLK
  5
1D
 67
     1
  8
0
  0
ENDSEC
  0
SECTION
  2
ENTITIES
  0
ATTDEF
  5
3930
  8
DEFPOINTS
 10
4160.3653941702696102
 20
141.7821003345648876
 30
0.0
 40
0.001
  1
K-17493BR
  3

  2
MODELNUMBER
 70
     0
1001
ACDBATTR
1070
     0
1070
     1
  0
ATTDEF
  5
3931
  8
DEFPOINTS
 10
4160.3653941702696102
 20
141.780433667898194
 30
0.0
 40
0.001
  1
FLIPSIDE
  3

  2
TRADENAME
 70
     0
1001
ACDBATTR
1070
     0
1070
     1
  0
ATTDEF
  5
3932
  8
DEFPOINTS
 10
4160.3653941702696102
 20
141.7787670012316141
 30
0.0
 40
0.001
  1
HANDSHOWER
  3

  2
PRODUCT
 70
     0
1001
ACDBATTR
1070
     0
1070
     1
  0
ARC
  5
9075
  8
0
 10
4155.539118647037867
 20
150.3556228613171015
 30
0.0
 40
1.0358080505583751
 50
135.1130869258936116
 51
145.5984257706157052
  0
ARC
  5
9076
  8
0
 10
4155.0014400492964342
 20
150.723800780261314
 30
0.0
 40
0.3841538059868456
 50
145.5984257706157052
 51
157.4518688671508073
  0
ARC
  5
9077
  8
0
 10
4154.8128506424336592
 20
150.8021027401161973
 30
0.0
 40
0.1799549781308911
 50
157.4518688671508073
 51
182.8125158326639905
  0
ARC
  5
9078
  8
0
 10
4154.7432133171951136
 20
150.8130841409079039
 30
0.0
 40
0.1118691098761243
 50
190.2005778690088107
 51
221.3174825185868997
  0
ARC
  5
9079
  8
0
 10
4153.7877004342353757
 20
143.0810575327186029
 30
0.0
 40
6.1170044589834651
 50
37.2331636253116613
 51
47.7768753344777934
  0
ARC
  5
907A
  8
0
 10
4154.9475703722637263
 20
143.8285106551238925
 30
0.0
 40
4.742485473106953
 50
16.2310044502526907
 51
38.5221609313369768
  0
ARC
  5
907B
  8
0
 10
4154.1599901546360343
 20
143.911275031918592
 30
0.0
 40
5.4837317283442397
 50
2.7480485687635889
 51
13.0991003152329597
  0
ARC
  5
907C
  8
0
 10
4185.8131721309582645
 20
145.6175617542108967
 30
0.0
 40
26.2155212315801904
 50
183.1561868351024884
 51
186.5812472853251052
  0
ARC
  5
907D
  8
0
 10
4197.3699489489263215
 20
147.03252208624221
 30
0.0
 40
37.8584010183176218
 50
186.7039719391516996
 51
187.8730096304608992
  0
LINE
  5
907E
  8
0
 10
4160.7842935774106081
 20
141.7787505159147088
 30
0.0
 11
4159.9464546926501498
 21
141.7787505159147088
 31
0.0
  0
ARC
  5
907F
  8
0
 10
4146.1185336836078932
 20
142.0226716297792109
 30
0.0
 40
14.7454894098480391
 50
359.3549367185079859
 51
1.8766296778043881
  0
ARC
  5
9080
  8
0
 10
4151.4729159822845759
 20
142.1981084164476954
 30
0.0
 40
9.3882337815895873
 50
1.8766296778043881
 51
10.8889609330985007
  0
ARC
  5
9081
  8
0
 10
4153.6375326285033225
 20
142.7302012553683994
 30
0.0
 40
7.162976035100149
 50
9.9802264302673578
 51
30.91665237035755
  0
ARC
  5
9082
  8
0
 10
4152.9485279395839825
 20
142.1905829834641963
 30
0.0
 40
8.0320735764097773
 50
31.6938058435524788
 51
42.780592407630742
  0
ARC
  5
9083
  8
0
 10
4151.5334987937176265
 20
140.9587661971114017
 30
0.0
 40
9.9074531450059347
 50
42.451108357045328
 51
45.6180290375801505
  0
LINE
  5
9084
  8
0
 10
4157.8984468620647021
 20
147.6109038167886069
 30
0.0
 11
4154.6591925999346131
 21
150.7392247013250994
 31
0.0
  0
LINE
  5
9085
  8
0
 10
4158.463152817324044
 20
148.039551671449999
 30
0.0
 11
4155.148449338284081
 21
151.2439676200251881
 31
0.0
  0
ARC
  5
9086
  8
0
 10
4155.5613915990534224
 20
150.3786871049883871
 30
0.0
 40
1.0358080505583751
 50
126.4013922062413968
 51
136.8867310509486117
  0
ARC
  5
9087
  8
0
 10
4155.1746749179937979
 20
150.9031901679524026
 30
0.0
 40
0.3841538059868456
 50
114.5479491096868969
 51
126.4013922062413968
  0
ARC
  5
9088
  8
0
 10
4155.0941981280402615
 20
151.0756817091308051
 30
0.0
 40
0.1938247683856626
 50
91.740613593467927
 51
114.0925926180061936
  0
ARC
  5
9089
  8
0
 10
4155.075681760158659
 20
151.1557935969362916
 30
0.0
 40
0.1143231331516149
 50
50.4680870076031667
 51
83.6577367929721163
  0
ARC
  5
908A
  8
0
 10
4160.7842935774106081
 20
141.8575505159145962
 30
0.0
 40
0.0788
 50
270.0
 51
359.3549367185079859
  0
ARC
  5
908B
  8
0
 10
4159.9464546926501498
 20
141.8575505159145962
 30
0.0
 40
0.0788
 50
187.8730096304608992
 51
270.0
  0
LINE
  5
908C
  8
0
 10
4160.7177510827032165
 20
141.4244206106203023
 30
0.0
 11
4160.0130046260019299
 21
141.4244206106203023
 31
0.0
  0
LINE
  5
908D
  8
0
 10
4160.0012046260017087
 20
141.4362206106202109
 30
0.0
 11
4160.0012046260017087
 21
141.7787505159147088
 31
0.0
  0
LINE
  5
908E
  8
0
 10
4160.7295510827016187
 20
141.4362206106202109
 30
0.0
 11
4160.7295510827016187
 21
141.7787505159147088
 31
0.0
  0
LINE
  5
908F
  8
0
 10
4160.7177510827032165
 20
141.4244206106203023
 30
0.0
 11
4160.7295510827016187
 21
141.4362206106202109
 31
0.0
  0
LINE
  5
9090
  8
0
 10
4160.0130046260019299
 20
141.4244206106203023
 30
0.0
 11
4160.0012046260017087
 21
141.4362206106202109
 31
0.0
  0
LINE
  5
9091
  8
0
 10
4160.0067057263668175
 20
141.7787505159147088
 30
0.0
 11
4160.0084239198031355
 21
141.7679226303201858
 31
0.0
  0
LINE
  5
9092
  8
0
 10
4160.0084239198031355
 20
141.7679226303201858
 30
0.0
 11
4160.0084229503036113
 21
141.7427993655201988
 31
0.0
  0
LINE
  5
9093
  8
0
 10
4160.0084229503036113
 20
141.7427993655201988
 30
0.0
 11
4160.0064541896217634
 21
141.7282028933879019
 31
0.0
  0
LINE
  5
9094
  8
0
 10
4160.0066366792952977
 20
141.7143541808731015
 30
0.0
 11
4160.008422704100667
 21
141.7033166528202059
 31
0.0
  0
ARC
  5
9095
  8
0
 10
4160.0532306195627825
 20
141.7218937253068987
 30
0.0
 40
0.0472
 50
172.3183490258340953
 51
189.1915794910028126
  0
LINE
  5
9096
  8
0
 10
4160.008422704100667
 20
141.7033166528202059
 30
0.0
 11
4160.0084235887015893
 21
141.6782318498202926
 31
0.0
  0
LINE
  5
9097
  8
0
 10
4160.0084235887015893
 20
141.6782318498202926
 30
0.0
 11
4160.0064373180475741
 21
141.6634564245474053
 31
0.0
  0
LINE
  5
9098
  8
0
 10
4160.0066508639611129
 20
141.6494555739355974
 30
0.0
 11
4160.0084236612510722
 21
141.6387516874127073
 31
0.0
  0
ARC
  5
9099
  8
0
 10
4160.0532165228478334
 20
141.6571678636410923
 30
0.0
 40
0.0472
 50
172.343589710249887
 51
189.4040656706831101
  0
LINE
  5
909A
  8
0
 10
4160.0084236612510722
 20
141.6387516874127073
 30
0.0
 11
4160.0084234141022534
 21
141.6136251053202102
 31
0.0
  0
LINE
  5
909B
  8
0
 10
4160.0084234141022534
 20
141.6136251053202102
 30
0.0
 11
4160.0064501913038839
 21
141.5989568381986032
 31
0.0
  0
LINE
  5
909C
  8
0
 10
4160.0066521546432341
 20
141.5850185134682135
 30
0.0
 11
4160.0084239411589806
 21
141.5742247405549108
 31
0.0
  0
ARC
  5
909D
  8
0
 10
4160.0532288242666255
 20
141.5926640249948889
 30
0.0
 40
0.0472
 50
172.3383814092038904
 51
189.3219095292450902
  0
LINE
  5
909E
  8
0
 10
4160.0084239411589806
 20
141.5742247405549108
 30
0.0
 11
4160.008423818601841
 21
141.5490499219203002
 31
0.0
  0
LINE
  5
909F
  8
0
 10
4160.008423818601841
 20
141.5490499219203002
 30
0.0
 11
4160.0064359836842414
 21
141.5343193409404989
 31
0.0
  0
LINE
  5
90A0
  8
0
 10
4160.0066588241888894
 20
141.5202198060156888
 30
0.0
 11
4160.0084240092028267
 21
141.5096673624202026
 31
0.0
  0
ARC
  5
90A1
  8
0
 10
4160.0532119988747581
 20
141.5280070986466967
 30
0.0
 40
0.0472
 50
172.3145834497231874
 51
189.4963638659060905
  0
LINE
  5
90A2
  8
0
 10
4160.0084240092028267
 20
141.5096673624202026
 30
0.0
 11
4160.0084240455016698
 21
141.4844798897202054
 31
0.0
  0
LINE
  5
90A3
  8
0
 10
4160.0084240455016698
 20
141.4844798897202054
 30
0.0
 11
4160.0066668105582721
 21
141.4714163814630865
 31
0.0
  0
LINE
  5
90A4
  8
0
 10
4160.0062467895850205
 20
141.4654734300503094
 30
0.0
 11
4160.006196156002261
 21
141.4586350233201983
 31
0.0
  0
ARC
  5
90A5
  8
0
 10
4160.0534454957996786
 20
141.4651239568933079
 30
0.0
 40
0.0472
 50
172.3388574184783977
 51
179.5757728836119043
  0
LINE
  5
90A6
  8
0
 10
4160.006196156002261
 20
141.4586350233201983
 30
0.0
 11
4160.0023284583030545
 21
141.4365242233201911
 31
0.0
  0
LINE
  5
90A7
  8
0
 10
4160.0023284583030545
 20
141.4365242233201911
 30
0.0
 11
4160.0012046260017087
 21
141.4362206106202109
 31
0.0
  0
LINE
  5
90A8
  8
0
 10
4160.7223316608024106
 20
141.7787505159147088
 30
0.0
 11
4160.7223319841014018
 21
141.7642837636201989
 31
0.0
  0
LINE
  5
90A9
  8
0
 10
4160.7223319841014018
 20
141.7642837636201989
 30
0.0
 11
4160.7241049871436189
 21
141.7534426341154017
 31
0.0
  0
ARC
  5
90AA
  8
0
 10
4160.6775238222808184
 20
141.7458245582506038
 30
0.0
 40
0.0472
 50
352.3712912116380949
 51
9.2881614800138035
  0
LINE
  5
90AB
  8
0
 10
4160.7243060620230608
 20
141.7395586150009876
 30
0.0
 11
4160.7223320509028781
 21
141.7248204251145864
 31
0.0
  0
LINE
  5
90AC
  8
0
 10
4160.7223320509028781
 20
141.7248204251145864
 30
0.0
 11
4160.7223328909021802
 21
141.6997319037201919
 31
0.0
  0
LINE
  5
90AD
  8
0
 10
4160.7223328909021802
 20
141.6997319037201919
 30
0.0
 11
4160.7240947214895641
 21
141.6890258872618915
 31
0.0
  0
ARC
  5
90AE
  8
0
 10
4160.6775211494241375
 20
141.6813615291704878
 30
0.0
 40
0.0472
 50
352.4414169410796944
 51
9.3450941946898833
  0
LINE
  5
90AF
  8
0
 10
4160.7243110231684113
 20
141.675152848546503
 30
0.0
 11
4160.7223321650026264
 21
141.6602397729203062
 31
0.0
  0
LINE
  5
90B0
  8
0
 10
4160.7223321650026264
 20
141.6602397729203062
 30
0.0
 11
4160.7223318739006572
 21
141.6351337306203106
 31
0.0
  0
LINE
  5
90B1
  8
0
 10
4160.7223318739006572
 20
141.6351337306203106
 30
0.0
 11
4160.7240880886038212
 21
141.6245053256357096
 31
0.0
  0
ARC
  5
90B2
  8
0
 10
4160.677519550420584
 20
141.6168104408826878
 30
0.0
 40
0.0472
 50
352.4383620526139111
 51
9.3826507586078538
  0
LINE
  5
90B3
  8
0
 10
4160.7243090930651306
 20
141.6105992655313912
 30
0.0
 11
4160.7223319014028675
 21
141.5957048392201898
 31
0.0
  0
LINE
  5
90B4
  8
0
 10
4160.7223319014028675
 20
141.5957048392201898
 30
0.0
 11
4160.7223317067173411
 21
141.5705426466874997
 31
0.0
  0
LINE
  5
90B5
  8
0
 10
4160.7223317067173411
 20
141.5705426466874997
 30
0.0
 11
4160.7241020463889072
 21
141.5597735374994102
 31
0.0
  0
ARC
  5
90B6
  8
0
 10
4160.6775271765745856
 20
141.5521170695161004
 30
0.0
 40
0.0472
 50
352.3293696090340177
 51
9.3353877545072752
  0
LINE
  5
90B7
  8
0
 10
4160.7243048191930939
 20
141.5458168987858016
 30
0.0
 11
4160.7223316917043121
 21
141.5311667795201913
 31
0.0
  0
LINE
  5
90B8
  8
0
 10
4160.7223316917043121
 20
141.5311667795201913
 30
0.0
 11
4160.7223316917043121
 21
141.5059745354203073
 31
0.0
  0
LINE
  5
90B9
  8
0
 10
4160.7223316917043121
 20
141.5059745354203073
 30
0.0
 11
4160.7246103427087291
 21
141.4920940675804957
 31
0.0
  0
LINE
  5
90BA
  8
0
 10
4160.7245975842397456
 20
141.4834048108010052
 30
0.0
 11
4160.7231904106020011
 21
141.4735231498202097
 31
0.0
  0
LINE
  5
90BB
  8
0
 10
4160.7231904106020011
 20
141.4735231498202097
 30
0.0
 11
4160.7270692304027762
 21
141.4406091986201943
 31
0.0
  0
LINE
  5
90BC
  8
0
 10
4160.7270692304027762
 20
141.4406091986201943
 30
0.0
 11
4160.7295510827016187
 21
141.4362206106202109
 31
0.0
  0
ARC
  5
90BD
  8
0
 10
4160.6775933764911315
 20
141.4878184650210073
 30
0.0
 40
0.0472109721321583
 50
354.6357049918340749
 51
5.1960398911280814
  0
LINE
  5
90BE
  8
0
 10
4157.78101471402897
 20
147.5099931086731999
 30
0.0
 11
4157.8890745043563584
 21
147.6199552033066027
 31
0.0
  0
LINE
  5
90BF
  8
0
 10
4154.9472379345979789
 20
150.2463620757461058
 30
0.0
 11
4155.0535408046071097
 21
150.3583815736714087
 31
0.0
  0
ARC
  5
90C0
  8
0
 10
4162.1045257975556524
 20
154.1933937873770901
 30
0.0
 40
8.0872648805230991
 50
234.1994195706170956
 51
235.9862319454707063
  0
ARC
  5
90C1
  8
0
 10
4163.6688583752820705
 20
156.442426035505207
 30
0.0
 40
10.8267716534748999
 50
216.2209500015549111
 51
217.5527055567337982
  0
ARC
  5
90C2
  8
0
 10
4155.0614842270806548
 20
150.1379460499298091
 30
0.0
 40
0.1575
 50
136.499909655520014
 51
216.2209500015549111
  0
ARC
  5
90C3
  8
0
 10
4157.66867794238442
 20
147.620386494962105
 30
0.0
 40
0.1575
 50
235.9862319454707063
 51
315.4999096412805102
  0
LINE
  5
90C4
  8
0
 10
4155.070768934942862
 20
149.8277454186967077
 30
0.0
 11
4155.0885969429118632
 21
149.8469809381244033
 31
0.0
  0
LINE
  5
90C5
  8
0
 10
4155.0495792220153817
 20
149.8483274115565109
 30
0.0
 11
4155.0672904988950904
 21
149.867320370620007
 31
0.0
  0
LINE
  5
90C6
  8
0
 10
4155.0488576323032248
 20
149.8332205347236084
 30
0.0
 11
4155.1333737099794234
 21
149.7231991804586073
 31
0.0
  0
ARC
  5
90C7
  8
0
 10
4155.0581360477353883
 20
149.8403480172434001
 30
0.0
 40
0.0117
 50
136.9999096036792992
 51
217.530707737003695
  0
ARC
  5
90C8
  8
0
 10
4156.180449859077271
 20
150.5860415777509047
 30
0.0
 40
1.3531763765754881
 50
214.8338485309157022
 51
220.7252199413169933
  0
ARC
  5
90C9
  8
0
 10
4155.0793500770705577
 20
149.8197921803761119
 30
0.0
 40
0.0117
 50
137.1747992787612134
 51
214.8338485308902932
  0
ARC
  5
90CA
  8
0
 10
4155.1477100956863069
 20
149.7403577187403982
 30
0.0
 40
0.0223595033744815
 50
230.1204038436121095
 51
254.3846652376091981
  0
ARC
  5
90CB
  8
0
 10
4155.1654645506077941
 20
149.7120799664704123
 30
0.0
 40
0.013772535620784
 50
220.2241673918574918
 51
286.8449749357903897
  0
ARC
  5
90CC
  8
0
 10
4155.7354380865253916
 20
150.137897250475703
 30
0.0
 40
0.7162794044597113
 50
212.5839641105901023
 51
223.9227041838001924
  0
ARC
  5
90CD
  8
0
 10
4156.712555433403395
 20
150.7620843918973037
 30
0.0
 40
1.879829768736571
 50
216.8319602935430055
 51
221.6935906969289931
  0
ARC
  5
90CE
  8
0
 10
4155.9529510462871258
 20
149.9054958223676977
 30
0.0
 40
0.7302398613956094
 50
213.7879799205310007
 51
226.4326816115778911
  0
LINE
  5
90CF
  8
0
 10
4155.1331045140195783
 20
149.7663318751876886
 30
0.0
 11
4155.1510569655902145
 21
149.7860566301777965
 31
0.0
  0
LINE
  5
90D0
  8
0
 10
4155.2333770995528539
 20
149.6387762667386028
 30
0.0
 11
4155.2388388635290539
 21
149.6416385123663133
 31
0.0
  0
ARC
  5
90D1
  8
0
 10
4155.1417572576092425
 20
149.7584565956094025
 30
0.0
 40
0.0117
 50
137.6931590394680995
 51
212.5839641104049917
  0
ARC
  5
90D2
  8
0
 10
4155.2279462500328009
 20
149.6491394647734126
 30
0.0
 40
0.0117
 50
223.9227041839546075
 51
297.6568536851763156
  0
ARC
  5
90D3
  8
0
 10
4155.1142881317437059
 20
149.8654876559110107
 30
0.0
 40
0.03293754876279
 50
204.7765612600514089
 51
216.2142561750441985
  0
ARC
  5
90D4
  8
0
 10
4154.2706184855524043
 20
149.1182539890855026
 30
0.0
 40
1.0955052363916311
 50
37.0872660180981768
 51
42.027741387219038
  0
ARC
  5
90D5
  8
0
 10
4155.1622272284275823
 20
149.7935072514719081
 30
0.0
 40
0.015843600200808
 50
190.5844829598584056
 51
215.8709802436177938
  0
ARC
  5
90D6
  8
0
 10
4154.4395419108750502
 20
149.1003578982507065
 30
0.0
 40
0.9881479767990121
 50
35.6317970059335423
 51
44.3082211689089291
  0
ARC
  5
90D7
  8
0
 10
4155.574506221952106
 20
149.8407048378620914
 30
0.0
 40
0.3902562971386815
 50
208.7868338009328113
 51
229.9542744642527055
  0
LINE
  5
90D8
  8
0
 10
4155.3365190270569656
 20
149.5406220540760103
 30
0.0
 11
4155.3611036402980972
 21
149.5539478169401093
 31
0.0
  0
LINE
  5
90D9
  8
0
 10
4155.2339652505179401
 20
149.6661573221554988
 30
0.0
 11
4155.2523470625519622
 21
149.6869605548988034
 31
0.0
  0
ARC
  5
90DA
  8
0
 10
4155.2427329111060317
 20
149.6584101854055859
 30
0.0
 40
0.0117
 50
138.5360683943995923
 51
208.7868338009313902
  0
ARC
  5
90DB
  8
0
 10
4155.3309435715837026
 20
149.5509081756136993
 30
0.0
 40
0.0117
 50
229.9542744642506023
 51
298.4593184166134279
  0
ARC
  5
90DC
  8
0
 10
4155.2666216247262128
 20
149.6937753654777907
 30
0.0
 40
0.0191515082541327
 50
187.8199931295507952
 51
209.6960006808619994
  0
ARC
  5
90DD
  8
0
 10
4154.8650576811387509
 20
149.2593288902635038
 30
0.0
 40
0.576941856303233
 50
30.090092487303199
 51
48.4605674166063807
  0
ARC
  5
90DE
  8
0
 10
4155.3716339307193266
 20
149.5697071902559969
 30
0.0
 40
0.0223756125079467
 50
231.7211880085573057
 51
250.7306667743305013
  0
ARC
  5
90DF
  8
0
 10
4156.2100407518009888
 20
149.1378238869124004
 30
0.0
 40
0.3262019786266302
 50
211.5653852224558875
 51
237.0370036950521921
  0
ARC
  5
90E0
  8
0
 10
4155.9508802383033981
 20
149.0042690436646069
 30
0.0
 40
0.0070697298144822
 50
154.434095982436105
 51
228.2990577191206114
  0
ARC
  5
90E1
  8
0
 10
4155.7710282933221606
 20
148.7078649287714995
 30
0.0
 40
0.3460732578796828
 50
29.0537937045444004
 51
59.9162720882324891
  0
ARC
  5
90E2
  8
0
 10
4156.0701562123558688
 20
148.8833701462519059
 30
0.0
 40
0.0081801240973581
 50
228.1463216955955033
 51
294.5359698103343931
  0
LINE
  5
90E3
  8
0
 10
4156.0705432389850102
 20
148.8812359100375033
 30
0.0
 11
4156.0454820793156614
 21
148.864262488042101
 31
0.0
  0
LINE
  5
90E4
  8
0
 10
4155.9498731797948494
 20
149.0041438622147894
 30
0.0
 11
4155.9325639645867341
 21
148.9800100883267078
 31
0.0
  0
ARC
  5
90E5
  8
0
 10
4155.9420714353391304
 20
148.9731911441334091
 30
0.0
 40
0.0117
 50
144.3511683165993134
 51
211.5653852225566993
  0
ARC
  5
90E6
  8
0
 10
4156.038921081441913
 20
148.8739497635567091
 30
0.0
 40
0.0117
 50
237.0370036949294104
 51
304.1089993085283254
  0
ARC
  5
90E7
  8
0
 10
4155.78563251950618
 20
148.7240067325238044
 30
0.0
 40
0.2870711685128935
 50
30.7143178525238199
 51
57.1813610631841414
  0
ARC
  5
90E8
  8
0
 10
4156.0298987997393851
 20
148.8693085636886053
 30
0.0
 40
0.0028597881450741
 50
238.405962845176191
 51
27.5338072244590393
  0
ARC
  5
90E9
  8
0
 10
4155.9359774044551159
 20
148.9579195644074048
 30
0.0
 40
0.0090190842464125
 50
54.4609341567814766
 51
93.222008617588628
  0
ARC
  5
90EA
  8
0
 10
4155.9395243069011485
 20
148.9640808686025935
 30
0.0
 40
0.0049516747405116
 50
144.9525360918881915
 51
194.0971666022817033
  0
ARC
  5
90EB
  8
0
 10
4156.0237755107273188
 20
148.9559695764478988
 30
0.0
 40
0.0584244303899673
 50
209.0742633758065949
 51
239.2600861996251069
  0
ARC
  5
90EC
  8
0
 10
4155.9481613816642493
 20
148.8825222884869106
 30
0.0
 40
0.0513114249536322
 50
26.9208250639924103
 51
61.4135245114766803
  0
ARC
  5
90ED
  8
0
 10
4156.0031266729229174
 20
149.3375473708861136
 30
0.0
 40
0.3262019786266302
 50
211.5653852224558875
 51
237.0370036950521921
  0
ARC
  5
90EE
  8
0
 10
4155.7439661594262361
 20
149.2039925276384054
 30
0.0
 40
0.0070697298144822
 50
154.434095982436105
 51
228.2990577191206114
  0
ARC
  5
90EF
  8
0
 10
4155.5641142144449987
 20
148.907588412745099
 30
0.0
 40
0.3460732578796828
 50
29.0537937045444004
 51
59.9162720882324891
  0
ARC
  5
90F0
  8
0
 10
4155.8632421334768878
 20
149.0830936302255907
 30
0.0
 40
0.0081801240973581
 50
228.1463216955955033
 51
294.5359698103343931
  0
LINE
  5
90F1
  8
0
 10
4155.8636291601060293
 20
149.0809593940111881
 30
0.0
 11
4155.8385680004375899
 21
149.0639859720157006
 31
0.0
  0
LINE
  5
90F2
  8
0
 10
4155.7429591009158685
 20
149.2038673461885026
 30
0.0
 11
4155.7256498857086626
 21
149.1797335723003073
 31
0.0
  0
ARC
  5
90F3
  8
0
 10
4155.735157356461059
 20
149.1729146281072076
 30
0.0
 40
0.0117
 50
144.3511683165993134
 51
211.5653852225566993
  0
ARC
  5
90F4
  8
0
 10
4155.832007002564751
 20
149.0736732475303086
 30
0.0
 40
0.0117
 50
237.0370036949294104
 51
304.1089993085283254
  0
ARC
  5
90F5
  8
0
 10
4155.5787184406281085
 20
148.9237302164976029
 30
0.0
 40
0.2870711685128935
 50
30.7143178525238199
 51
57.1813610631841414
  0
ARC
  5
90F6
  8
0
 10
4155.8229847208604042
 20
149.0690320476622901
 30
0.0
 40
0.0028597881450741
 50
238.405962845176191
 51
27.5338072244590393
  0
ARC
  5
90F7
  8
0
 10
4155.7290633255779539
 20
149.1576430483810896
 30
0.0
 40
0.0090190842464125
 50
54.4609341567814766
 51
93.222008617588628
  0
ARC
  5
90F8
  8
0
 10
4155.7326102280230771
 20
149.1638043525763067
 30
0.0
 40
0.0049516747405116
 50
144.9525360918881915
 51
194.0971666022817033
  0
ARC
  5
90F9
  8
0
 10
4155.8168614318501568
 20
149.155693060421612
 30
0.0
 40
0.0584244303899673
 50
209.0742633758065949
 51
239.2600861996251069
  0
ARC
  5
90FA
  8
0
 10
4155.7412473027870874
 20
149.0822457724605954
 30
0.0
 40
0.0513114249536322
 50
26.9208250639924103
 51
61.4135245114766803
  0
ARC
  5
90FB
  8
0
 10
4155.8139852584017717
 20
149.5189878019378966
 30
0.0
 40
0.3262019786266302
 50
211.5653852224558875
 51
237.0370036950521921
  0
ARC
  5
90FC
  8
0
 10
4155.554824744904181
 20
149.3854329586901031
 30
0.0
 40
0.0070697298144822
 50
154.434095982436105
 51
228.2990577191206114
  0
ARC
  5
90FD
  8
0
 10
4155.374972799923853
 20
149.0890288437969105
 30
0.0
 40
0.3460732578796828
 50
29.0537937045444004
 51
59.9162720882324891
  0
ARC
  5
90FE
  8
0
 10
4155.6741007189566517
 20
149.2645340612772884
 30
0.0
 40
0.0081801240973581
 50
228.1463216955955033
 51
294.5359698103343931
  0
LINE
  5
90FF
  8
0
 10
4155.6744877455839742
 20
149.2623998250629995
 30
0.0
 11
4155.6494265859191728
 21
149.2454264030675972
 31
0.0
  0
LINE
  5
9100
  8
0
 10
4155.5538176863947228
 20
149.3853077772403992
 30
0.0
 11
4155.5365084711866075
 21
149.3611740033520903
 31
0.0
  0
ARC
  5
9101
  8
0
 10
4155.5460159419390038
 20
149.3543550591589053
 30
0.0
 40
0.0117
 50
144.3511683165993134
 51
211.5653852225566993
  0
ARC
  5
9102
  8
0
 10
4155.6428655880454244
 20
149.2551136785822052
 30
0.0
 40
0.0117
 50
237.0370036949294104
 51
304.1089993085283254
  0
ARC
  5
9103
  8
0
 10
4155.3895770261078724
 20
149.1051706475493006
 30
0.0
 40
0.2870711685128935
 50
30.7143178525238199
 51
57.1813610631841414
  0
ARC
  5
9104
  8
0
 10
4155.6338433063392586
 20
149.2504724787141015
 30
0.0
 40
0.0028597881450741
 50
238.405962845176191
 51
27.5338072244590393
  0
ARC
  5
9105
  8
0
 10
4155.5399219110558988
 20
149.339083479432901
 30
0.0
 40
0.0090190842464125
 50
54.4609341567814766
 51
93.222008617588628
  0
ARC
  5
9106
  8
0
 10
4155.5434688135019314
 20
149.3452447836280896
 30
0.0
 40
0.0049516747405116
 50
144.9525360918881915
 51
194.0971666022817033
  0
ARC
  5
9107
  8
0
 10
4155.6277200173281017
 20
149.3371334914735087
 30
0.0
 40
0.0584244303899673
 50
209.0742633758065949
 51
239.2600861996251069
  0
ARC
  5
9108
  8
0
 10
4155.5521058882650323
 20
149.2636862035124068
 30
0.0
 40
0.0513114249536322
 50
26.9208250639924103
 51
61.4135245114766803
  0
ARC
  5
9109
  8
0
 10
4155.6424602511551711
 20
149.6858064120424103
 30
0.0
 40
0.3262019786266302
 50
211.5653852224558875
 51
237.0370036950521921
  0
ARC
  5
910A
  8
0
 10
4155.3832997376603089
 20
149.5522515687945031
 30
0.0
 40
0.0070697298144822
 50
154.434095982436105
 51
228.2990577191206114
  0
ARC
  5
910B
  8
0
 10
4155.2034477926781619
 20
149.2558474539013105
 30
0.0
 40
0.3460732578796828
 50
29.0537937045444004
 51
59.9162720882324891
  0
ARC
  5
910C
  8
0
 10
4155.5025757117118701
 20
149.4313526713816884
 30
0.0
 40
0.0081801240973581
 50
228.1463216955955033
 51
294.5359698103343931
  0
LINE
  5
910D
  8
0
 10
4155.5029627383382831
 20
149.4292184351673995
 30
0.0
 11
4155.4779015786707532
 21
149.412245013171912
 31
0.0
  0
LINE
  5
910E
  8
0
 10
4155.3822926791490318
 20
149.552126387344714
 30
0.0
 11
4155.3649834639418259
 21
149.5279926134564903
 31
0.0
  0
ARC
  5
910F
  8
0
 10
4155.3744909346942222
 20
149.5211736692633053
 30
0.0
 40
0.0117
 50
144.3511683165993134
 51
211.5653852225566993
  0
ARC
  5
9110
  8
0
 10
4155.4713405807979143
 20
149.4219322886866905
 30
0.0
 40
0.0117
 50
237.0370036949294104
 51
304.1089993085283254
  0
ARC
  5
9111
  8
0
 10
4155.2180520188630908
 20
149.2719892576537006
 30
0.0
 40
0.2870711685128935
 50
30.7143178525238199
 51
57.1813610631841414
  0
ARC
  5
9112
  8
0
 10
4155.462318299092658
 20
149.4172910888185015
 30
0.0
 40
0.0028597881450741
 50
238.405962845176191
 51
27.5338072244590393
  0
ARC
  5
9113
  8
0
 10
4155.3683969038102077
 20
149.505902089537301
 30
0.0
 40
0.0090190842464125
 50
54.4609341567814766
 51
93.222008617588628
  0
ARC
  5
9114
  8
0
 10
4155.3719438062562404
 20
149.5120633937324897
 30
0.0
 40
0.0049516747405116
 50
144.9525360918881915
 51
194.0971666022817033
  0
ARC
  5
9115
  8
0
 10
4155.4561950100824106
 20
149.5039521015777098
 30
0.0
 40
0.0584244303899673
 50
209.0742633758065949
 51
239.2600861996251069
  0
ARC
  5
9116
  8
0
 10
4155.3805808810202507
 20
149.4305048136168068
 30
0.0
 40
0.0513114249536322
 50
26.9208250639924103
 51
61.4135245114766803
  0
ARC
  5
9117
  8
0
 10
4156.2199406205863852
 20
149.0840113476297972
 30
0.0
 40
0.3262019786266302
 50
211.5653852224558875
 51
237.0370036950521921
  0
ARC
  5
9118
  8
0
 10
4155.7809281621102855
 20
148.6540523894888111
 30
0.0
 40
0.3460732578796828
 50
29.0537937045444004
 51
38.3668878511066893
  0
ARC
  5
9119
  8
0
 10
4156.0800560811421747
 20
148.8295576069693027
 30
0.0
 40
0.0081801240973581
 50
228.1463216955955033
 51
294.5359698103343931
  0
LINE
  5
911A
  8
0
 10
4156.0804431077704066
 20
148.8274233707549001
 30
0.0
 11
4156.0553819481019673
 21
148.8104499487594126
 31
0.0
  0
LINE
  5
911B
  8
0
 10
4155.9515443274176505
 20
148.9388582380144044
 30
0.0
 11
4155.94246383337304
 21
148.9261975490439909
 31
0.0
  0
ARC
  5
911C
  8
0
 10
4155.9519713041254363
 20
148.9193786048508912
 30
0.0
 40
0.0117
 50
144.3511683165993134
 51
211.5653852225566993
  0
ARC
  5
911D
  8
0
 10
4156.0488209502273094
 20
148.8201372242739922
 30
0.0
 40
0.0117
 50
237.0370036949294104
 51
304.1089993085283254
  0
ARC
  5
911E
  8
0
 10
4155.7955323882943048
 20
148.6701941932412012
 30
0.0
 40
0.2870711685128935
 50
30.7143178525238199
 51
57.1813610631841414
  0
ARC
  5
911F
  8
0
 10
4156.039798668523872
 20
148.8154960244060021
 30
0.0
 40
0.0028597881450741
 50
238.405962845176191
 51
27.5338072244590393
  0
ARC
  5
9120
  8
0
 10
4155.9458772732432408
 20
148.9041070251246879
 30
0.0
 40
0.0090190842464125
 50
54.4609341567814766
 51
93.222008617588628
  0
ARC
  5
9121
  8
0
 10
4155.9494241756874544
 20
148.910268329319905
 30
0.0
 40
0.0049516747405116
 50
144.9525360918881915
 51
194.0971666022817033
  0
ARC
  5
9122
  8
0
 10
4156.0336753795127152
 20
148.9021570371654093
 30
0.0
 40
0.0584244303899673
 50
209.0742633758065949
 51
239.2600861996251069
  0
ARC
  5
9123
  8
0
 10
4155.9580612504505552
 20
148.8287097492043074
 30
0.0
 40
0.0513114249536322
 50
26.9208250639924103
 51
61.4135245114766803
  0
ARC
  5
9124
  8
0
 10
4156.4731527136182194
 20
149.2278449969012968
 30
0.0
 40
0.6662342279743072
 50
219.6941913206343031
 51
230.0548343316891078
  0
ARC
  5
9125
  8
0
 10
4155.9946469304468337
 20
148.8538441454549002
 30
0.0
 40
0.0269742594933608
 50
207.5240292721890114
 51
222.0817492839709075
  0
ARC
  5
9126
  8
0
 10
4155.3233085308320369
 20
148.0786540843172929
 30
0.0
 40
1.000448876611101
 50
40.4701947408335414
 51
49.6746850944053691
  0
ARC
  5
9127
  8
0
 10
4156.0970156306411809
 20
148.7523696707660861
 30
0.0
 40
0.0274463026740027
 50
228.5687594818022887
 51
242.6208505630671084
  0
LINE
  5
9128
  8
0
 10
4156.0802072924961976
 20
148.7328728698203122
 30
0.0
 11
4156.060208265043002
 21
148.7168985511345909
 31
0.0
  0
LINE
  5
9129
  8
0
 10
4155.9756805053921198
 20
148.8371451927175997
 30
0.0
 11
4155.9602150892023928
 21
148.8169040133205101
 31
0.0
  0
ARC
  5
912A
  8
0
 10
4156.0529062762461763
 20
148.726040266489008
 30
0.0
 40
0.0117
 50
230.0548343315547868
 51
308.6162780990734973
  0
ARC
  5
912B
  8
0
 10
4155.9695119856860401
 20
148.8098006538496065
 30
0.0
 40
0.0117
 50
142.6181078652928989
 51
219.6941913207922994
  0
ARC
  5
912C
  8
0
 10
4156.1530592001063269
 20
149.8209494212597122
 30
0.0
 40
0.8613174568962367
 50
217.2646978163326992
 51
225.2998672095667132
  0
LINE
  5
912D
  8
0
 10
4155.5617060278818826
 20
149.2071616564508076
 30
0.0
 11
4155.5841810977117348
 21
149.2214103267124017
 31
0.0
  0
LINE
  5
912E
  8
0
 10
4155.4678810459563465
 20
149.3139680138353924
 30
0.0
 11
4155.4847382046391431
 21
149.3343331263666016
 31
0.0
  0
ARC
  5
912F
  8
0
 10
4155.476893948111865
 20
149.3065076120537071
 30
0.0
 40
0.0117
 50
140.3838478864169019
 51
217.264697816335314
  0
ARC
  5
9130
  8
0
 10
4155.5554413818772446
 20
149.2170431649601028
 30
0.0
 40
0.0117
 50
225.2998672095667132
 51
302.3737444870329227
  0
LINE
  5
9131
  8
0
 10
4155.4637809496289265
 20
149.374853846224795
 30
0.0
 11
4155.4884468900118009
 21
149.3897625565132046
 31
0.0
  0
LINE
  5
9132
  8
0
 10
4155.346916020928802
 20
149.5135468471519005
 30
0.0
 11
4155.3658525448217915
 21
149.5354784882065928
 31
0.0
  0
ARC
  5
9133
  8
0
 10
4155.3557717366893485
 20
149.5059005213418004
 30
0.0
 40
0.0117
 50
139.1915589501107036
 51
213.7879799203363973
  0
ARC
  5
9134
  8
0
 10
4155.4577288019636399
 20
149.3848669131207032
 30
0.0
 40
0.0117
 50
226.4326816117932992
 51
301.1498133455303901
  0
ARC
  5
9135
  8
0
 10
4155.380047820513937
 20
149.3330706440472113
 30
0.0
 40
0.1223287832310125
 50
24.7557584321519286
 51
39.3862312613411021
  0
ARC
  5
9136
  8
0
 10
4155.4909831936365663
 20
149.3913103912549047
 30
0.0
 40
0.0070160825307081
 50
211.2534553651555882
 51
271.2375313842119908
  0
ARC
  5
9137
  8
0
 10
4155.372175555306967
 20
149.5387345977403868
 30
0.0
 40
0.0117343357449395
 50
180.6946427453841011
 51
216.1000600416190878
  0
ARC
  5
9138
  8
0
 10
4155.3534804540440746
 20
149.5202387737352012
 30
0.0
 40
0.0196295065491656
 50
40.1118041481410685
 51
69.2279317209779919
  0
LINE
  5
9139
  8
0
 10
4155.3234724825078956
 20
149.5093846585644997
 30
0.0
 11
4155.3466991603982024
 21
149.5228652438952963
 31
0.0
  0
LINE
  5
913A
  8
0
 10
4155.2097858618835744
 20
149.6513318139878095
 30
0.0
 11
4155.20859646784902
 21
149.6500045507318077
 31
0.0
  0
ARC
  5
913B
  8
0
 10
4155.3175994105322388
 20
149.5195038001068042
 30
0.0
 40
0.0117
 50
221.6935906968579104
 51
300.1305500598995764
  0
ARC
  5
913C
  8
0
 10
4155.2173097773038535
 20
149.6421963346527946
 30
0.0
 40
0.0117
 50
138.1356817423252039
 51
216.8319602935559942
  0
ARC
  5
913D
  8
0
 10
4155.1741732290620348
 20
149.4062898751973023
 30
0.0
 40
0.2082186676788636
 50
32.344412774666921
 51
39.823730526944999
  0
ARC
  5
913E
  8
0
 10
4155.3610535454608907
 20
149.5339436395919108
 30
0.0
 40
0.0196090513247918
 50
217.0901767069427137
 51
235.9926726463164925
  0
ARC
  5
913F
  8
0
 10
4153.3951512891817401
 20
147.4175998537048997
 30
0.0
 40
2.8601296004522649
 50
37.9313230721411898
 51
43.3617118669520707
  0
ARC
  5
9140
  8
0
 10
4155.6563452334676185
 20
149.1879110607580969
 30
0.0
 40
0.0132375019489771
 50
224.8129271438901924
 51
246.53024120517901
  0
ARC
  5
9141
  8
0
 10
4155.6421111583022139
 20
149.1685298825281052
 30
0.0
 40
0.0111574563505188
 50
64.2731913995083204
 51
123.5322019399121984
  0
ARC
  5
9142
  8
0
 10
4155.6291781450090639
 20
149.1895820559651042
 30
0.0
 40
0.0135619691847597
 50
220.0997085292466977
 51
299.9443428837868169
  0
ARC
  5
9143
  8
0
 10
4156.1056213917208879
 20
149.6915810147613115
 30
0.0
 40
0.7055782307951205
 50
221.992303916966506
 51
226.3734640042713124
  0
ARC
  5
9144
  8
0
 10
4154.7367480290022286
 20
148.5753851446492888
 30
0.0
 40
1.0655943608160841
 50
36.9794413617967166
 51
45.7629099333621667
  0
ARC
  5
9145
  8
0
 10
4155.5018070450651066
 20
149.3488210681420867
 30
0.0
 40
0.0238576368123112
 50
204.7311183064138049
 51
220.9497175946519008
  0
ARC
  5
9146
  8
0
 10
4155.6005474852336192
 20
149.2363825784445055
 30
0.0
 40
0.0236206646302292
 50
221.8329586599886056
 51
237.9116756346139141
  0
ARC
  5
9147
  8
0
 10
4156.1816399719436959
 20
149.9278907314995024
 30
0.0
 40
0.9189387377491904
 50
216.0605383925640126
 51
220.4599409097922944
  0
ARC
  5
9148
  8
0
 10
4163.6688584117755454
 20
156.4424260658529988
 30
0.0
 40
10.8267717009392506
 50
219.7389172544422138
 51
219.7790602608135089
  0
ARC
  5
9149
  8
0
 10
4155.2879044769551911
 20
149.7859500362833103
 30
0.0
 40
0.1441838314292598
 50
212.2996498949925126
 51
224.8543657463135048
  0
ARC
  5
914A
  8
0
 10
4155.0573220711903559
 20
149.6020299681756001
 30
0.0
 40
0.152446905594261
 50
32.6411593408711127
 51
44.5128563004566473
  0
ARC
  5
914B
  8
0
 10
4155.357350835230136
 20
149.6623395873459117
 30
0.0
 40
0.1033964552108849
 50
210.5162601265217859
 51
228.0006560543193075
  0
ARC
  5
914C
  8
0
 10
4155.2042844395145949
 20
149.5372414122624036
 30
0.0
 40
0.0967730803021918
 50
29.912736919920949
 51
48.6041792608726126
  0
ARC
  5
914D
  8
0
 10
4155.4840631114593634
 20
149.510480868529811
 30
0.0
 40
0.1132087862487491
 50
212.2691749016275935
 51
227.9599919934669003
  0
ARC
  5
914E
  8
0
 10
4155.3103661827171891
 20
149.3641388960230074
 30
0.0
 40
0.116011484125726
 50
32.4598606700563934
 51
47.769306225002147
  0
ARC
  5
914F
  8
0
 10
4155.7022491890156743
 20
149.4255427375973113
 30
0.0
 40
0.2600055382120405
 50
217.9780767654883107
 51
224.7638516682443139
  0
ARC
  5
9150
  8
0
 10
4155.3392753206398993
 20
149.1058649959354057
 30
0.0
 40
0.224655278642473
 50
37.4434139949164404
 51
45.2985144387951308
  0
LINE
  5
9151
  8
0
 10
4155.8508645011734188
 20
148.9764364943436021
 30
0.0
 11
4155.8344794734839525
 21
148.9546042434847095
 31
0.0
  0
LINE
  5
9152
  8
0
 10
4155.9559107802733706
 20
148.8683822858901067
 30
0.0
 11
4155.9329826252660496
 21
148.8523497217287002
 31
0.0
  0
ARC
  5
9153
  8
0
 10
4155.8526874557483097
 20
148.9800794643547874
 30
0.0
 40
0.0067869418757335
 50
179.1310408035733985
 51
239.2754406931063897
  0
ARC
  5
9154
  8
0
 10
4155.5383742791836994
 20
148.5675569877897999
 30
0.0
 40
0.5146188781198667
 50
35.0959642310212203
 51
53.3030781601441106
  0
ARC
  5
9155
  8
0
 10
4155.9595517758471033
 20
148.8729349808052973
 30
0.0
 40
0.0094998679616432
 50
224.9320996420470067
 51
269.2680015876107973
  0
ARC
  5
9156
  8
0
 10
4156.1719388212231934
 20
149.1809134797196066
 30
0.0
 40
0.4143096938978549
 50
215.4188565680175884
 51
232.3981076742487915
  0
ARC
  5
9157
  8
0
 10
4156.4335997622802097
 20
149.5366229804664044
 30
0.0
 40
0.8535746139258629
 50
218.6825282495302929
 51
227.9921626193896884
  0
ARC
  5
9158
  8
0
 10
4155.8711338652119593
 20
148.9143417685459099
 30
0.0
 40
0.0148413257635545
 50
233.7598312320529885
 51
255.5681122006060093
  0
LINE
  5
9159
  8
0
 10
4155.7676005839311983
 20
149.0181416428920897
 30
0.0
 11
4155.7844017008092123
 21
149.0373882748884
 31
0.0
  0
ARC
  5
915A
  8
0
 10
4156.0392783057741326
 20
149.1507759503149089
 30
0.0
 40
0.2656912946607532
 50
210.1014230888879126
 51
223.13153371727239
  0
ARC
  5
915B
  8
0
 10
4155.8191397652435626
 20
149.0231587966586062
 30
0.0
 40
0.0112367507164917
 50
138.4390356918038094
 51
210.1014230888879126
  0
ARC
  5
915C
  8
0
 10
4155.8037463957225555
 20
149.0368069265369968
 30
0.0
 40
0.0093357375709091
 50
318.439035691803781
 51
6.8194110255848859
  0
ARC
  5
915D
  8
0
 10
4155.7871728106001683
 20
149.0348249511895915
 30
0.0
 40
0.0260274106485393
 50
6.8194110255832703
 51
27.4602234501147109
  0
ARC
  5
915E
  8
0
 10
4155.3338898615756989
 20
148.3871651439202992
 30
0.0
 40
0.8136889490221255
 50
41.5438235552518833
 51
54.1648929652436024
  0
ARC
  5
915F
  8
0
 10
4163.6688583752802515
 20
156.4424260354983005
 30
0.0
 40
10.8267716534691001
 50
224.4645069289962862
 51
224.6774232127499999
  0
ARC
  5
9160
  8
0
 10
4155.9976513073761453
 20
148.8373947177622085
 30
0.0
 40
0.0156628540609878
 50
248.9322929632687078
 51
317.2807458619669774
  0
ARC
  5
9161
  8
0
 10
4156.0149508821996278
 20
148.8189160265843043
 30
0.0
 40
0.0097580081308425
 50
76.0857955311947478
 51
126.4123920448746929
  0
ARC
  5
9162
  8
0
 10
4155.926277928516356
 20
148.8619381022757011
 30
0.0
 40
0.0117
 50
232.3981076742497009
 51
304.9632567698043886
  0
ARC
  5
9163
  8
0
 10
4155.8438372429027368
 20
148.9475812703605015
 30
0.0
 40
0.0117
 50
143.1119006688792012
 51
215.4188565679370129
  0
ARC
  5
9164
  8
0
 10
4155.7764147321076962
 20
149.0104474378084092
 30
0.0
 40
0.0117
 50
138.8810558697352917
 51
218.682528249523898
  0
LINE
  5
9165
  8
0
 10
4155.6354563913018865
 20
149.1314778674683907
 30
0.0
 11
4155.7281301908251407
 21
149.0308929590368905
 31
0.0
  0
LINE
  5
9166
  8
0
 10
4155.7439380226296635
 20
149.0296010675405114
 30
0.0
 11
4155.7635539031452936
 21
149.0449266232444927
 31
0.0
  0
LINE
  5
9167
  8
0
 10
4155.6353662162518958
 20
149.1472345549316003
 30
0.0
 11
4155.6520843868202064
 21
149.1658019055817874
 31
0.0
  0
ARC
  5
9168
  8
0
 10
4155.6440609983801551
 20
149.1394057131431907
 30
0.0
 40
0.0117
 50
137.9999097611855063
 51
222.6558871401643103
  0
ARC
  5
9169
  8
0
 10
4155.7367347979006809
 20
149.0388208047118042
 30
0.0
 40
0.0117
 50
222.6558871401643103
 51
307.9999096877986062
  0
ARC
  5
916A
  8
0
 10
4269.0021183318758631
 20
253.5838026057778904
 30
0.0
 40
154.1147269587538062
 50
222.6443875279445876
 51
222.7201134861637968
  0
ARC
  5
916B
  8
0
 10
4155.6488243571220664
 20
148.8687456763040018
 30
0.0
 40
0.2163828601758808
 50
38.4764332171066101
 51
52.89114414366977
  0
ARC
  5
916C
  8
0
 10
4155.7912687195430408
 20
149.0453254702694039
 30
0.0
 40
0.012553686059865
 50
198.6595479911316886
 51
229.0930660676050081
  0
LINE
  5
916D
  8
0
 10
4155.8623136578016783
 20
148.8904489222908012
 30
0.0
 11
4155.781048023324729
 21
148.9754217578405076
 31
0.0
  0
ARC
  5
916E
  8
0
 10
4155.8712742046336643
 20
148.9027710644824083
 30
0.0
 40
0.0152357010901498
 50
233.9757017997146988
 51
295.7285962130753774
  0
ARC
  5
916F
  8
0
 10
4155.7955052481956955
 20
148.9848381392519059
 30
0.0
 40
0.017253393576898
 50
165.7657458890822966
 51
213.0772857561080116
  0
ARC
  5
9170
  8
0
 10
4156.0245156458149722
 20
149.5208675232761095
 30
0.0
 40
0.5032161169936659
 50
212.8799051503179101
 51
231.3876781878722966
  0
LINE
  5
9171
  8
0
 10
4155.6026241981298881
 20
149.2613733824576912
 30
0.0
 11
4155.6070301327499692
 21
149.2668423938370097
 31
0.0
  0
ARC
  5
9172
  8
0
 10
4154.9675507726678916
 20
148.5640813367039073
 30
0.0
 40
0.9758357265092164
 50
39.0661897458889271
 51
44.8436494159869028
  0
LINE
  5
9173
  8
0
 10
4155.7241670968533072
 20
149.1269967500095106
 30
0.0
 11
4155.743745920008223
 21
149.1397359559549045
 31
0.0
  0
ARC
  5
9174
  8
0
 10
4155.7177861665450109
 20
149.1368035705135924
 30
0.0
 40
0.0117
 50
231.387678188072698
 51
303.0505436495881781
  0
ARC
  5
9175
  8
0
 10
4155.6117353404124515
 20
149.2540332812133101
 30
0.0
 40
0.0117
 50
141.1444520510191865
 51
212.8799051500525081
  0
ARC
  5
9176
  8
0
 10
4155.7159100922781363
 20
149.2417973809444049
 30
0.0
 40
0.0810842372022981
 50
211.200184815458897
 51
233.1668284693126054
  0
ARC
  5
9177
  8
0
 10
4155.6029185599272751
 20
149.1394021689663987
 30
0.0
 40
0.0745058076447945
 50
30.2166789894656205
 51
54.150334295275421
  0
ARC
  5
9178
  8
0
 10
4156.1502603451990581
 20
148.9070485904169061
 30
0.0
 40
0.2095236623051461
 50
220.5621653634690063
 51
229.7942072377931026
  0
ARC
  5
9179
  8
0
 10
4155.817822778266418
 20
148.5725368460354048
 30
0.0
 40
0.2633030832470645
 50
41.5064432042693809
 51
48.8499293969891326
  0
LINE
  5
917A
  8
0
 10
4157.3582493947260446
 20
147.6187458560206096
 30
0.0
 11
4157.3768510527252147
 21
147.6372342684855994
 31
0.0
  0
LINE
  5
917B
  8
0
 10
4157.3795583102992168
 20
147.5982873008101137
 30
0.0
 11
4157.3980023086005531
 21
147.6167312678580004
 31
0.0
  0
LINE
  5
917C
  8
0
 10
4157.3644858162579112
 20
147.5970389648234118
 30
0.0
 11
4157.2515821109700482
 21
147.6776641414876963
 31
0.0
  0
ARC
  5
917D
  8
0
 10
4157.3712851679701998
 20
147.6065604571597021
 30
0.0
 40
0.0117
 50
234.4691533209646934
 51
314.9999514542861903
  0
ARC
  5
917E
  8
0
 10
4158.0773590680028065
 20
148.7542132029855964
 30
0.0
 40
1.3531763765754881
 50
231.2746411166600069
 51
237.1660125270564095
  0
ARC
  5
917F
  8
0
 10
4157.3500015438867194
 20
147.6270442267351086
 30
0.0
 40
0.0117
 50
237.1660125271187098
 51
314.8250617791900936
  0
ARC
  5
9180
  8
0
 10
4157.2682299002835862
 20
147.6925905778377057
 30
0.0
 40
0.0223595033744815
 50
197.6151958203780055
 51
221.879457214342608
  0
ARC
  5
9181
  8
0
 10
4157.2393497931498132
 20
147.7093474079372015
 30
0.0
 40
0.0137725356207839
 50
165.1548861222179028
 51
231.7756936661562008
  0
ARC
  5
9182
  8
0
 10
4157.6450173086113864
 20
148.2938335565332011
 30
0.0
 40
0.7162794044597112
 50
228.0771568742003126
 51
239.4158969474202081
  0
ARC
  5
9183
  8
0
 10
4158.2347257293531584
 20
149.2921380569709982
 30
0.0
 40
1.879829768736571
 50
230.3062703610642075
 51
235.1679007644638943
  0
ARC
  5
9184
  8
0
 10
4157.4051668678330316
 20
148.5031039020412038
 30
0.0
 40
0.7302398613956093
 50
225.5671794464205959
 51
238.2118811374498932
  0
LINE
  5
9185
  8
0
 10
4157.294697928226924
 20
147.6789003142999093
 30
0.0
 11
4157.3137841810830651
 21
147.697530167457586
 31
0.0
  0
LINE
  5
9186
  8
0
 10
4157.1637207926587507
 20
147.7746605075639081
 30
0.0
 11
4157.1663906953490368
 21
147.7802188288389118
 31
0.0
  0
ARC
  5
9187
  8
0
 10
4157.2865254899643332
 20
147.6872729633925871
 30
0.0
 40
0.0117
 50
239.4158969474202081
 51
314.3067020185196156
  0
ARC
  5
9188
  8
0
 10
4157.174267199343376
 20
147.7695946111927014
 30
0.0
 40
0.0117
 50
154.3430073727683975
 51
228.0771568739936868
  0
ARC
  5
9189
  8
0
 10
4157.3944499509889283
 20
147.6635556393997035
 30
0.0
 40
0.03293754876279
 50
235.7856048829351039
 51
247.2232997979498919
  0
ARC
  5
918A
  8
0
 10
4156.6771130168735908
 20
146.7943235946044069
 30
0.0
 40
1.0955052363916311
 50
49.9721196707957134
 51
54.9125950398775231
  0
ARC
  5
918B
  8
0
 10
4157.3208404548104227
 20
147.7089536314956035
 30
0.0
 40
0.015843600200808
 50
236.3031233822169099
 51
261.4153780981339992
  0
ARC
  5
918C
  8
0
 10
4156.6533328932027871
 20
146.9625196094455077
 30
0.0
 40
0.9881479767990118
 50
47.691639889082488
 51
56.3680640520355993
  0
ARC
  5
918D
  8
0
 10
4157.3536219634916051
 20
148.1226285683117112
 30
0.0
 40
0.3902562971386814
 50
222.0455865937312865
 51
243.2130272570483953
  0
LINE
  5
918E
  8
0
 10
4157.0620270131912548
 20
147.8743143177788966
 30
0.0
 11
4157.0744867284411157
 21
147.8993489869409075
 31
0.0
  0
LINE
  5
918F
  8
0
 10
4157.1910646458463816
 20
147.776203818988904
 30
0.0
 11
4157.2112137361418718
 21
147.795300406811009
 31
0.0
  0
ARC
  5
9190
  8
0
 10
4157.1830162620926785
 20
147.7846957868981974
 30
0.0
 40
0.0117
 50
243.2130272570483953
 51
313.4637926636189036
  0
ARC
  5
9191
  8
0
 10
4157.0725014366498726
 20
147.8691012137888094
 30
0.0
 40
0.0117
 50
153.540542641386196
 51
222.0455865937350097
  0
ARC
  5
9192
  8
0
 10
4157.2175262554592337
 20
147.8098040914582043
 30
0.0
 40
0.0191515082541327
 50
242.3038603770874886
 51
264.1798679284170248
  0
ARC
  5
9193
  8
0
 10
4156.7973578028613701
 20
147.3933238253517004
 30
0.0
 40
0.5769418563032327
 50
43.539293641362228
 51
61.9097685707091188
  0
ARC
  5
9194
  8
0
 10
4157.0898690265894402
 20
147.9104228194889004
 30
0.0
 40
0.0223756125079467
 50
201.2691942836198109
 51
220.2786730494318022
  0
ARC
  5
9195
  8
0
 10
4156.6289908341432238
 20
148.733247513496508
 30
0.0
 40
0.3262019786266301
 50
214.9628573629395873
 51
240.4344758355113925
  0
ARC
  5
9196
  8
0
 10
4156.5045612810017701
 20
148.469584178510388
 30
0.0
 40
0.0070697298144822
 50
223.7008033388995045
 51
297.5657650755147756
  0
ARC
  5
9197
  8
0
 10
4156.2146140088898392
 20
148.2794981431655117
 30
0.0
 40
0.3460732578796828
 50
32.0835889697751071
 51
62.9460673534276225
  0
ARC
  5
9198
  8
0
 10
4156.3795736393030893
 20
148.584568485286411
 30
0.0
 40
0.0081801240973581
 50
157.4638912476692951
 51
223.8535393623469076
  0
LINE
  5
9199
  8
0
 10
4156.3774271969323308
 20
148.5848807975827981
 30
0.0
 11
4156.361338674370927
 21
148.5592425796268969
 31
0.0
  0
LINE
  5
919A
  8
0
 10
4156.5044713191928167
 20
148.468573364923202
 30
0.0
 11
4156.4809562858526988
 21
148.4504324944834934
 31
0.0
  0
ARC
  5
919B
  8
0
 10
4156.4738097120980456
 20
148.4596962131508064
 30
0.0
 40
0.0117
 50
240.4344758353925897
 51
307.6486927413652097
  0
ARC
  5
919C
  8
0
 10
4156.3712490091029395
 20
148.5530236355428997
 30
0.0
 40
0.0117
 50
147.8908617494485895
 51
214.9628573630255914
  0
ARC
  5
919D
  8
0
 10
4156.2302363361059179
 20
148.2946567757925891
 30
0.0
 40
0.2870711685128934
 50
34.8184999948120506
 51
61.285543205453898
  0
ARC
  5
919E
  8
0
 10
4156.3669254873593673
 20
148.5438448849131987
 30
0.0
 40
0.0028597881450741
 50
64.4660538335187425
 51
213.5938982127852057
  0
ARC
  5
919F
  8
0
 10
4156.458760097954837
 20
148.4530729606358079
 30
0.0
 40
0.0090190842464125
 50
358.7778524404179166
 51
37.53892690120189
  0
ARC
  5
91A0
  8
0
 10
4156.4647938728567169
 20
148.4568327141878115
 30
0.0
 40
0.0049516747405116
 50
257.9026944556867988
 51
307.0473249660968804
  0
ARC
  5
91A1
  8
0
 10
4156.4537474007711353
 20
148.5407495412308094
 30
0.0
 40
0.0584244303899672
 50
212.7397748583277064
 51
242.9255976821636978
  0
ARC
  5
91A2
  8
0
 10
4156.3829835604910841
 20
148.4626183724703026
 30
0.0
 40
0.0513114249536322
 50
30.5863365465353993
 51
65.0790359939949212
  0
ARC
  5
91A3
  8
0
 10
4156.8358133646243004
 20
148.5334292286109985
 30
0.0
 40
0.3262019786266301
 50
214.9628573629395873
 51
240.4344758355113925
  0
ARC
  5
91A4
  8
0
 10
4156.7113838114819373
 20
148.269765893624907
 30
0.0
 40
0.0070697298144822
 50
223.7008033388995045
 51
297.5657650755147756
  0
ARC
  5
91A5
  8
0
 10
4156.4214365393681874
 20
148.0796798582800022
 30
0.0
 40
0.3460732578796828
 50
32.0835889697751071
 51
62.9460673534276225
  0
ARC
  5
91A6
  8
0
 10
4156.5863961697814375
 20
148.3847502004009016
 30
0.0
 40
0.0081801240973581
 50
157.4638912476692951
 51
223.8535393623469076
  0
LINE
  5
91A7
  8
0
 10
4156.5842497274097695
 20
148.3850625126974023
 30
0.0
 11
4156.5681612048510942
 21
148.3594242947413875
 31
0.0
  0
LINE
  5
91A8
  8
0
 10
4156.7112938496720744
 20
148.2687550800376926
 30
0.0
 11
4156.687778816332866
 21
148.2506142095980124
 31
0.0
  0
ARC
  5
91A9
  8
0
 10
4156.6806322425782128
 20
148.2598779282652117
 30
0.0
 40
0.0117
 50
240.4344758353925897
 51
307.6486927413652097
  0
ARC
  5
91AA
  8
0
 10
4156.5780715395831066
 20
148.353205350657305
 30
0.0
 40
0.0117
 50
147.8908617494485895
 51
214.9628573630255914
  0
ARC
  5
91AB
  8
0
 10
4156.4370588665851756
 20
148.0948384909071081
 30
0.0
 40
0.2870711685128934
 50
34.8184999948120506
 51
61.285543205453898
  0
ARC
  5
91AC
  8
0
 10
4156.5737480178377155
 20
148.344026600027604
 30
0.0
 40
0.0028597881450741
 50
64.4660538335187425
 51
213.5938982127852057
  0
ARC
  5
91AD
  8
0
 10
4156.6655826284350042
 20
148.2532546757504122
 30
0.0
 40
0.0090190842464125
 50
358.7778524404179166
 51
37.53892690120189
  0
ARC
  5
91AE
  8
0
 10
4156.6716164033350651
 20
148.2570144293021883
 30
0.0
 40
0.0049516747405116
 50
257.9026944556867988
 51
307.0473249660968804
  0
ARC
  5
91AF
  8
0
 10
4156.660569931250393
 20
148.3409312563453
 30
0.0
 40
0.0584244303899672
 50
212.7397748583277064
 51
242.9255976821636978
  0
ARC
  5
91B0
  8
0
 10
4156.5898060909721607
 20
148.2628000875847079
 30
0.0
 40
0.0513114249536322
 50
30.5863365465353993
 51
65.0790359939949212
  0
ARC
  5
91B1
  8
0
 10
4157.0237437642063014
 20
148.3507347579231066
 30
0.0
 40
0.3262019786266301
 50
214.9628573629395873
 51
240.4344758355113925
  0
ARC
  5
91B2
  8
0
 10
4156.8993142110621193
 20
148.0870714229371004
 30
0.0
 40
0.0070697298144822
 50
223.7008033388995045
 51
297.5657650755147756
  0
ARC
  5
91B3
  8
0
 10
4156.6093669389501883
 20
147.8969853875923093
 30
0.0
 40
0.3460732578796828
 50
32.0835889697751071
 51
62.9460673534276225
  0
ARC
  5
91B4
  8
0
 10
4156.774326569364348
 20
148.2020557297132086
 30
0.0
 40
0.0081801240973581
 50
157.4638912476692951
 51
223.8535393623469076
  0
LINE
  5
91B5
  8
0
 10
4156.7721801269935895
 20
148.2023680420095104
 30
0.0
 11
4156.7560916044340047
 21
148.1767298240536093
 31
0.0
  0
LINE
  5
91B6
  8
0
 10
4156.8992242492540754
 20
148.0860606093498859
 30
0.0
 11
4156.8757092159157764
 21
148.0679197389102058
 31
0.0
  0
ARC
  5
91B7
  8
0
 10
4156.8685626421611232
 20
148.0771834575774051
 30
0.0
 40
0.0117
 50
240.4344758353925897
 51
307.6486927413652097
  0
ARC
  5
91B8
  8
0
 10
4156.7660019391651076
 20
148.170510879969612
 30
0.0
 40
0.0117
 50
147.8908617494485895
 51
214.9628573630255914
  0
ARC
  5
91B9
  8
0
 10
4156.6249892661671765
 20
147.9121440202193014
 30
0.0
 40
0.2870711685128934
 50
34.8184999948120506
 51
61.285543205453898
  0
ARC
  5
91BA
  8
0
 10
4156.7616784174233544
 20
148.161332129339911
 30
0.0
 40
0.0028597881450741
 50
64.4660538335187425
 51
213.5938982127852057
  0
ARC
  5
91BB
  8
0
 10
4156.8535130280188241
 20
148.0705602050624918
 30
0.0
 40
0.0090190842464125
 50
358.7778524404179166
 51
37.53892690120189
  0
ARC
  5
91BC
  8
0
 10
4156.8595468029197946
 20
148.0743199586144101
 30
0.0
 40
0.0049516747405116
 50
257.9026944556867988
 51
307.0473249660968804
  0
ARC
  5
91BD
  8
0
 10
4156.8485003308333035
 20
148.1582367856574933
 30
0.0
 40
0.0584244303899672
 50
212.7397748583277064
 51
242.9255976821636978
  0
ARC
  5
91BE
  8
0
 10
4156.7777364905550712
 20
148.0801056168969012
 30
0.0
 40
0.0513114249536322
 50
30.5863365465353993
 51
65.0790359939949212
  0
ARC
  5
91BF
  8
0
 10
4157.196446487769208
 20
148.1851357058069993
 30
0.0
 40
0.3262019786266301
 50
214.9628573629395873
 51
240.4344758355113925
  0
ARC
  5
91C0
  8
0
 10
4157.0720169346259354
 20
147.9214723708207941
 30
0.0
 40
0.0070697298144822
 50
223.7008033388995045
 51
297.5657650755147756
  0
ARC
  5
91C1
  8
0
 10
4156.7820696625140044
 20
147.7313863354758894
 30
0.0
 40
0.3460732578796828
 50
32.0835889697751071
 51
62.9460673534276225
  0
ARC
  5
91C2
  8
0
 10
4156.9470292929281641
 20
148.0364566775969024
 30
0.0
 40
0.0081801240973581
 50
157.4638912476692951
 51
223.8535393623469076
  0
LINE
  5
91C3
  8
0
 10
4156.9448828505546771
 20
148.0367689898932895
 30
0.0
 11
4156.9287943279960018
 21
148.0111307719373031
 31
0.0
  0
LINE
  5
91C4
  8
0
 10
4157.071926972816982
 20
147.9204615572336081
 30
0.0
 11
4157.0484119394777736
 21
147.9023206867938995
 31
0.0
  0
ARC
  5
91C5
  8
0
 10
4157.0412653657240298
 20
147.9115844054610989
 30
0.0
 40
0.0117
 50
240.4344758353925897
 51
307.6486927413652097
  0
ARC
  5
91C6
  8
0
 10
4156.9387046627280142
 20
148.0049118278531921
 30
0.0
 40
0.0117
 50
147.8908617494485895
 51
214.9628573630255914
  0
ARC
  5
91C7
  8
0
 10
4156.7976919897309926
 20
147.7465449681031089
 30
0.0
 40
0.2870711685128934
 50
34.8184999948120506
 51
61.285543205453898
  0
ARC
  5
91C8
  8
0
 10
4156.9343811409853515
 20
147.9957330772236048
 30
0.0
 40
0.0028597881450741
 50
64.4660538335187425
 51
213.5938982127852057
  0
ARC
  5
91C9
  8
0
 10
4157.0262157515799117
 20
147.9049611529462993
 30
0.0
 40
0.0090190842464125
 50
358.7778524404179166
 51
37.53892690120189
  0
ARC
  5
91CA
  8
0
 10
4157.0322495264827012
 20
147.9087209064981039
 30
0.0
 40
0.0049516747405116
 50
257.9026944556867988
 51
307.0473249660968804
  0
ARC
  5
91CB
  8
0
 10
4157.0212030543962101
 20
147.9926377335413008
 30
0.0
 40
0.0584244303899672
 50
212.7397748583277064
 51
242.9255976821636978
  0
ARC
  5
91CC
  8
0
 10
4156.9504392141188873
 20
147.914506564780595
 30
0.0
 40
0.0513114249536322
 50
30.5863365465353993
 51
65.0790359939949212
  0
ARC
  5
91CD
  8
0
 10
4156.5748655950037573
 20
148.7412634522667076
 30
0.0
 40
0.3262019786266301
 50
214.9628573629395873
 51
240.4344758355113925
  0
ARC
  5
91CE
  8
0
 10
4156.1604887697503727
 20
148.2875140819357114
 30
0.0
 40
0.3460732578796828
 50
53.63297320683332
 51
62.9460673534276225
  0
ARC
  5
91CF
  8
0
 10
4156.3254484001654419
 20
148.5925844240566107
 30
0.0
 40
0.0081801240973581
 50
157.4638912476692951
 51
223.8535393623469076
  0
LINE
  5
91D0
  8
0
 10
4156.3233019577919549
 20
148.5928967363529978
 30
0.0
 11
4156.3072134352350986
 21
148.5672585183972103
 31
0.0
  0
LINE
  5
91D1
  8
0
 10
4156.4391671415442033
 20
148.4679652174646094
 30
0.0
 11
4156.4268310467159608
 21
148.4584484332536931
 31
0.0
  0
ARC
  5
91D2
  8
0
 10
4156.4196844729622171
 20
148.4677121519208072
 30
0.0
 40
0.0117
 50
240.4344758353925897
 51
307.6486927413652097
  0
ARC
  5
91D3
  8
0
 10
4156.3171237699643825
 20
148.5610395743130141
 30
0.0
 40
0.0117
 50
147.8908617494485895
 51
214.9628573630255914
  0
ARC
  5
91D4
  8
0
 10
4156.1761110969691799
 20
148.3026727145627888
 30
0.0
 40
0.2870711685128934
 50
34.8184999948120506
 51
61.285543205453898
  0
ARC
  5
91D5
  8
0
 10
4156.3128002482226293
 20
148.5518608236833131
 30
0.0
 40
0.0028597881450741
 50
64.4660538335187425
 51
213.5938982127852057
  0
ARC
  5
91D6
  8
0
 10
4156.4046348588190085
 20
148.4610888994060076
 30
0.0
 40
0.0090190842464125
 50
358.7778524404179166
 51
37.53892690120189
  0
ARC
  5
91D7
  8
0
 10
4156.410668633719979
 20
148.4648486529578975
 30
0.0
 40
0.0049516747405116
 50
257.9026944556867988
 51
307.0473249660968804
  0
ARC
  5
91D8
  8
0
 10
4156.3996221616343973
 20
148.5487654800010091
 30
0.0
 40
0.0584244303899672
 50
212.7397748583277064
 51
242.9255976821636978
  0
ARC
  5
91D9
  8
0
 10
4156.3288583213561651
 20
148.4706343112405023
 30
0.0
 40
0.0513114249536322
 50
30.5863365465353993
 51
65.0790359939949212
  0
ARC
  5
91DA
  8
0
 10
4156.7097752759336799
 20
148.9993406901477044
 30
0.0
 40
0.6662342279743072
 50
221.9450267263171952
 51
232.3056697373218071
  0
ARC
  5
91DB
  8
0
 10
4156.3527006753865862
 20
148.5080748241906008
 30
0.0
 40
0.0269742594933608
 50
229.9181117740548075
 51
244.4758317858176895
  0
ARC
  5
91DC
  8
0
 10
4155.6014105187468886
 20
147.8100934646809037
 30
0.0
 40
1.000448876611101
 50
42.3251759635441331
 51
51.5296663171880809
  0
ARC
  5
91DD
  8
0
 10
4156.2477156395962083
 20
148.6068400106310889
 30
0.0
 40
0.0274463026740027
 50
209.379010494917793
 51
223.4311015761724946
  0
LINE
  5
91DE
  8
0
 10
4156.228817275730762
 20
148.589361528960211
 30
0.0
 11
4156.213550594339722
 21
148.5688172257125075
 31
0.0
  0
LINE
  5
91DF
  8
0
 10
4156.3366737665091932
 20
148.4885372067878109
 30
0.0
 11
4156.3169846135378975
 21
148.4723748524860127
 31
0.0
  0
ARC
  5
91E0
  8
0
 10
4156.2229415596211766
 20
148.5618387035823957
 30
0.0
 40
0.0117
 50
143.3835829589469881
 51
221.9450267264668071
  0
ARC
  5
91E1
  8
0
 10
4156.3095611461649241
 20
148.4814181998827962
 30
0.0
 40
0.0117
 50
232.3056697371906125
 51
309.3817531927086861
  0
ARC
  5
91E2
  8
0
 10
4157.313688774062939
 20
148.7001397503669011
 30
0.0
 40
0.8613174568962364
 50
226.6999938484196946
 51
234.735163241653396
  0
LINE
  5
91E3
  8
0
 10
4156.720911355161661
 20
148.0877273679251118
 30
0.0
 11
4156.7343670325672065
 21
148.1106859853404103
 31
0.0
  0
LINE
  5
91E4
  8
0
 10
4156.8309268752982462
 20
147.9976867629737001
 30
0.0
 11
4156.8506913181790878
 21
148.0152443369794071
 31
0.0
  0
ARC
  5
91E5
  8
0
 10
4156.8231564936559153
 20
148.0064338292878858
 30
0.0
 40
0.0117
 50
234.735163241653396
 51
311.6160131715304829
  0
ARC
  5
91E6
  8
0
 10
4156.731005462768735
 20
148.081811373367799
 30
0.0
 40
0.0117
 50
149.6261165709537124
 51
226.6999938484196946
  0
LINE
  5
91E7
  8
0
 10
4156.89191870419927
 20
147.9957139013156109
 30
0.0
 11
4156.9059575646388112
 21
148.0208850883149125
 31
0.0
  0
LINE
  5
91E8
  8
0
 10
4157.0346054728033778
 20
147.8837601334865042
 30
0.0
 11
4157.05586292629323
 21
147.9034504734457016
 31
0.0
  0
ARC
  5
91E9
  8
0
 10
4157.0266547657211049
 20
147.8923436209408919
 30
0.0
 40
0.0117
 50
238.2118811376342933
 51
312.808302107913903
  0
ARC
  5
91EA
  8
0
 10
4156.902136874491589
 20
147.9900148666731923
 30
0.0
 40
0.0117
 50
150.8500477124727865
 51
225.5671794462018056
  0
ARC
  5
91EB
  8
0
 10
4156.85308299281769
 20
147.9105736616106981
 30
0.0
 40
0.1223287832310124
 50
52.6136297966297022
 51
67.2441026258178596
  0
ARC
  5
91EC
  8
0
 10
4156.907415947039226
 20
148.0234738620102064
 30
0.0
 40
0.0070160825307081
 50
180.7623296737714895
 51
240.7464056928066043
  0
ARC
  5
91ED
  8
0
 10
4157.058896398007164
 20
147.9098832613507
 30
0.0
 40
0.0117343357449395
 50
235.8998010163905974
 51
271.3052183125806209
  0
ARC
  5
91EE
  8
0
 10
4157.0410642439101139
 20
147.8905540969338119
 30
0.0
 40
0.0196295065491656
 50
22.7719293370487108
 51
51.888056909828542
  0
LINE
  5
91EF
  8
0
 10
4157.0312639302337629
 20
147.8601856260511056
 30
0.0
 11
4157.0439257616189934
 21
147.8838685898159895
 31
0.0
  0
LINE
  5
91F0
  8
0
 10
4157.1770919576156302
 20
147.7515217908953105
 30
0.0
 11
4157.1758070091518675
 21
147.7502868037028918
 31
0.0
  0
ARC
  5
91F1
  8
0
 10
4157.0415818613473675
 20
147.8546692597168999
 30
0.0
 40
0.0117
 50
151.8693109981190048
 51
230.3062703610663107
  0
ARC
  5
91F2
  8
0
 10
4157.1676994799709064
 20
147.7587223220947976
 30
0.0
 40
0.0117
 50
235.1679007644007129
 51
313.8641793156212998
  0
ARC
  5
91F3
  8
0
 10
4156.9334420476698142
 20
147.7073796028437016
 30
0.0
 40
0.2082186676788636
 50
52.1761305310716423
 51
59.6554482833211708
  0
ARC
  5
91F4
  8
0
 10
4157.054496483566254
 20
147.8986008353749071
 30
0.0
 40
0.0196090513247918
 50
216.0071884116441083
 51
234.9096843510363897
  0
ARC
  5
91F5
  8
0
 10
4155.0080459729397262
 20
145.8600417832857943
 30
0.0
 40
2.8601296004522649
 50
48.6381491910480577
 51
54.0685379858181179
  0
ARC
  5
91F6
  8
0
 10
4156.698369853499571
 20
148.1816371404256074
 30
0.0
 40
0.0132375019489771
 50
205.4696198527884121
 51
227.1869339141094031
  0
ARC
  5
91F7
  8
0
 10
4156.6794972076831982
 20
148.1667353886749936
 30
0.0
 40
0.0111574563505188
 50
328.4676591180436844
 51
27.72666965848126
  0
ARC
  5
91F8
  8
0
 10
4156.7009878827957436
 20
148.1545449119668092
 30
0.0
 40
0.0135619691847597
 50
152.055518174227899
 51
231.9001525287619074
  0
ARC
  5
91F9
  8
0
 10
4157.1860546050256744
 20
148.648216257049512
 30
0.0
 40
0.7055782307951204
 50
225.6263970537061994
 51
230.007557141004213
  0
ARC
  5
91FA
  8
0
 10
4156.1183082707357244
 20
147.2412246901849926
 30
0.0
 40
1.0655943608160841
 50
46.236951124632327
 51
55.0204196961965408
  0
ARC
  5
91FB
  8
0
 10
4156.8645747829432366
 20
148.0328083677362088
 30
0.0
 40
0.0238576368123112
 50
231.0501434633247015
 51
247.268742751557113
  0
ARC
  5
91FC
  8
0
 10
4156.7487590258542696
 20
148.1275648920513959
 30
0.0
 40
0.0236206646302292
 50
214.0881854233819013
 51
230.1669023979924873
  0
ARC
  5
91FD
  8
0
 10
4157.4195675623122952
 20
148.732435052720092
 30
0.0
 40
0.9189387377491902
 50
231.539920148178993
 51
235.9393226654420914
  0
ARC
  5
91FE
  8
0
 10
4163.668852959231117
 20
156.4424313313294022
 30
0.0
 40
10.8267717009392399
 50
232.2208007972072039
 51
232.2609438035420055
  0
ARC
  5
91FF
  8
0
 10
4157.3089020744919253
 20
147.8342906067846059
 30
0.0
 40
0.1441838314292597
 50
227.1454953116748925
 51
239.7002111630116872
  0
ARC
  5
9200
  8
0
 10
4157.1331406810477347
 20
147.5974303739984919
 30
0.0
 40
0.152446905594261
 50
47.4870047575800598
 51
59.3587017171329165
  0
ARC
  5
9201
  8
0
 10
4157.1829434405935899
 20
147.8993810232063026
 30
0.0
 40
0.1033964552108849
 50
223.9992050036917135
 51
241.4836009314917078
  0
ARC
  5
9202
  8
0
 10
4157.0632630305672137
 20
147.7420422982798129
 30
0.0
 40
0.0967730803021917
 50
43.3956817971206874
 51
62.0871241380709833
  0
ARC
  5
9203
  8
0
 10
4157.0267553295789185
 20
148.0207166956408003
 30
0.0
 40
0.1132087862487491
 50
224.0398690645548925
 51
239.7306861563706946
  0
ARC
  5
9204
  8
0
 10
4156.8865640066960623
 20
147.8420186571509873
 30
0.0
 40
0.116011484125726
 50
44.2305548329955229
 51
59.5400003879259998
  0
ARC
  5
9205
  8
0
 10
4156.934254877955027
 20
148.2358057864279033
 30
0.0
 40
0.2600055382120404
 50
227.2360093897393085
 51
234.0217842925306968
  0
ARC
  5
9206
  8
0
 10
4156.6274385739334321
 20
147.8618971836602896
 30
0.0
 40
0.2246552786424729
 50
46.7013466191726891
 51
54.5564470630803129
  0
LINE
  5
9207
  8
0
 10
4156.48023594066035
 20
148.3686580852898942
 30
0.0
 11
4156.4589887770798668
 21
148.3515211558753037
 31
0.0
  0
LINE
  5
9208
  8
0
 10
4156.3685817390760349
 20
148.469869606304286
 30
0.0
 11
4156.3533590656679735
 21
148.4463959270053124
 31
0.0
  0
ARC
  5
9209
  8
0
 10
4156.4838130760008426
 20
148.3706070585166117
 30
0.0
 40
0.0067869418757335
 50
212.7244203649092071
 51
272.8688202544291812
  0
ARC
  5
920A
  8
0
 10
4156.0825104719970113
 20
148.0420894993935121
 30
0.0
 40
0.5146188781198667
 50
38.6967828978195314
 51
56.9038968269944334
  0
ARC
  5
920B
  8
0
 10
4156.3730046009095531
 20
148.4736672599183009
 30
0.0
 40
0.0094998679616432
 50
182.7318594703783106
 51
227.0677614158977065
  0
ARC
  5
920C
  8
0
 10
4156.6733838274412847
 20
148.6966724910350024
 30
0.0
 40
0.4143096938978549
 50
219.6017533837016913
 51
236.581004489976408
  0
ARC
  5
920D
  8
0
 10
4157.0197454686631318
 20
148.9705872779396998
 30
0.0
 40
0.8535746139258626
 50
224.0076984385478909
 51
233.3173328084488105
  0
ARC
  5
920E
  8
0
 10
4156.4174716945562977
 20
148.3867481793060108
 30
0.0
 40
0.0148413257635545
 50
196.4317488573414892
 51
218.2400298259256886
  0
LINE
  5
920F
  8
0
 10
4156.5248213541017321
 20
148.2869002707492996
 30
0.0
 11
4156.5434699533916501
 21
148.3043628053891041
 31
0.0
  0
ARC
  5
9210
  8
0
 10
4156.6478941181712798
 20
148.5630410659904044
 30
0.0
 40
0.2656912946607532
 50
228.8683273406915077
 51
241.8984379691509901
  0
ARC
  5
9211
  8
0
 10
4156.5280368853946129
 20
148.3385831441310074
 30
0.0
 40
0.0112367507164917
 50
241.8984379691509901
 51
313.5608253661608842
  0
ARC
  5
9212
  8
0
 10
4156.5422138859012193
 20
148.3236754303210034
 30
0.0
 40
0.0093357375709091
 50
85.1804500324127645
 51
133.5608253661607989
  0
ARC
  5
9213
  8
0
 10
4156.5408114873644081
 20
148.3070427748361908
 30
0.0
 40
0.0260274106485392
 50
64.5396376078871157
 51
85.1804500324127645
  0
ARC
  5
9214
  8
0
 10
4155.9093644103859333
 20
147.8314344834842871
 30
0.0
 40
0.8136889490221255
 50
37.8349680927378031
 51
50.4560375027039996
  0
ARC
  5
9215
  8
0
 10
4163.6688529301673043
 20
156.4424312937958064
 30
0.0
 40
10.8267716534691001
 50
227.3224378452349015
 51
227.5353541289871089
  0
ARC
  5
9216
  8
0
 10
4156.336156422885324
 20
148.5105033343060938
 30
0.0
 40
0.0156628540609878
 50
134.719115195973103
 51
203.0675680947261128
  0
ARC
  5
9217
  8
0
 10
4156.3170852823359382
 20
148.5271475199230906
 30
0.0
 40
0.0097580081308425
 50
325.5874690130979729
 51
15.9140655267818403
  0
ARC
  5
9218
  8
0
 10
4156.3631755803362466
 20
148.4400299204270937
 30
0.0
 40
0.0117
 50
147.0366042881844919
 51
219.6017533836991902
  0
ARC
  5
9219
  8
0
 10
4156.451643522802442
 20
148.3606281443786088
 30
0.0
 40
0.0117
 50
236.5810044900387936
 51
308.8879603891313081
  0
ARC
  5
921A
  8
0
 10
4156.5168242474946965
 20
148.2954405450958859
 30
0.0
 40
0.0117
 50
233.3173328085129867
 51
313.1188051882256786
  0
LINE
  5
921B
  8
0
 10
4156.6426999924651682
 20
148.1587916681359047
 30
0.0
 11
4156.5389423047654418
 21
148.2478989022152973
 31
0.0
  0
LINE
  5
921C
  8
0
 10
4156.5370995530820437
 20
148.2636520224230026
 30
0.0
 11
4156.5517312373485765
 21
148.2837907721716988
 31
0.0
  0
LINE
  5
921D
  8
0
 10
4156.6584502295590937
 20
148.1592514102854921
 30
0.0
 11
4156.6764228558304239
 21
148.1766073442053084
 31
0.0
  0
ARC
  5
921E
  8
0
 10
4156.6503227337780118
 20
148.1676676928580889
 30
0.0
 40
0.0117
 50
229.3439739177640888
 51
313.9999512967630722
  0
ARC
  5
921F
  8
0
 10
4156.5465650460801044
 20
148.256774926937311
 30
0.0
 40
0.0117
 50
143.9999513701986871
 51
229.3439739177651973
  0
ARC
  5
9220
  8
0
 10
4257.0752393379989371
 20
265.1014837159622175
 30
0.0
 40
154.1147269587538062
 50
229.2797475717885902
 51
229.3554735300357095
  0
ARC
  5
9221
  8
0
 10
4156.37966132553629
 20
148.1629829071806057
 30
0.0
 40
0.2163828601758808
 50
39.1087169142620823
 51
53.523427840899231
  0
ARC
  5
9222
  8
0
 10
4156.5511626754660028
 20
148.3115026263913023
 30
0.0
 40
0.012553686059865
 50
222.9067949903862029
 51
253.3403130668226879
  0
LINE
  5
9223
  8
0
 10
4156.3939012005794211
 20
148.3770995537769863
 30
0.0
 11
4156.4816582129569724
 21
148.2988487205115007
 31
0.0
  0
ARC
  5
9224
  8
0
 10
4156.4059031406386566
 20
148.3864846495418988
 30
0.0
 40
0.0152357010901498
 50
156.2712648449160042
 51
218.0241592583014096
  0
ARC
  5
9225
  8
0
 10
4156.4905643441270513
 20
148.3136257438077052
 30
0.0
 40
0.017253393576898
 50
238.9225753019042031
 51
286.2341151688842729
  0
ARC
  5
9226
  8
0
 10
4157.0182754462912271
 20
148.5612025105018859
 30
0.0
 40
0.5032161169936658
 50
220.6121828700999004
 51
239.1199559077041954
  0
LINE
  5
9227
  8
0
 10
4156.7736621370549983
 20
148.1305124459603064
 30
0.0
 11
4156.778974063104215
 21
148.1351065494685031
 31
0.0
  0
ARC
  5
9228
  8
0
 10
4156.0989570075726078
 20
147.4714923847753028
 30
0.0
 40
0.9758357265092164
 50
47.1562116420576629
 51
52.9336713121179798
  0
LINE
  5
9229
  8
0
 10
4156.6351258604190662
 20
148.2472919631443062
 30
0.0
 11
4156.647174063436978
 21
148.2673034220678119
 31
0.0
  0
ARC
  5
922A
  8
0
 10
4156.6451493834947541
 20
148.2412571487190007
 30
0.0
 40
0.0117
 50
148.9493174083837062
 51
220.6121828698659044
  0
ARC
  5
922B
  8
0
 10
4156.7660085543839159
 20
148.1393618907036114
 30
0.0
 40
0.0117
 50
239.1199559078868901
 51
310.8554090069516747
  0
ARC
  5
922C
  8
0
 10
4156.7501447129179724
 20
148.2430461938338908
 30
0.0
 40
0.0810842372022981
 50
218.8330325886834089
 51
240.7996762425715929
  0
ARC
  5
922D
  8
0
 10
4156.6517549424461322
 20
148.1265501901017956
 30
0.0
 40
0.0745058076447945
 50
37.8495267627477077
 51
61.7831820685175899
  0
ARC
  5
922E
  8
0
 10
4156.400442261417993
 20
148.6654501360347922
 30
0.0
 40
0.2095236623051461
 50
222.2056538201524063
 51
231.4376956945488075
  0
ARC
  5
922F
  8
0
 10
4156.077735362346175
 20
148.321541572124886
 30
0.0
 40
0.2633030832470645
 50
43.1499316609944401
 51
50.4934178537065321
  0
ARC
  5
9230
  8
0
 10
4156.530741884703275
 20
149.0512882260821073
 30
0.0
 40
0.5722432005159453
 50
219.0324449335780059
 51
233.0505218568611099
  0
ARC
  5
9231
  8
0
 10
4155.6362364429478475
 20
148.125155131112507
 30
0.0
 40
0.7599903760538567
 50
39.2740514654745709
 51
52.6563099939620187
  0
LINE
  5
9232
  8
0
 10
4156.2014682560102301
 20
148.5944901994218981
 30
0.0
 11
4156.22057297241372
 21
148.6110935963768043
 31
0.0
  0
LINE
  5
9233
  8
0
 10
4156.0862243483561542
 20
148.7056423065212982
 30
0.0
 11
4156.1022824027722891
 21
148.7254771572166021
 31
0.0
  0
ARC
  5
9234
  8
0
 10
4156.0953178284789828
 20
148.6982803353685085
 30
0.0
 40
0.0117
 50
141.0067889003119035
 51
219.0324449334945882
  0
ARC
  5
9235
  8
0
 10
4156.1937934395473349
 20
148.603321235164799
 30
0.0
 40
0.0117
 50
233.0505218569263093
 51
310.9930303608820736
  0
ARC
  5
9236
  8
0
 10
4156.109782357451877
 20
148.7326495948184117
 30
0.0
 40
0.0129650373160629
 50
194.716677012915909
 51
225.1809390483676054
  0
ARC
  5
9237
  8
0
 10
4156.2259964846489311
 20
148.6159172474307013
 30
0.0
 40
0.0097705052929746
 50
221.4809010097010002
 51
261.5781755744208112
  0
ARC
  5
9238
  8
0
 10
4157.6376847648125477
 20
150.3331306351373087
 30
0.0
 40
2.2414926766011352
 50
225.7491094273487988
 51
226.3555026799369898
  0
ARC
  5
9239
  8
0
 10
4165.5159271521470146
 20
158.2263270640218877
 30
0.0
 40
13.3920651817501408
 50
225.9622514829846125
 51
226.0637648804716946
  0
LINE
  5
923A
  8
0
 10
4156.1467522569819266
 20
148.769395523837801
 30
0.0
 11
4156.1632772210523399
 21
148.7940112629713099
 31
0.0
  0
LINE
  5
923B
  8
0
 10
4156.2629627131682355
 20
148.6571171177454005
 30
0.0
 11
4156.2879644832219128
 21
148.6751980645987032
 31
0.0
  0
ARC
  5
923C
  8
0
 10
4156.4235332957650826
 20
148.9395727106503102
 30
0.0
 40
0.3319297414491672
 50
213.4896547506556885
 51
238.4774916831443932
  0
ARC
  5
923D
  8
0
 10
4156.2561064659112162
 20
148.6665977228701081
 30
0.0
 40
0.0117
 50
238.4774916830222935
 51
305.8739524875907136
  0
ARC
  5
923E
  8
0
 10
4156.1564663457829738
 20
148.7628742909184041
 30
0.0
 40
0.0117
 50
146.1258667401598075
 51
213.4896547507659932
  0
ARC
  5
923F
  8
0
 10
4155.9994705868039091
 20
148.4972736449219042
 30
0.0
 40
0.3389481190224328
 50
30.5635766325917615
 51
62.2068408517125135
  0
ARC
  5
9240
  8
0
 10
4156.2875508793067638
 20
148.6760204480532082
 30
0.0
 40
0.007425558852129
 50
222.9035690172320017
 51
300.5668974829636113
  0
ARC
  5
9241
  8
0
 10
4156.1682026606285945
 20
148.7954553796083985
 30
0.0
 40
0.0108157977292995
 50
171.1489047539342039
 51
218.4472889654396965
  0
ARC
  5
9242
  8
0
 10
4156.2395552579691866
 20
148.7487192219456063
 30
0.0
 40
0.0592506129500716
 50
209.2099437331420972
 51
242.9744652852722027
  0
ARC
  5
9243
  8
0
 10
4156.1449602340317142
 20
148.6504472122913114
 30
0.0
 40
0.0815413892118836
 50
33.9101671829622617
 51
58.274241835456607
  0
ARC
  5
9244
  8
0
 10
4156.2328902586978074
 20
148.743135920708113
 30
0.0
 40
0.1407762916134843
 50
219.2143414958088101
 51
232.9419105825776057
  0
ARC
  5
9245
  8
0
 10
4156.0144700914388523
 20
148.5163371468975981
 30
0.0
 40
0.1759120839469738
 50
40.5900194854551728
 51
51.566232592989742
  0
LINE
  5
9246
  8
0
 10
4155.6499313725862521
 20
150.9740201358000888
 30
0.0
 11
4155.5416585961256715
 21
150.8638413055828096
 31
0.0
  0
ARC
  5
9247
  8
0
 10
4149.7619913535700107
 20
142.0414880815150127
 30
0.0
 40
10.82677608800077
 50
54.3898567360406417
 51
55.778869088229392
  0
ARC
  5
9248
  8
0
 10
4155.7622681442344401
 20
150.8636267495134007
 30
0.0
 40
0.1575
 50
55.778869088229392
 51
135.4999096423939875
  0
LINE
  5
9249
  8
0
 10
4156.1525816678877163
 20
150.8654330071935021
 30
0.0
 11
4156.1215608274651458
 21
150.8362005109657105
 31
0.0
  0
LINE
  5
924A
  8
0
 10
4156.3848666311441775
 20
150.6939588576973961
 30
0.0
 11
4156.3637183744131107
 21
150.6518380692394032
 31
0.0
  0
ARC
  5
924B
  8
0
 10
4155.0227223939109535
 20
149.0917666294390926
 30
0.0
 40
2.103345381491434
 50
49.6428685832792311
 51
57.4888800665053594
  0
ARC
  5
924C
  8
0
 10
4156.3844197910048024
 20
150.6941832098588065
 30
0.0
 40
0.0005
 50
333.3394150203909021
 51
49.6428685834134882
  0
ARC
  5
924D
  8
0
 10
4156.1529245766605527
 20
150.8650691204341001
 30
0.0
 40
0.0005
 50
57.4888800671233398
 51
133.2999364297313889
  0
ARC
  5
924E
  8
0
 10
4156.7223731550666344
 20
151.3795562615285064
 30
0.0
 40
0.7674536204294125
 50
222.0599579977134113
 51
243.7879286636961922
  0
ARC
  5
924F
  8
0
 10
4156.7448579359152063
 20
150.8878222286863036
 30
0.0
 40
0.444081173842683
 50
211.4302537582289858
 51
234.7024568181765005
  0
ARC
  5
9250
  8
0
 10
4149.2473034499798814
 20
141.4028272769016041
 30
0.0
 40
11.6469904178721606
 50
49.8535098331493174
 51
51.5594878910640873
  0
LINE
  5
9251
  8
0
 10
4155.8508305243612995
 20
150.9938686583838034
 30
0.0
 11
4158.4964452698386594
 21
148.4390200875760115
 31
0.0
  0
ARC
  5
9252
  8
0
 10
4156.3784441644947947
 20
150.9039933630755002
 30
0.0
 40
0.2130273698873352
 50
243.4310590579212032
 51
271.3311084561977964
  0
ARC
  5
9253
  8
0
 10
4156.9727113964281671
 20
152.4060967730285938
 30
0.0
 40
1.827700453800073
 50
240.9267733925804009
 51
247.8348994927947047
  0
ARC
  5
9254
  8
0
 10
4156.4499069118055559
 20
151.492386058264799
 30
0.0
 40
0.7751809337820698
 50
231.7554747483962103
 51
241.8828105493055887
  0
ARC
  5
9255
  8
0
 10
4156.8889617629220083
 20
151.880409263322008
 30
0.0
 40
1.3557517270886661
 50
227.3292998057528109
 51
232.6318285952102087
  0
ARC
  5
9256
  8
0
 10
4158.6161580631578545
 20
153.9472562121939916
 30
0.0
 40
4.0484045995212492
 50
230.9580082823181044
 51
237.9912472050903887
  0
ARC
  5
9257
  8
0
 10
4156.7754796297986104
 20
150.8609762281724898
 30
0.0
 40
0.4618290819764127
 50
206.9265258044787004
 51
228.6395901609755015
  0
ARC
  5
9258
  8
0
 10
4156.1055419090762371
 20
150.8668600619932079
 30
0.0
 40
0.0345921062620533
 50
246.4020912666709933
 51
297.5860444400094025
  0
ARC
  5
9259
  8
0
 10
4156.2181218259565867
 20
151.2606588840118036
 30
0.0
 40
0.4438836708853068
 50
233.0181730241974947
 51
253.4518124091366076
  0
ARC
  5
925A
  8
0
 10
4156.023678078505327
 20
150.9480004788781002
 30
0.0
 40
0.083819616626766
 50
210.014019515496301
 51
230.2275119855578964
  0
ARC
  5
925B
  8
0
 10
4155.7141304237538861
 20
150.0141410395237926
 30
0.0
 40
0.9293027695623839
 50
63.3662132394260809
 51
73.369357344925362
  0
ARC
  5
925C
  8
0
 10
4156.6643735604711765
 20
150.322038367546611
 30
0.0
 40
0.0124507363915019
 50
246.4606215728734071
 51
301.5998351961429194
  0
ARC
  5
925D
  8
0
 10
4157.2100441728798614
 20
151.5746399120548062
 30
0.0
 40
1.3787475733016461
 50
241.3027604053810933
 51
246.4606215728734071
  0
ARC
  5
925E
  8
0
 10
4156.8913591975642703
 20
150.4892879212684136
 30
0.0
 40
0.3650826442152253
 50
199.8626818900627882
 51
216.2863751339432952
  0
ARC
  5
925F
  8
0
 10
4156.6955519944867774
 20
150.3171386562009957
 30
0.0
 40
0.0111456256965471
 50
46.0842062035065965
 51
123.1939861213948006
  0
ARC
  5
9260
  8
0
 10
4157.5557230551030443
 20
151.2104956329434913
 30
0.0
 40
1.2290079701996981
 50
226.0842062035065965
 51
231.5293297822487943
  0
ARC
  5
9261
  8
0
 10
4157.4103847614433107
 20
150.7890842133805052
 30
0.0
 40
0.8221565238355344
 50
221.132044118664794
 51
229.7210552212227981
  0
ARC
  5
9262
  8
0
 10
4157.1528578210436535
 20
150.4862076045685058
 30
0.0
 40
0.4245970549374395
 50
229.8096096963184891
 51
237.7809564289460127
  0
ARC
  5
9263
  8
0
 10
4156.9607956992986146
 20
150.190344171624389
 30
0.0
 40
0.0720489668787627
 50
241.5577287810934877
 51
265.5777844012018818
  0
ARC
  5
9264
  8
0
 10
4156.9324762527530766
 20
150.1253551384421883
 30
0.0
 40
0.0237710488717741
 50
343.2633116837009766
 51
36.6572218559354326
  0
ARC
  5
9265
  8
0
 10
4157.0065010127418645
 20
150.4856020910831944
 30
0.0
 40
0.3204772898108985
 50
215.348964004869913
 51
227.7783362583114126
  0
ARC
  5
9266
  8
0
 10
4156.7529855502953069
 20
150.2732670138098001
 30
0.0
 40
0.0280508661657629
 50
55.0319683225310428
 51
106.3144722982335963
  0
ARC
  5
9267
  8
0
 10
4156.3574240235238904
 20
149.6323384081833012
 30
0.0
 40
0.7811719752349827
 50
40.5925130373967491
 51
58.20043841270504
  0
ARC
  5
9268
  8
0
 10
4156.8555974962746404
 20
150.0575451460138083
 30
0.0
 40
0.1262157436682815
 50
8.6698256039491728
 51
41.1670390015148797
  0
ARC
  5
9269
  8
0
 10
4156.9501567599099872
 20
150.0701489759306071
 30
0.0
 40
0.0308892105913014
 50
304.0601789971531161
 51
11.9994891084170501
  0
ARC
  5
926A
  8
0
 10
4156.9696328766240185
 20
150.288136656667092
 30
0.0
 40
0.2435875617930618
 50
235.3596770151899022
 51
269.4881148967539275
  0
ARC
  5
926B
  8
0
 10
4157.29432434627779
 20
150.9112599954401048
 30
0.0
 40
0.9448356892457233
 50
229.2530923274196937
 51
240.6467060479425868
  0
ARC
  5
926C
  8
0
 10
4156.9425835227111747
 20
150.1048106294574893
 30
0.0
 40
0.0766453991042977
 50
253.0265567754505867
 51
285.6106539612853226
  0
ARC
  5
926D
  8
0
 10
4157.1186709239163974
 20
150.6356943424312931
 30
0.0
 40
0.6359507956971857
 50
237.5518297904409906
 51
251.8158628803751071
  0
LINE
  5
926E
  8
0
 10
4156.9632087162872267
 20
150.0309924840335896
 30
0.0
 11
4156.9764208185588359
 21
150.0538903611652017
 31
0.0
  0
ARC
  5
926F
  8
0
 10
4156.7525037839996003
 20
150.2897891362028986
 30
0.0
 40
0.0127622352324267
 50
125.4278501428827042
 51
130.393774619128493
  0
ARC
  5
9270
  8
0
 10
4156.7468263299451792
 20
150.3323412678253987
 30
0.0
 40
0.0329345325260254
 50
241.063894650481501
 51
265.4844078443808826
  0
ARC
  5
9271
  8
0
 10
4156.5117472301399175
 20
150.0524766771902989
 30
0.0
 40
0.3332357946637516
 50
48.880992872452012
 51
54.9161712460326115
  0
ARC
  5
9272
  8
0
 10
4156.9456513707946215
 20
150.3153396303611089
 30
0.0
 40
0.1519153774913684
 50
212.0150150274218959
 51
247.3053629827979876
  0
ARC
  5
9273
  8
0
 10
4156.7176280334533658
 20
150.0468421632604077
 30
0.0
 40
0.2125381586540139
 50
37.1471794960394206
 51
62.1731985141261703
  0
LINE
  5
9274
  8
0
 10
4156.6708975403562363
 20
150.3114337212462885
 30
0.0
 11
4156.6894500386888467
 21
150.3264655585603009
 31
0.0
  0
ARC
  5
9275
  8
0
 10
4156.8719921999227154
 20
150.2973103187889024
 30
0.0
 40
0.0037423532025743
 50
53.5204064669299768
 51
134.7047861833436002
  0
ARC
  5
9276
  8
0
 10
4155.8732377384540086
 20
148.9465652688830062
 30
0.0
 40
1.6836300471134771
 50
44.383274619830992
 51
53.5204064669299768
  0
ARC
  5
9277
  8
0
 10
4157.0724811314739782
 20
150.1202655741103058
 30
0.0
 40
0.0056082587580078
 50
317.5472935946696111
 51
44.383274619830992
  0
ARC
  5
9278
  8
0
 10
4157.6986081925615508
 20
151.0301570354149021
 30
0.0
 40
1.1052945160777841
 50
221.2475340496773129
 51
235.754772745533387
  0
ARC
  5
9279
  8
0
 10
4156.8284010981406027
 20
150.2535939745222038
 30
0.0
 40
0.0618212167916222
 50
50.6821079899017377
 51
63.8249882291329271
  0
ARC
  5
927A
  8
0
 10
4156.8473211054151761
 20
150.2967170954111111
 30
0.0
 40
0.0149149555672334
 50
55.9541601293260484
 51
121.5028485352685976
  0
ARC
  5
927B
  8
0
 10
4157.0468326519130642
 20
150.0326101704733048
 30
0.0
 40
0.3458421254423691
 50
126.8284801754145974
 51
131.9827708722681905
  0
ARC
  5
927C
  8
0
 10
4156.811591590892931
 20
150.3911871195732886
 30
0.0
 40
0.1015716731451686
 50
237.2417238126894858
 51
272.2032125131740941
  0
ARC
  5
927D
  8
0
 10
4156.7089306970037796
 20
150.3153888998947991
 30
0.0
 40
0.0387758016918539
 50
82.6941769957136756
 51
103.1254209751688933
  0
ARC
  5
927E
  8
0
 10
4156.6172021546908582
 20
149.9540113536995136
 30
0.0
 40
0.4113561956924176
 50
58.3824675291352833
 51
76.4096988276699562
  0
ARC
  5
927F
  8
0
 10
4157.0391466720002427
 20
150.0890624961548099
 30
0.0
 40
0.0504725857443984
 50
8.1577001142477759
 51
39.6715926083845929
  0
ARC
  5
9280
  8
0
 10
4157.0696733744662197
 20
150.0943724247763953
 30
0.0
 40
0.019523208243552
 50
325.7457927999654999
 51
5.4434607837115259
  0
ARC
  5
9281
  8
0
 10
4157.0703568424542027
 20
150.1093724433310115
 30
0.0
 40
0.0302363019919119
 50
247.9211941856839019
 51
300.736323312880927
  0
ARC
  5
9282
  8
0
 10
4157.1869407110943939
 20
150.5007353630998068
 30
0.0
 40
0.4384657118849026
 50
239.2975005328208908
 51
253.0335885031350927
  0
ARC
  5
9283
  8
0
 10
4156.6526557282650174
 20
149.6973780320861067
 30
0.0
 40
0.5664250554626995
 50
28.2505816304455699
 51
41.2801059619982595
  0
ARC
  5
9284
  8
0
 10
4157.1466652911303754
 20
149.9628254079366911
 30
0.0
 40
0.0056151433291448
 50
292.6376897907745729
 51
28.2505816304441417
  0
LINE
  5
9285
  8
0
 10
4157.1488265740426868
 20
149.9576428708404023
 30
0.0
 11
4157.4551857421283785
 21
149.6617944084439102
 31
0.0
  0
ARC
  5
9286
  8
0
 10
4157.710164896934657
 20
150.4212937166745121
 30
0.0
 40
0.7362839151082138
 50
209.612355778234587
 51
222.2215521208983091
  0
ARC
  5
9287
  8
0
 10
4158.0852403897988552
 20
151.2861935474778079
 30
0.0
 40
1.6418727359631651
 50
227.7373583773947132
 51
235.9069934833063087
  0
LINE
  5
9288
  8
0
 10
4157.0700482085021576
 20
150.0574742163202018
 30
0.0
 11
4157.0858102514021084
 21
150.0833834820201957
 31
0.0
  0
ARC
  5
9289
  8
0
 10
4158.4733310850397174
 20
151.3465396380370009
 30
0.0
 40
1.9192046346277181
 50
224.6351273748119013
 51
226.3594421844013027
  0
ARC
  5
928A
  8
0
 10
4157.1211153261938307
 20
150.8961718736339037
 30
0.0
 40
0.7261287585539273
 50
221.1803722389857114
 51
232.6283268791721923
  0
ARC
  5
928B
  8
0
 10
4156.2336015806249634
 20
149.8282039646254873
 30
0.0
 40
0.6813352720678103
 50
47.2164759114704893
 51
59.9677382818088489
  0
ARC
  5
928C
  8
0
 10
4155.8457731013786542
 20
149.0575471086631012
 30
0.0
 40
1.545225495768427
 50
53.8808504510590609
 51
57.7501290291070575
  0
ARC
  5
928D
  8
0
 10
4156.7797578323807102
 20
150.422852064581889
 30
0.0
 40
0.124070444547293
 50
208.1126973738402057
 51
230.9312159985192068
  0
LINE
  5
928E
  8
0
 10
4158.4836148552803934
 20
148.2375571652588064
 30
0.0
 11
4158.3758266569138868
 21
148.1239722969779109
 31
0.0
  0
ARC
  5
928F
  8
0
 10
4149.7619953759758573
 20
142.0414841971117994
 30
0.0
 40
10.82677608800077
 50
36.2209919697343778
 51
37.6100043219260769
  0
ARC
  5
9290
  8
0
 10
4158.3693684837780893
 20
148.3459731078066
 30
0.0
 40
0.1575
 50
316.4999514156448868
 51
36.2209919697343778
  0
LINE
  5
9291
  8
0
 10
4158.3575528416859015
 20
148.7361119291460909
 30
0.0
 11
4158.3294206871705683
 21
148.7040898545972993
 31
0.0
  0
LINE
  5
9292
  8
0
 10
4158.1780770697369007
 20
148.9622714643919039
 30
0.0
 11
4158.1367199488222468
 21
148.9396661965816122
 31
0.0
  0
ARC
  5
9293
  8
0
 10
4156.6243955652371369
 20
147.5450450739054133
 30
0.0
 40
2.103345381491434
 50
34.5109809914825831
 51
42.3569924746997302
  0
ARC
  5
9294
  8
0
 10
4158.1783168786596434
 20
148.9618327256542045
 30
0.0
 40
0.0005
 50
42.3569924746188988
 51
118.6604460376247943
  0
ARC
  5
9295
  8
0
 10
4158.3571772100549424
 20
148.7364419304742
 30
0.0
 40
0.0005
 50
318.6999246281937985
 51
34.5109809908478624
  0
ARC
  5
9296
  8
0
 10
4158.8514788943075473
 20
149.3234977597994089
 30
0.0
 40
0.7674536204294125
 50
208.2119323942856965
 51
229.9399030602577909
  0
ARC
  5
9297
  8
0
 10
4158.3592597178958385
 20
149.3288087668991011
 30
0.0
 40
0.444081173842683
 50
217.2974042397956964
 51
240.5696072997670001
  0
ARC
  5
9298
  8
0
 10
4149.1416846736592561
 20
141.5048223910930858
 30
0.0
 40
11.6469904178721606
 50
40.4403731669166078
 51
42.1463512248208687
  0
ARC
  5
9299
  8
0
 10
4158.3882077708321958
 20
148.9631824990993039
 30
0.0
 40
0.2130273698873352
 50
180.6687526018019128
 51
208.5688020000432061
  0
ARC
  5
929A
  8
0
 10
4159.8686580800103911
 20
149.6095067824089142
 30
0.0
 40
1.827700453800073
 50
204.1649615652193859
 51
211.0730876654293979
  0
ARC
  5
929B
  8
0
 10
4158.9737482421624009
 20
149.0551349022285024
 30
0.0
 40
0.7751809337820698
 50
210.1170505086697915
 51
220.2443863095296877
  0
ARC
  5
929C
  8
0
 10
4159.3462133775310576
 20
149.507463204331998
 30
0.0
 40
1.3557517270886661
 50
219.3680324627943037
 51
224.670561252206511
  0
ARC
  5
929D
  8
0
 10
4161.3515273383100066
 20
151.3057343986525041
 30
0.0
 40
4.0484045995212492
 50
214.0086138529065067
 51
221.0418527756849016
  0
ARC
  5
929E
  8
0
 10
4158.3313614614753533
 20
149.3584749626207042
 30
0.0
 40
0.4618290819764127
 50
223.3602708969484922
 51
245.0733352535334006
  0
ARC
  5
929F
  8
0
 10
4158.3606205771902751
 20
148.6891506217382926
 30
0.0
 40
0.0345921062620533
 50
154.4138166180038922
 51
205.5977697912869075
  0
ARC
  5
92A0
  8
0
 10
4158.7502508313336875
 20
148.8154043938174027
 30
0.0
 40
0.4438836708853068
 50
198.5480486488173142
 51
218.9816880337918974
  0
ARC
  5
92A1
  8
0
 10
4158.4445683804788132
 20
148.6101682165405862
 30
0.0
 40
0.083819616626766
 50
221.7723490724609121
 51
241.9858415425156863
  0
ARC
  5
92A2
  8
0
 10
4157.5220800511942798
 20
148.2682201424617858
 30
0.0
 40
0.9293027695623839
 50
18.6305037130159903
 51
28.6336478185628494
  0
ARC
  5
92A3
  8
0
 10
4157.7966291382554118
 20
149.2286292127427032
 30
0.0
 40
0.0124507363915019
 50
150.4000258618237069
 51
205.5392394850989888
  0
ARC
  5
92A4
  8
0
 10
4159.0294254304581045
 20
149.8176795913059891
 30
0.0
 40
1.3787475733016461
 50
205.5392394851004951
 51
210.6971006525450036
  0
ARC
  5
92A5
  8
0
 10
4157.9558556878337185
 20
149.4613131154424082
 30
0.0
 40
0.3650826442152253
 50
235.713485924025008
 51
252.1371791679158036
  0
ARC
  5
92A6
  8
0
 10
4157.7906443751726329
 20
149.259617670751112
 30
0.0
 40
0.0111456256965471
 50
328.8058749365986273
 51
45.9156548544969567
  0
ARC
  5
92A7
  8
0
 10
4158.6534397661353069
 20
150.1504403549884898
 30
0.0
 40
1.2290079701996981
 50
220.4705312757212141
 51
225.9156548544958127
  0
ARC
  5
92A8
  8
0
 10
4158.2373569044284523
 20
149.9904845600426881
 30
0.0
 40
0.8221565238355344
 50
222.2788058367351027
 51
230.8678169393641895
  0
ARC
  5
92A9
  8
0
 10
4157.9436517107160398
 20
149.7225449691188999
 30
0.0
 40
0.4245970549374395
 50
214.2189046290220062
 51
222.190251361660188
  0
ARC
  5
92AA
  8
0
 10
4157.6546708906616914
 20
149.5202750623041936
 30
0.0
 40
0.0720489668787627
 50
186.4220766567705994
 51
210.4421322769418907
  0
ARC
  5
92AB
  8
0
 10
4157.5907097073431942
 20
149.4897049377555049
 30
0.0
 40
0.0237710488717741
 50
55.3426392020625499
 51
108.7365493742604059
  0
ARC
  5
92AC
  8
0
 10
4157.948153990292667
 20
149.5762561743958088
 30
0.0
 40
0.3204772898108985
 50
224.2215247996907124
 51
236.6508970530956049
  0
ARC
  5
92AD
  8
0
 10
4157.7447951914891746
 20
149.3154852525327101
 30
0.0
 40
0.0280508661657629
 50
345.6853887597532093
 51
36.9678927354307021
  0
ARC
  5
92AE
  8
0
 10
4157.1180609075590837
 20
148.897798125223801
 30
0.0
 40
0.7811719752349827
 50
33.7994226452655511
 51
51.4073480205795903
  0
ARC
  5
92AF
  8
0
 10
4157.5256238607844352
 20
149.4105066369641008
 30
0.0
 40
0.1262157436682815
 50
50.8328220564697872
 51
83.3300354540472057
  0
ARC
  5
92B0
  8
0
 10
4157.5349201723092847
 20
149.5054481424280937
 30
0.0
 40
0.0308892105913014
 50
80.0003719495487644
 51
147.9396820608147891
  0
ARC
  5
92B1
  8
0
 10
4157.7520954198189429
 20
149.5325195285145981
 30
0.0
 40
0.2435875617930618
 50
182.5117461612213106
 51
216.64018404280651
  0
ARC
  5
92B2
  8
0
 10
4158.3635084394445585
 20
149.8787584131316919
 30
0.0
 40
0.9448356892457233
 50
211.3531550100165077
 51
222.7467687305617972
  0
ARC
  5
92B3
  8
0
 10
4157.5698249976376246
 20
149.4990891082609039
 30
0.0
 40
0.0766453991042977
 50
166.3892070967121981
 51
198.9733042825681935
  0
ARC
  5
92B4
  8
0
 10
4158.0942404205998173
 20
149.6935955444643014
 30
0.0
 40
0.6359507956971857
 50
200.1839981775744945
 51
214.448031267561305
  0
LINE
  5
92B5
  8
0
 10
4157.4953320550976059
 20
149.5171257020479061
 30
0.0
 11
4157.5177549216987245
 21
149.5311288258783975
 31
0.0
  0
ARC
  5
92B6
  8
0
 10
4157.7613240626851621
 20
149.3155803533911126
 30
0.0
 40
0.0127622352324267
 50
321.6060864388517757
 51
326.5720109151146175
  0
ARC
  5
92B7
  8
0
 10
4157.8040484028279025
 20
149.3113913022577037
 30
0.0
 40
0.0329345325260254
 50
186.5154532135730108
 51
210.9359664074800946
  0
ARC
  5
92B8
  8
0
 10
4157.5325578470046821
 20
149.0666889312948911
 30
0.0
 40
0.3332357946637516
 50
37.0836898118993403
 51
43.1188681855540707
  0
ARC
  5
92B9
  8
0
 10
4157.7801187088607549
 20
149.5095019337061046
 30
0.0
 40
0.1519153774913684
 50
204.6944980751914898
 51
239.9848460305805986
  0
ARC
  5
92BA
  8
0
 10
4157.5197421275315719
 20
149.2722477069627871
 30
0.0
 40
0.2125381586540139
 50
29.8266625438115582
 51
54.8526815619596135
  0
LINE
  5
92BB
  8
0
 10
4157.7858032833191828
 20
149.2347791478300962
 30
0.0
 11
4157.8001785370233847
 21
149.2538449131772893
 31
0.0
  0
ARC
  5
92BC
  8
0
 10
4157.7646708682095777
 20
149.4352584575723029
 30
0.0
 40
0.0037423532025743
 50
317.2950748746811769
 51
38.4794545910388308
  0
ARC
  5
92BD
  8
0
 10
4156.4496021489158011
 20
148.3899752769517022
 30
0.0
 40
1.6836300471134771
 50
38.4794545910388308
 51
47.616586438173897
  0
ARC
  5
92BE
  8
0
 10
4157.5807374825062652
 20
149.6294469302378047
 30
0.0
 40
0.0056082587580078
 50
47.616586438173897
 51
134.4525674633003121
  0
ARC
  5
92BF
  8
0
 10
4158.468224737647688
 20
150.2869451735390101
 30
0.0
 40
1.1052945160777841
 50
216.2450883124461996
 51
230.7523270083204068
  0
ARC
  5
92C0
  8
0
 10
4157.7225023529290411
 20
149.3901683341570958
 30
0.0
 40
0.0618212167916222
 50
28.1748728288453414
 51
41.317753068080151
  0
ARC
  5
92C1
  8
0
 10
4157.7649389551479544
 20
149.4105816881807129
 30
0.0
 40
0.0149149555672334
 50
330.4970125226918753
 51
36.0457009286165473
  0
ARC
  5
92C2
  8
0
 10
4157.4940305256232023
 20
149.6007551558300008
 30
0.0
 40
0.3458421254423691
 50
320.0170901857189847
 51
325.171380882617882
  0
ARC
  5
92C3
  8
0
 10
4157.8605982942026458
 20
149.3781706634360091
 30
0.0
 40
0.1015716731451686
 50
179.7966485448255014
 51
214.758137245274412
  0
ARC
  5
92C4
  8
0
 10
4157.7884288070617913
 20
149.2729271630834091
 30
0.0
 40
0.0387758016918539
 50
348.8744400827965819
 51
9.3056840622899095
  0
ARC
  5
92C5
  8
0
 10
4157.4304724293779145
 20
149.1686434728808024
 30
0.0
 40
0.4113561956924176
 50
15.5901622303070102
 51
33.617393528868682
  0
ARC
  5
92C6
  8
0
 10
4157.5507166850529757
 20
149.5950438782979006
 30
0.0
 40
0.0504725857443984
 50
52.3282684496100998
 51
83.8421609437279898
  0
ARC
  5
92C7
  8
0
 10
4157.5549580868901103
 20
149.6257372882749053
 30
0.0
 40
0.019523208243552
 50
86.5564002742811311
 51
126.254068258068898
  0
ARC
  5
92C8
  8
0
 10
4157.5699251180749343
 20
149.6269437967143006
 30
0.0
 40
0.0302363019919119
 50
151.263537745063104
 51
204.0786668722768979
  0
ARC
  5
92C9
  8
0
 10
4157.956981227452161
 20
149.7571140759314119
 30
0.0
 40
0.4384657118849026
 50
198.966272554805613
 51
212.702360525178392
  0
ARC
  5
92CA
  8
0
 10
4157.1727581941768221
 20
149.1951197002894105
 30
0.0
 40
0.5664250554626995
 50
50.7197550959910686
 51
63.7492794275643888
  0
ARC
  5
92CB
  8
0
 10
4157.4208044012557366
 20
149.6980917041842929
 30
0.0
 40
0.0056151433291448
 50
63.7492794275651065
 51
159.3621712671993862
  0
ARC
  5
92CC
  8
0
 10
4157.8593289753043791
 20
150.2772472910642989
 30
0.0
 40
0.7362839151082138
 50
229.7783089371027074
 51
242.3875052797673959
  0
ARC
  5
92CD
  8
0
 10
4158.7106129687699649
 20
150.6822768025068058
 30
0.0
 40
1.6418727359631651
 50
216.0928675746638987
 51
224.262502680613693
  0
LINE
  5
92CE
  8
0
 10
4157.5180692720914521
 20
149.6248242545221103
 30
0.0
 11
4157.5434127075950528
 21
149.6414808544867014
 31
0.0
  0
ARC
  5
92CF
  8
0
 10
4158.7573790738351818
 20
151.0722370181638894
 30
0.0
 40
1.9192046346277181
 50
225.6404188736163974
 51
227.3647336831596135
  0
ARC
  5
92D0
  8
0
 10
4158.3544739954877514
 20
149.7051283613546104
 30
0.0
 40
0.7261287585539273
 50
219.371534178753592
 51
230.8194888189557901
  0
ARC
  5
92D1
  8
0
 10
4157.3181282054238181
 20
148.7808862357908879
 30
0.0
 40
0.6813352720678103
 50
32.0321227761502669
 51
44.7833851465409722
  0
ARC
  5
92D2
  8
0
 10
4156.5614748263988076
 20
148.3664003096540114
 30
0.0
 40
1.545225495768427
 50
34.2497320289139395
 51
38.1190106069230907
  0
ARC
  5
92D3
  8
0
 10
4157.8933548574632368
 20
149.3474613083988913
 30
0.0
 40
0.124070444547293
 50
221.0686450594922974
 51
243.8871636841411998
  0
LINE
  5
92D4
  8
0
 10
4160.006196156002261
 20
141.4586350233201983
 30
0.0
 11
4160.7231904106020011
 21
141.4735231498202097
 31
0.0
  0
LINE
  5
92D5
  8
0
 10
4160.0062467895850205
 20
141.4654734300503094
 30
0.0
 11
4160.7245975842388361
 21
141.4834048107994136
 31
0.0
  0
LINE
  5
92D6
  8
0
 10
4160.0066668105582721
 20
141.4714163814630865
 30
0.0
 11
4160.7246103427087291
 21
141.4920940675814904
 31
0.0
  0
LINE
  5
92D7
  8
0
 10
4160.7223316917043121
 20
141.5059745354203073
 30
0.0
 11
4160.0084240455016698
 21
141.4844798897202054
 31
0.0
  0
LINE
  5
92D8
  8
0
 10
4160.0084240092028267
 20
141.5096673624202026
 30
0.0
 11
4160.7223316917043121
 21
141.5311667795201913
 31
0.0
  0
LINE
  5
92D9
  8
0
 10
4160.7243048191930939
 20
141.5458168987858016
 30
0.0
 11
4160.0066588241888894
 21
141.5202198060156888
 31
0.0
  0
LINE
  5
92DA
  8
0
 10
4160.0064359836842414
 20
141.5343193409404989
 30
0.0
 11
4160.7241020463889072
 21
141.5597735374994102
 31
0.0
  0
LINE
  5
92DB
  8
0
 10
4160.7223317067173411
 20
141.5705426466874997
 30
0.0
 11
4160.008423818601841
 21
141.5490499219203002
 31
0.0
  0
LINE
  5
92DC
  8
0
 10
4160.0084239411589806
 20
141.5742247405549108
 30
0.0
 11
4160.7223319014028675
 21
141.5957048392201898
 31
0.0
  0
LINE
  5
92DD
  8
0
 10
4160.7243090930651306
 20
141.6105992655313912
 30
0.0
 11
4160.0066521546432341
 21
141.5850185134682135
 31
0.0
  0
LINE
  5
92DE
  8
0
 10
4160.0064501913038839
 20
141.5989568381986032
 30
0.0
 11
4160.7240880886038212
 21
141.6245053256357096
 31
0.0
  0
LINE
  5
92DF
  8
0
 10
4160.7223318739006572
 20
141.6351337306203106
 30
0.0
 11
4160.0084234141022534
 21
141.6136251053202102
 31
0.0
  0
LINE
  5
92E0
  8
0
 10
4160.0084235376771176
 20
141.6387524335355863
 30
0.0
 11
4160.7223321650026264
 21
141.6602397729203062
 31
0.0
  0
LINE
  5
92E1
  8
0
 10
4160.7243110231684113
 20
141.675152848546503
 30
0.0
 11
4160.0066508639611129
 21
141.6494555739355974
 31
0.0
  0
LINE
  5
92E2
  8
0
 10
4160.7240947214895641
 20
141.6890258872618915
 30
0.0
 11
4160.0064373180475741
 21
141.6634564245474053
 31
0.0
  0
LINE
  5
92E3
  8
0
 10
4160.0084235887015893
 20
141.6782318498202926
 30
0.0
 11
4160.7223328909021802
 21
141.6997319037201919
 31
0.0
  0
LINE
  5
92E4
  8
0
 10
4160.7223320509028781
 20
141.7248204251145864
 30
0.0
 11
4160.008422704100667
 21
141.7033166528202059
 31
0.0
  0
LINE
  5
92E5
  8
0
 10
4160.0066366792952977
 20
141.7143541808731015
 30
0.0
 11
4160.72331905646206
 21
141.7321895200578012
 31
0.0
  0
LINE
  5
92E6
  8
0
 10
4160.7245532667702719
 20
141.7498334672033877
 30
0.0
 11
4160.0064541896217634
 21
141.7282028933879019
 31
0.0
  0
LINE
  5
92E7
  8
0
 10
4160.0084229503036113
 20
141.7427993655201988
 30
0.0
 11
4160.7223319841014018
 21
141.7642837636201989
 31
0.0
  0
LINE
  5
92E8
  8
0
 10
4160.0084239198031355
 20
141.7679226303201858
 30
0.0
 11
4160.3682257307164036
 21
141.7787505159147088
 31
0.0
  0
ENDSEC
  0
EOF
