  0
SECTION
  2
HEADER
  9
$ACADVER
  1
AC1009
  9
$INSBASE
 10
4154.4661188523350575
 20
143.8458783896668933
 30
0.0
  9
$EXTMIN
 10
4151.7698334600509043
 20
143.4915484843724869
 30
0.0
  9
$EXTMAX
 10
4157.1624042446155727
 20
153.3365449167129952
 30
0.0
  9
$LIMMIN
 10
0.0
 20
0.0
  9
$LIMMAX
 10
11.6929133858000007
 20
8.2677165353999982
  9
$ORTHOMODE
 70
     0
  9
$REGENMODE
 70
     1
  9
$FILLMODE
 70
     1
  9
$QTEXTMODE
 70
     0
  9
$MIRRTEXT
 70
     0
  9
$DRAGMODE
 70
     2
  9
$LTSCALE
 40
0.6431102362
  9
$OSMODE
 70
     7
  9
$ATTMODE
 70
     1
  9
$TEXTSIZE
 40
0.2
  9
$TRACEWID
 40
0.05
  9
$TEXTSTYLE
  7
STANDARD
  9
$CLAYER
  8
0
  9
$CELTYPE
  6
BYLAYER
  9
$CECOLOR
 62
   256
  9
$DIMSCALE
 40
1.0
  9
$DIMASZ
 40
0.1875
  9
$DIMEXO
 40
0.0625
  9
$DIMDLI
 40
0.4443307087
  9
$DIMRND
 40
0.0
  9
$DIMDLE
 40
0.0
  9
$DIMEXE
 40
0.125
  9
$DIMTP
 40
0.01
  9
$DIMTM
 40
0.01
  9
$DIMTXT
 40
2.0
  9
$DIMCEN
 40
0.1052362205
  9
$DIMTSZ
 40
0.0
  9
$DIMTOL
 70
     1
  9
$DIMLIM
 70
     0
  9
$DIMTIH
 70
     1
  9
$DIMTOH
 70
     1
  9
$DIMSE1
 70
     0
  9
$DIMSE2
 70
     0
  9
$DIMTAD
 70
     0
  9
$DIMZIN
 70
     0
  9
$DIMBLK
  1

  9
$DIMASO
 70
     1
  9
$DIMSHO
 70
     1
  9
$DIMPOST
  1
\X
  9
$DIMAPOST
  1

  9
$DIMALT
 70
     1
  9
$DIMALTD
 70
     2
  9
$DIMALTF
 40
25.3999999999999986
  9
$DIMLFAC
 40
1.0
  9
$DIMTOFL
 70
     0
  9
$DIMTVP
 40
0.0
  9
$DIMTIX
 70
     0
  9
$DIMSOXD
 70
     0
  9
$DIMSAH
 70
     0
  9
$DIMBLK1
  1

  9
$DIMBLK2
  1

  9
$DIMSTYLE
  2
STANDARD
  9
$DIMCLRD
 70
     0
  9
$DIMCLRE
 70
     0
  9
$DIMCLRT
 70
     0
  9
$DIMTFAC
 40
1.0
  9
$DIMGAP
 40
0.09
  9
$LUNITS
 70
     2
  9
$LUPREC
 70
     4
  9
$SKETCHINC
 40
0.1
  9
$FILLETRAD
 40
0.0
  9
$AUNITS
 70
     0
  9
$AUPREC
 70
     0
  9
$MENU
  1
.
  9
$ELEVATION
 40
0.0
  9
$PELEVATION
 40
0.0
  9
$THICKNESS
 40
0.0
  9
$LIMCHECK
 70
     0
  9
$BLIPMODE
 70
     0
  9
$CHAMFERA
 40
0.0
  9
$CHAMFERB
 40
0.0
  9
$SKPOLY
 70
     0
  9
$TDCREATE
 40
2458060.468368056230247
  9
$TDUPDATE
 40
2459590.7201041667722166
  9
$TDINDWG
 40
0.3428774306
  9
$TDUSRTIMER
 40
0.3428774306
  9
$USRTIMER
 70
     1
  9
$ANGBASE
 50
0.0
  9
$ANGDIR
 70
     0
  9
$PDMODE
 70
     0
  9
$PDSIZE
 40
0.3125
  9
$PLINEWID
 40
0.0
  9
$COORDS
 70
     1
  9
$SPLFRAME
 70
     0
  9
$SPLINETYPE
 70
     6
  9
$SPLINESEGS
 70
     8
  9
$ATTDIA
 70
     1
  9
$ATTREQ
 70
     1
  9
$HANDLING
 70
     1
  9
$HANDSEED
  5
8FD6
  9
$SURFTAB1
 70
     6
  9
$SURFTAB2
 70
     6
  9
$SURFTYPE
 70
     6
  9
$SURFU
 70
     6
  9
$SURFV
 70
     6
  9
$UCSNAME
  2

  9
$UCSORG
 10
0.0
 20
0.0
 30
0.0
  9
$UCSXDIR
 10
1.0
 20
0.0
 30
0.0
  9
$UCSYDIR
 10
0.0
 20
1.0
 30
0.0
  9
$PUCSNAME
  2

  9
$PUCSORG
 10
0.0
 20
0.0
 30
0.0
  9
$PUCSXDIR
 10
1.0
 20
0.0
 30
0.0
  9
$PUCSYDIR
 10
0.0
 20
1.0
 30
0.0
  9
$USERI1
 70
     0
  9
$USERI2
 70
     0
  9
$USERI3
 70
     0
  9
$USERI4
 70
     0
  9
$USERI5
 70
     0
  9
$USERR1
 40
0.0
  9
$USERR2
 40
0.0
  9
$USERR3
 40
0.0
  9
$USERR4
 40
0.0
  9
$USERR5
 40
0.0
  9
$WORLDVIEW
 70
     1
  9
$SHADEDGE
 70
     3
  9
$SHADEDIF
 70
    70
  9
$TILEMODE
 70
     1
  9
$MAXACTVP
 70
    64
  9
$PLIMCHECK
 70
     0
  9
$PEXTMIN
 10
1.0000000000000000E+20
 20
1.0000000000000000E+20
 30
1.0000000000000000E+20
  9
$PEXTMAX
 10
-1.0000000000000000E+20
 20
-1.0000000000000000E+20
 30
-1.0000000000000000E+20
  9
$PLIMMIN
 10
0.0
 20
0.0
  9
$PLIMMAX
 10
12.0
 20
9.0
  9
$UNITMODE
 70
     0
  9
$VISRETAIN
 70
     1
  9
$PLINEGEN
 70
     0
  9
$PSLTSCALE
 70
     1
  0
ENDSEC
  0
SECTION
  2
TABLES
  0
TABLE
  2
VPORT
 70
     1
  0
VPORT
  2
*ACTIVE
 70
     0
 10
0.0
 20
0.0
 11
1.0
 21
1.0
 12
78.855645219521648
 22
22.4483637171443497
 13
0.0
 23
0.0
 14
1.0
 24
1.0
 15
0.0
 25
0.0
 16
0.0
 26
0.0
 36
53.3788880271138382
 17
4075.6104736328129547
 27
125.9656829833983949
 37
0.0
 40
9.9154856669396292
 41
2.2831541218637992
 42
50.0
 43
0.0
 44
0.0
 50
0.0
 51
0.0
 71
     0
 72
   100
 73
     1
 74
     1
 75
     0
 76
     0
 77
     0
 78
     0
  0
ENDTAB
  0
TABLE
  2
LTYPE
 70
     2
  0
LTYPE
  2
CONTINUOUS
 70
     0
  3
Solid line
 72
    65
 73
     0
 40
0.0
  0
LTYPE
  2
PHANTOM2
 70
     0
  3
___ _ _ ___ _ _ ___ _ _ ___ _ _
 72
    65
 73
     6
 40
1.25
 49
0.625
 49
-0.125
 49
0.125
 49
-0.125
 49
0.125
 49
-0.125
  0
ENDTAB
  0
TABLE
  2
LAYER
 70
     2
  0
LAYER
  2
0
 70
     0
 62
   255
  6
CONTINUOUS
  0
LAYER
  2
DEFPOINTS
 70
     0
 62
     7
  6
CONTINUOUS
  0
ENDTAB
  0
TABLE
  2
STYLE
 70
     1
  0
STYLE
  2
STANDARD
 70
     0
 40
0.0
 41
0.8
 50
0.0
 71
     0
 42
0.2
  3
txt
  4

  0
ENDTAB
  0
TABLE
  2
VIEW
 70
     0
  0
ENDTAB
  0
TABLE
  2
UCS
 70
     0
  0
ENDTAB
  0
TABLE
  2
APPID
 70
    10
  0
APPID
  2
ACAD
 70
     0
  0
APPID
  2
ACAD_MLEADERVER
 70
     0
  0
APPID
  2
ACAD_EXEMPT_FROM_CAD_STANDARDS
 70
     0
  0
APPID
  2
ACAD_NAV_VCDISPLAY
 70
     0
  0
APPID
  2
ACAECLAYERSTANDARD
 70
     0
  0
APPID
  2
ACCMTRANSPARENCY
 70
     0
  0
APPID
  2
ACAD_DSTYLE_DIMJAG
 70
     0
  0
APPID
  2
ACAD_DSTYLE_DIMTALN
 70
     0
  0
APPID
  2
ACDBATTR
 70
     0
  0
APPID
  2
ACADANNOTATIVE
 70
     0
  0
ENDTAB
  0
TABLE
  2
DIMSTYLE
 70
     2
  0
DIMSTYLE
  2
STANDARD
 70
     0
  3

  4

  5

  6

  7

 40
1.0
 41
0.1875
 42
0.0625
 43
0.38
 44
0.125
 45
0.0
 46
0.0
 47
0.01
 48
0.01
140
0.15625
141
0.09
142
0.0
143
25.3999999999999986
144
1.0
145
0.0
146
1.0
147
0.09
 71
     1
 72
     0
 73
     1
 74
     1
 75
     0
 76
     0
 77
     0
 78
     4
170
     0
171
     2
172
     0
173
     0
174
     0
175
     0
176
     0
177
     0
178
     0
  0
ENDTAB
  0
ENDSEC
  0
SECTION
  2
BLOCKS
  0
BLOCK
  8
0
  2
$MODEL_SPACE
 70
     0
 10
0.0
 20
0.0
 30
0.0
  3
$MODEL_SPACE
  1

  0
ENDBLK
  5
21
  8
0
  0
BLOCK
 67
     1
  8
0
  2
$PAPER_SPACE
 70
     0
 10
0.0
 20
0.0
 30
0.0
  3
$PAPER_SPACE
  1

  0
ENDBLK
  5
1D
 67
     1
  8
0
  0
ENDSEC
  0
SECTION
  2
ENTITIES
  0
ATTDEF
  5
3930
  8
DEFPOINTS
 10
4154.4661485407232249
 20
143.8492394321187078
 30
0.0
 40
0.001
  1
K-17493BR
  3

  2
MODELNUMBER
 70
     0
1001
ACDBATTR
1070
     0
1070
     1
  0
ATTDEF
  5
3931
  8
DEFPOINTS
 10
4154.4661485407232249
 20
143.8475727654520142
 30
0.0
 40
0.001
  1
FLIPSIDE
  3

  2
TRADENAME
 70
     0
1001
ACDBATTR
1070
     0
1070
     1
  0
ATTDEF
  5
3932
  8
DEFPOINTS
 10
4154.4661485407232249
 20
143.8459060987852922
 30
0.0
 40
0.001
  1
HANDSHOWER
  3

  2
PRODUCT
 70
     0
1001
ACDBATTR
1070
     0
1070
     1
  0
LINE
  5
8951
  8
0
 10
4154.0536188458518154
 20
143.5944252636082012
 30
0.0
 11
4154.0536188458518154
 21
143.6200434152738978
 31
0.0
  0
LINE
  5
8952
  8
0
 10
4154.0536188458518154
 20
143.658991998640289
 30
0.0
 11
4154.0536188458518154
 21
143.684492942730401
 31
0.0
  0
LINE
  5
8953
  8
0
 10
4154.0536188458518154
 20
143.7236245609306877
 30
0.0
 11
4154.0536188458518154
 21
143.749046943692889
 31
0.0
  0
LINE
  5
8954
  8
0
 10
4154.0536188458518154
 20
143.7882617986782918
 30
0.0
 11
4154.0536188458518154
 21
143.8137033507615001
 31
0.0
  0
LINE
  5
8955
  8
0
 10
4154.0536188458518154
 20
143.5554856450793864
 30
0.0
 11
4154.0536188458518154
 21
143.5516862796725093
 31
0.0
  0
LINE
  5
8956
  8
0
 10
4154.0790333004679269
 20
143.8380918762105125
 30
0.0
 11
4154.065564888021072
 21
143.8458783896668933
 31
0.0
  0
LINE
  5
8957
  8
0
 10
4154.079033218387849
 20
143.8283956259498098
 30
0.0
 11
4154.0536188458518154
 21
143.8137033507615001
 31
0.0
  0
LINE
  5
8958
  8
0
 10
4154.0791416843012485
 20
143.7735021245441942
 30
0.0
 11
4154.0536188458518154
 21
143.7882617986782918
 31
0.0
  0
LINE
  5
8959
  8
0
 10
4154.0791416816973651
 20
143.7638065980198974
 30
0.0
 11
4154.0536188458518154
 21
143.749046943692889
 31
0.0
  0
LINE
  5
895A
  8
0
 10
4154.0790742145891272
 20
143.7089068127739893
 30
0.0
 11
4154.0536188458518154
 21
143.7236245609306877
 31
0.0
  0
LINE
  5
895B
  8
0
 10
4154.0790742312556176
 20
143.6992108172842109
 30
0.0
 11
4154.0536188458518154
 21
143.684492942730401
 31
0.0
  0
LINE
  5
895C
  8
0
 10
4154.078925290224106
 20
143.6443663814162903
 30
0.0
 11
4154.0536188458518154
 21
143.658991998640289
 31
0.0
  0
LINE
  5
895D
  8
0
 10
4154.0789253395378182
 20
143.634669404366889
 30
0.0
 11
4154.0536188458518154
 21
143.6200434152738978
 31
0.0
  0
LINE
  5
895E
  8
0
 10
4154.078931795200333
 20
143.5797952556468999
 30
0.0
 11
4154.0536188458518154
 21
143.5944252636082012
 31
0.0
  0
LINE
  5
895F
  8
0
 10
4154.0789293103216551
 20
143.5700969195397931
 30
0.0
 11
4154.0536188458518154
 21
143.5554856450793864
 31
0.0
  0
LINE
  5
8960
  8
0
 10
4154.0536188458518154
 20
143.5516862796725093
 30
0.0
 11
4154.1137566411507578
 21
143.4915484843724869
 31
0.0
  0
ARC
  5
8961
  8
0
 10
4154.0762304603413213
 20
143.8332437748057089
 30
0.0
 40
0.0056
 50
300.0325894487797882
 51
59.9664405415112824
  0
ARC
  5
8962
  8
0
 10
4154.0763382580662437
 20
143.7686543620353916
 30
0.0
 40
0.0056
 50
300.0404556723270275
 51
59.9595135406025932
  0
ARC
  5
8963
  8
0
 10
4154.076271203503893
 20
143.7040588102111087
 30
0.0
 40
0.0056
 50
300.0357768953522282
 51
59.9644200703101404
  0
ARC
  5
8964
  8
0
 10
4154.0761231444657824
 20
143.6395178786411009
 30
0.0
 40
0.0056
 50
300.0259363697729214
 51
59.9746463875037179
  0
ARC
  5
8965
  8
0
 10
4154.0761295588081339
 20
143.5749468052547115
 30
0.0
 40
0.0056
 50
299.9970644086051834
 51
59.9735753251644681
  0
LINE
  5
8966
  8
0
 10
4153.8457131863742688
 20
143.8458783896668933
 30
0.0
 11
4155.0865245183167644
 21
143.8458783896668933
 31
0.0
  0
LINE
  5
8967
  8
0
 10
4154.1137566411507578
 20
143.4915484843724869
 30
0.0
 11
4154.8184810505508722
 21
143.4915484843724869
 31
0.0
  0
ARC
  5
8968
  8
0
 10
4427.9680529812030727
 20
158.6610809028987035
 30
0.0
 40
274.5969803585952036
 50
182.9458046944698992
 51
183.0771721812392911
  0
ARC
  5
8969
  8
0
 10
4203.3123758983892913
 20
147.1004476854681968
 30
0.0
 40
49.644048646368141
 50
181.4344418235421017
 51
182.9458046944698992
  0
ARC
  5
896A
  8
0
 10
4162.5535459384627757
 20
146.0798072608187113
 30
0.0
 40
8.8724417786170289
 50
172.6903079466696056
 51
181.4344418235421017
  0
ARC
  5
896B
  8
0
 10
4138.3744325803309039
 20
149.1813804244609969
 30
0.0
 40
15.5047869169269994
 50
352.6903079466712256
 51
355.9539337990365198
  0
ARC
  5
896C
  8
0
 10
4151.1532427939191621
 20
148.2774738931244087
 30
0.0
 40
2.694047769933138
 50
355.9539337990365198
 51
5.8944369099920113
  0
ARC
  5
896D
  8
0
 10
4152.9003677085866002
 20
148.4817683768609129
 30
0.0
 40
0.9354826388886479
 50
4.4371042374694776
 51
51.0729553712901279
  0
ARC
  5
896E
  8
0
 10
4148.6758304348995807
 20
142.9243502327639135
 30
0.0
 40
7.9159284356423498
 50
52.5600304416200572
 51
58.5698496087095677
  0
ARC
  5
896F
  8
0
 10
4154.3421826180801872
 20
152.0804333848585088
 30
0.0
 40
2.8521515907187318
 50
221.3396371069945872
 51
237.3554854073215949
  0
ARC
  5
8970
  8
0
 10
4153.574170876541757
 20
151.3826074012521872
 30
0.0
 40
1.8146701767851281
 50
197.0749743412019086
 51
220.8140916538035867
  0
ARC
  5
8971
  8
0
 10
4153.3482368190889247
 20
151.31350241609411
 30
0.0
 40
1.578404210433398
 50
180.0595106147142133
 51
197.0851551820665861
  0
ARC
  5
8972
  8
0
 10
4153.3096632295655581
 20
151.3062334585301869
 30
0.0
 40
1.53984006013047
 50
153.5287911928427036
 51
179.7905305045605928
  0
ARC
  5
8973
  8
0
 10
4153.8551392451772699
 20
151.0154924444092046
 30
0.0
 40
2.157792644658036
 50
121.1351080633967001
 51
153.0743482419009922
  0
ARC
  5
8974
  8
0
 10
4154.2915399354724286
 20
150.3790748277623948
 30
0.0
 40
2.9285166992637799
 50
109.4983425326379063
 51
122.0052378639679063
  0
ARC
  5
8975
  8
0
 10
4154.4468705347317155
 20
149.9476253216417092
 30
0.0
 40
3.3870701148041711
 50
97.9226289376903054
 51
109.5391698526348989
  0
ARC
  5
8976
  8
0
 10
4154.4687240462908449
 20
149.8255645689974074
 30
0.0
 40
3.5109813142597681
 50
90.0425142200913626
 51
98.0012962463007256
  0
ARC
  5
8977
  8
0
 10
4154.4796024489505726
 20
148.9335942361446996
 30
0.0
 40
3.7818765510734611
 50
90.2042781685691466
 51
93.5036799137008359
  0
ARC
  5
8978
  8
0
 10
4154.4477620282050339
 20
149.4536323787455956
 30
0.0
 40
3.260864572177629
 50
93.5036799137008359
 51
104.3393472550427958
  0
ARC
  5
8979
  8
0
 10
4154.3479148250607977
 20
149.8442276571103946
 30
0.0
 40
2.8577093471624759
 50
104.3393472550427958
 51
120.9173703331886003
  0
ARC
  5
897A
  8
0
 10
4153.8283857465721667
 20
150.7117005598582011
 30
0.0
 40
1.8465616327333061
 50
120.9173703331886003
 51
148.3767443592101074
  0
ARC
  5
897B
  8
0
 10
4153.3013663812871528
 20
151.0615024909793931
 30
0.0
 40
1.2145757836353761
 50
149.392368075618009
 51
179.5877939720579946
  0
ARC
  5
897C
  8
0
 10
4153.3426384693711952
 20
151.0832151409385915
 30
0.0
 40
1.2558834622595021
 50
180.5919381144989018
 51
216.4494763089682863
  0
ARC
  5
897D
  8
0
 10
4153.9029292329551026
 20
151.4969518065875036
 30
0.0
 40
1.9523773708413581
 50
216.4472904313938102
 51
245.4798251864353063
  0
ARC
  5
897E
  8
0
 10
4154.3913793392375737
 20
152.4153425001354094
 30
0.0
 40
2.9913254968968501
 50
244.268156328563208
 51
261.724049834421578
  0
ARC
  5
897F
  8
0
 10
4154.4650502668127956
 20
152.8075664510321019
 30
0.0
 40
3.3901090930721942
 50
261.4460853239173161
 51
270.0180600209804993
  0
ARC
  5
8980
  8
0
 10
4154.463477905264881
 20
149.5423348468245877
 30
0.0
 40
2.7711442446816581
 50
89.9453961503026846
 51
103.680640825715102
  0
ARC
  5
8981
  8
0
 10
4154.3571380175471859
 20
149.9792000423842921
 30
0.0
 40
2.321522880852382
 50
103.680640825715102
 51
123.7768303324874068
  0
ARC
  5
8982
  8
0
 10
4153.8388549746941862
 20
150.7540796740121891
 30
0.0
 40
1.389291280861898
 50
123.7768303324874068
 51
154.0387611445526943
  0
ARC
  5
8983
  8
0
 10
4153.4222470859831446
 20
150.9569241489963076
 30
0.0
 40
0.9259253196964332
 50
154.0387611445526943
 51
180.4394127533956009
  0
ARC
  5
8984
  8
0
 10
4153.614704520052328
 20
150.9584001723575
 30
0.0
 40
1.118388413749229
 50
180.4394127533956009
 51
214.9130627228803974
  0
ARC
  5
8985
  8
0
 10
4154.0714412941451883
 20
151.3099465510616994
 30
0.0
 40
1.6943369635045451
 50
215.8217414507471119
 51
245.4396910293955045
  0
ARC
  5
8986
  8
0
 10
4154.4487972045399147
 20
152.0780258468749082
 30
0.0
 40
2.5498846046261918
 50
244.9012680286253953
 51
261.8869221624535726
  0
ARC
  5
8987
  8
0
 10
4154.4844242651279274
 20
152.8277113984069047
 30
0.0
 40
3.297849152568304
 50
263.1123906796340748
 51
269.6819659624304109
  0
ARC
  5
8988
  8
0
 10
4154.7166792446851105
 20
150.4762322756999993
 30
0.0
 40
2.4854396463700681
 50
126.1803543720001954
 51
131.0150678547061034
  0
ARC
  5
8989
  8
0
 10
4154.6389278302476669
 20
150.5656275545451024
 30
0.0
 40
2.3669626514445641
 50
131.0150678547061034
 51
140.9933158209850887
  0
ARC
  5
898A
  8
0
 10
4153.9492721383494427
 20
151.1242329496652985
 30
0.0
 40
1.479457743948795
 50
140.9933158209850887
 51
165.6755692881112054
  0
ARC
  5
898B
  8
0
 10
4153.5974076285228875
 20
151.657211226056404
 30
0.0
 40
1.10267038153676
 50
158.2248202981693055
 51
182.7471294780584969
  0
LINE
  5
898C
  8
0
 10
4152.5090328786100144
 20
151.6043623450725022
 30
0.0
 11
4152.2148626400648936
 21
151.6043623450725022
 31
0.0
  0
ARC
  5
898D
  8
0
 10
4152.3512371860588246
 20
151.555966522218597
 30
0.0
 40
0.1650504051998794
 50
357.8262925576585758
 51
20.8810434582988194
  0
ARC
  5
898E
  8
0
 10
4152.5138186214517191
 20
151.603955549390605
 30
0.0
 40
0.0136958078822866
 50
127.6776873797175966
 51
178.2979387308625121
  0
ARC
  5
898F
  8
0
 10
4152.4964146907495888
 20
151.5595017028929021
 30
0.0
 40
0.0220494007108962
 50
333.6247150599655811
 51
342.8694858485035866
  0
ARC
  5
8990
  8
0
 10
4153.5517663484442892
 20
151.3120544409169952
 30
0.0
 40
1.061976561942896
 50
161.3143012938982963
 51
166.8859157826840089
  0
ARC
  5
8991
  8
0
 10
4153.8461638194503394
 20
151.1938066369528997
 30
0.0
 40
1.3788538176337151
 50
141.8100144769219924
 51
160.5789164036685008
  0
ARC
  5
8992
  8
0
 10
4154.5261486714507555
 20
150.6702589711163967
 30
0.0
 40
2.237010249138911
 50
127.4671617967314035
 51
142.0386031670572891
  0
LINE
  5
8993
  8
0
 10
4152.5161688254520413
 20
151.5497062838724958
 30
0.0
 11
4152.5247892124516511
 21
151.5496536801724972
 31
0.0
  0
ARC
  5
8994
  8
0
 10
4152.524581703010881
 20
151.521808470793701
 30
0.0
 40
0.0278454225357021
 50
74.5542220525302923
 51
89.5730406410460347
  0
ARC
  5
8995
  8
0
 10
4142.1169683259231533
 20
151.9537054230709998
 30
0.0
 40
10.4091636068628599
 50
355.8090601025942874
 51
357.448234728651812
  0
ARC
  5
8996
  8
0
 10
4156.8225650058839165
 20
151.0402487054531946
 30
0.0
 40
4.3269637192435422
 50
177.9769314053037021
 51
181.0515792850181072
  0
LINE
  5
8997
  8
0
 10
4152.3160780908729066
 20
151.0138111639724912
 30
0.0
 11
4152.4950124975466679
 21
151.0138111639724912
 31
0.0
  0
ARC
  5
8998
  8
0
 10
4152.2847069976996863
 20
151.1043692160615137
 30
0.0
 40
0.0827166686428634
 50
185.4975913553932116
 51
246.5734555976353022
  0
ARC
  5
8999
  8
0
 10
4152.3146417501620817
 20
151.1556724144627992
 30
0.0
 40
0.1418685217563244
 50
243.7167508577890089
 51
270.580098147913418
  0
ARC
  5
899A
  8
0
 10
4153.5452454039423174
 20
151.4302110994536008
 30
0.0
 40
1.1886461667802151
 50
200.5065498592171878
 51
208.4695793118899019
  0
ARC
  5
899B
  8
0
 10
4154.0386151337770571
 20
150.0643557298498081
 30
0.0
 40
2.3912578878658861
 50
100.0484175971138967
 51
107.0258944688126945
  0
ARC
  5
899C
  8
0
 10
4154.2709937553263444
 20
148.7529523469528954
 30
0.0
 40
3.723090706363092
 50
93.2736044604399979
 51
100.0484175971138967
  0
ARC
  5
899D
  8
0
 10
4154.4765408226548971
 20
145.1593106084957867
 30
0.0
 40
7.3226060266900852
 50
90.0815468035508076
 51
93.2736044604399979
  0
LINE
  5
899E
  8
0
 10
4153.3267478433990618
 20
152.3544494784854919
 30
0.0
 11
4153.324838877529146
 21
152.5125264256980984
 31
0.0
  0
ARC
  5
899F
  8
0
 10
4153.331585666470346
 20
152.3545052159363138
 30
0.0
 40
0.0048381441408539
 50
180.6600860252684129
 51
270.6080863003775789
  0
ARC
  5
89A0
  8
0
 10
4153.3313053019901417
 20
152.3724841969091983
 30
0.0
 40
0.0228192637174971
 50
270.8329070099276237
 51
288.2343985149020114
  0
LINE
  5
89A1
  8
0
 10
4153.3316473483437221
 20
152.4961515243523991
 30
0.0
 11
4153.3307932964517022
 21
152.4253408600725095
 31
0.0
  0
LINE
  5
89A2
  8
0
 10
4153.3307932964517022
 20
152.4253408600725095
 30
0.0
 11
4153.3316437057683288
 21
152.3556555686550098
 31
0.0
  0
ARC
  5
89A3
  8
0
 10
4153.3398009037264274
 20
152.3556352331696928
 30
0.0
 40
0.0081572233043671
 50
179.8571647920329895
 51
225.3434434907871946
  0
LINE
  5
89A4
  8
0
 10
4153.378555046452675
 20
152.5325067223263886
 30
0.0
 11
4153.3370825468264229
 21
152.505946025773909
 31
0.0
  0
ARC
  5
89A5
  8
0
 10
4153.3434464901711181
 20
152.4960092141577093
 30
0.0
 40
0.0118
 50
122.6371720047877005
 51
179.3089854904773972
  0
LINE
  5
89A6
  8
0
 10
4153.3250272533641692
 20
152.4969274686150129
 30
0.0
 11
4153.3338330411488641
 21
152.5028518450758099
 31
0.0
  0
LINE
  5
89A7
  8
0
 10
4153.4474081548232789
 20
152.5078530451388872
 30
0.0
 11
4153.4474081564458174
 21
152.4303914865867
 31
0.0
  0
LINE
  5
89A8
  8
0
 10
4153.4618488392898144
 20
152.5328180223573042
 30
0.0
 11
4153.566551966082443
 21
152.593041000258097
 31
0.0
  0
ARC
  5
89A9
  8
0
 10
4157.1187098745613184
 20
135.4276048961743868
 30
0.0
 40
17.3885769791871709
 50
101.9735307049606945
 51
102.1683477313489021
  0
ARC
  5
89AA
  8
0
 10
4154.4483754493676315
 20
147.5549365607195114
 30
0.0
 40
4.9720387725037902
 50
89.7955317107656441
 51
100.8636953318717957
  0
ARC
  5
89AB
  8
0
 10
4153.4762081548233255
 20
152.5078530457421948
 30
0.0
 40
0.0288
 50
119.9065834193038995
 51
180.000001200116003
  0
ARC
  5
89AC
  8
0
 10
4153.4524081564450171
 20
152.4303914866914909
 30
0.0
 40
0.005
 50
180.0000012001225116
 51
282.1683477313488879
  0
LINE
  5
89AD
  8
0
 10
4153.5007247512749018
 20
152.4356263275113008
 30
0.0
 11
4153.4523506869481935
 21
152.5239856594972139
 31
0.0
  0
ARC
  5
89AE
  8
0
 10
4154.1221363339791424
 20
149.7271434378870083
 30
0.0
 40
0.0262823379935567
 50
134.0351500246000001
 51
222.539078576699012
  0
ARC
  5
89AF
  8
0
 10
4154.1686961468803929
 20
149.7842838201106019
 30
0.0
 40
0.0997876530691234
 50
228.6502625869379131
 51
300.861517877148799
  0
ARC
  5
89B0
  8
0
 10
4154.206520872056899
 20
149.7237308876246118
 30
0.0
 40
0.0284405328727562
 50
298.024666328385706
 51
35.9929047524486734
  0
ARC
  5
89B1
  8
0
 10
4154.1634375044977787
 20
149.6699497505491934
 30
0.0
 40
0.0966334993067387
 50
46.8454261306898587
 51
128.0575747109222959
  0
ARC
  5
89B2
  8
0
 10
4154.200408129430798
 20
149.7382099770443062
 30
0.0
 40
0.0476957477653339
 50
298.7569925817794001
 51
344.828417510840211
  0
ARC
  5
89B3
  8
0
 10
4154.1687467672527418
 20
149.7959043211452013
 30
0.0
 40
0.1135066829985698
 50
231.2787014660626994
 51
298.7569925817794001
  0
ARC
  5
89B4
  8
0
 10
4154.127718217418078
 20
149.7387720110909015
 30
0.0
 40
0.0434277584956983
 50
188.6608072629298931
 51
226.3545028203324136
  0
ARC
  5
89B5
  8
0
 10
4154.1084448117362626
 20
149.7564170936643961
 30
0.0
 40
0.0338327062025688
 50
149.7241614233244036
 51
225.6292722100479011
  0
ARC
  5
89B6
  8
0
 10
4154.1643396396657408
 20
149.6881535444198903
 30
0.0
 40
0.1205149823503475
 50
41.0855523711819686
 51
134.9301651770834951
  0
ARC
  5
89B7
  8
0
 10
4154.2225751056830632
 20
149.7524645372243128
 30
0.0
 40
0.0358395659310882
 50
311.7532012491965929
 51
24.5478748357403411
  0
LINE
  5
89B8
  8
0
 10
4154.2544791456966777
 20
149.7681456091717109
 30
0.0
 11
4154.2464415094518699
 21
149.725727498172489
 31
0.0
  0
LINE
  5
89B9
  8
0
 10
4154.0770589515295796
 20
149.7690495830493091
 30
0.0
 11
4154.084785660252237
 21
149.7322324588724882
 31
0.0
  0
ARC
  5
89BA
  8
0
 10
4154.1650009116110596
 20
149.7109381402634938
 30
0.0
 40
0.0237188866283004
 50
49.8931967845518969
 51
126.3616946939957018
  0
ARC
  5
89BB
  8
0
 10
4154.1770598888815584
 20
149.7252551854828084
 30
0.0
 40
0.005
 50
314.2049268196739717
 51
49.8931967845518969
  0
ARC
  5
89BC
  8
0
 10
4154.1539028461411363
 20
149.7260122790250989
 30
0.0
 40
0.005
 50
126.3616946939957018
 51
222.0499646588816063
  0
ARC
  5
89BD
  8
0
 10
4154.1658459378768384
 20
149.7367847605798943
 30
0.0
 40
0.0210836500539991
 50
222.0499646588816063
 51
314.2049268196739717
  0
ARC
  5
89BE
  8
0
 10
4154.1676514334931198
 20
149.8660220191312931
 30
0.0
 40
0.0262823379935567
 50
134.0351500246000001
 51
222.539078576699012
  0
ARC
  5
89BF
  8
0
 10
4154.2142112463961894
 20
149.9231624013548014
 30
0.0
 40
0.0997876530691234
 50
228.6502625869379131
 51
300.861517877148799
  0
ARC
  5
89C0
  8
0
 10
4154.2520359715736049
 20
149.8626094688688966
 30
0.0
 40
0.0284405328727562
 50
298.024666328385706
 51
35.9929047524486734
  0
ARC
  5
89C1
  8
0
 10
4154.2089526040135752
 20
149.8088283317933929
 30
0.0
 40
0.0966334993067387
 50
46.8454261306898587
 51
128.0575747109222959
  0
ARC
  5
89C2
  8
0
 10
4154.2459232289465945
 20
149.8770885582885057
 30
0.0
 40
0.0476957477653339
 50
298.7569925817794001
 51
344.828417510840211
  0
ARC
  5
89C3
  8
0
 10
4154.2142618667694478
 20
149.9347829023894008
 30
0.0
 40
0.1135066829985698
 50
231.2787014660626994
 51
298.7569925817794001
  0
ARC
  5
89C4
  8
0
 10
4154.173233316932965
 20
149.8776505923351863
 30
0.0
 40
0.0434277584956983
 50
188.6608072629298931
 51
226.3545028203324136
  0
ARC
  5
89C5
  8
0
 10
4154.1539599112529686
 20
149.8952956749087093
 30
0.0
 40
0.0338327062025688
 50
149.7241614233244036
 51
225.6292722100479011
  0
ARC
  5
89C6
  8
0
 10
4154.2098547391806278
 20
149.8270321256642035
 30
0.0
 40
0.1205149823503475
 50
41.0855523711819686
 51
134.9301651770834951
  0
ARC
  5
89C7
  8
0
 10
4154.2680902051979501
 20
149.8913431184685976
 30
0.0
 40
0.0358395659310882
 50
311.7532012491965929
 51
24.5478748357403411
  0
LINE
  5
89C8
  8
0
 10
4154.2999942452133837
 20
149.9070241904159957
 30
0.0
 11
4154.2919566089685759
 21
149.8646060794166885
 31
0.0
  0
LINE
  5
89C9
  8
0
 10
4154.1225740510453761
 20
149.9079281642935086
 30
0.0
 11
4154.130300759768943
 21
149.8711110401168014
 31
0.0
  0
ARC
  5
89CA
  8
0
 10
4154.2105160111259465
 20
149.849816721507807
 30
0.0
 40
0.0237188866283004
 50
49.8931967845518969
 51
126.3616946939957018
  0
ARC
  5
89CB
  8
0
 10
4154.2225749883982644
 20
149.8641337667270932
 30
0.0
 40
0.005
 50
314.2049268196739717
 51
49.8931967845518969
  0
ARC
  5
89CC
  8
0
 10
4154.1994179456569327
 20
149.8648908602694121
 30
0.0
 40
0.005
 50
126.3616946939957018
 51
222.0499646588816063
  0
ARC
  5
89CD
  8
0
 10
4154.2113610373917254
 20
149.8756633418242075
 30
0.0
 40
0.0210836500539991
 50
222.0499646588816063
 51
314.2049268196739717
  0
ARC
  5
89CE
  8
0
 10
4153.8320397727948148
 20
149.7876282087067068
 30
0.0
 40
0.0262823379935567
 50
134.0351500246000001
 51
222.539078576699012
  0
ARC
  5
89CF
  8
0
 10
4153.8785995856978843
 20
149.8447685909303004
 30
0.0
 40
0.0997876530691234
 50
228.6502625869379131
 51
300.861517877148799
  0
ARC
  5
89D0
  8
0
 10
4153.9164243108752999
 20
149.7842156584443103
 30
0.0
 40
0.0284405328727562
 50
298.024666328385706
 51
35.9929047524486734
  0
ARC
  5
89D1
  8
0
 10
4153.8733409433161796
 20
149.7304345213688919
 30
0.0
 40
0.0966334993067387
 50
46.8454261306898587
 51
128.0575747109222959
  0
ARC
  5
89D2
  8
0
 10
4153.9103115682491989
 20
149.7986947478640047
 30
0.0
 40
0.0476957477653339
 50
298.7569925817794001
 51
344.828417510840211
  0
ARC
  5
89D3
  8
0
 10
4153.8786502060693238
 20
149.8563890919648998
 30
0.0
 40
0.1135066829985698
 50
231.2787014660626994
 51
298.7569925817794001
  0
ARC
  5
89D4
  8
0
 10
4153.8376216562337504
 20
149.7992567819107137
 30
0.0
 40
0.0434277584956983
 50
188.6608072629298931
 51
226.3545028203324136
  0
ARC
  5
89D5
  8
0
 10
4153.8183482505519351
 20
149.8169018644842083
 30
0.0
 40
0.0338327062025688
 50
149.7241614233244036
 51
225.6292722100479011
  0
ARC
  5
89D6
  8
0
 10
4153.8742430784823227
 20
149.7486383152397025
 30
0.0
 40
0.1205149823503475
 50
41.0855523711819686
 51
134.9301651770834951
  0
ARC
  5
89D7
  8
0
 10
4153.9324785444987356
 20
149.8129493080440113
 30
0.0
 40
0.0358395659310882
 50
311.7532012491965929
 51
24.5478748357403411
  0
LINE
  5
89D8
  8
0
 10
4153.9643825845141691
 20
149.8286303799914094
 30
0.0
 11
4153.9563449482693613
 21
149.7862122689921875
 31
0.0
  0
LINE
  5
89D9
  8
0
 10
4153.7869623903461616
 20
149.8295343538690076
 30
0.0
 11
4153.7946890990688189
 21
149.7927172296921867
 31
0.0
  0
ARC
  5
89DA
  8
0
 10
4153.874904350428551
 20
149.771422911083306
 30
0.0
 40
0.0237188866283004
 50
49.8931967845518969
 51
126.3616946939957018
  0
ARC
  5
89DB
  8
0
 10
4153.8869633276990498
 20
149.7857399563025922
 30
0.0
 40
0.005
 50
314.2049268196739717
 51
49.8931967845518969
  0
ARC
  5
89DC
  8
0
 10
4153.8638062849568087
 20
149.7864970498449111
 30
0.0
 40
0.005
 50
126.3616946939957018
 51
222.0499646588816063
  0
ARC
  5
89DD
  8
0
 10
4153.8757493766952393
 20
149.7972695313997065
 30
0.0
 40
0.0210836500539991
 50
222.0499646588816063
 51
314.2049268196739717
  0
ARC
  5
89DE
  8
0
 10
4153.5656532003022221
 20
149.8866025947392018
 30
0.0
 40
0.0262823379935567
 50
134.0351500246000001
 51
222.539078576699012
  0
ARC
  5
89DF
  8
0
 10
4153.6122130132043822
 20
149.9437429769627954
 30
0.0
 40
0.0997876530691234
 50
228.6502625869379131
 51
300.861517877148799
  0
ARC
  5
89E0
  8
0
 10
4153.6500377383799787
 20
149.8831900444768053
 30
0.0
 40
0.0284405328727562
 50
298.024666328385706
 51
35.9929047524486734
  0
ARC
  5
89E1
  8
0
 10
4153.6069543708208585
 20
149.8294089074015005
 30
0.0
 40
0.0966334993067387
 50
46.8454261306898587
 51
128.0575747109222959
  0
ARC
  5
89E2
  8
0
 10
4153.6439249957538777
 20
149.8976691338964997
 30
0.0
 40
0.0476957477653339
 50
298.7569925817794001
 51
344.828417510840211
  0
ARC
  5
89E3
  8
0
 10
4153.6122636335749121
 20
149.9553634779973947
 30
0.0
 40
0.1135066829985698
 50
231.2787014660626994
 51
298.7569925817794001
  0
ARC
  5
89E4
  8
0
 10
4153.5712350837384292
 20
149.8982311679432087
 30
0.0
 40
0.0434277584956983
 50
188.6608072629298931
 51
226.3545028203324136
  0
ARC
  5
89E5
  8
0
 10
4153.5519616780602519
 20
149.9158762505165896
 30
0.0
 40
0.0338327062025688
 50
149.7241614233244036
 51
225.6292722100479011
  0
ARC
  5
89E6
  8
0
 10
4153.6078565059879111
 20
149.8476127012721122
 30
0.0
 40
0.1205149823503475
 50
41.0855523711819686
 51
134.9301651770834951
  0
ARC
  5
89E7
  8
0
 10
4153.6660919720052334
 20
149.9119236940767053
 30
0.0
 40
0.0358395659310882
 50
311.7532012491965929
 51
24.5478748357403411
  0
LINE
  5
89E8
  8
0
 10
4153.6979960120197575
 20
149.9276047660239897
 30
0.0
 11
4153.6899583757749497
 21
149.8851866550247109
 31
0.0
  0
LINE
  5
89E9
  8
0
 10
4153.5205758178526594
 20
149.9285087399015026
 30
0.0
 11
4153.5283025265753167
 21
149.8916916157247101
 31
0.0
  0
ARC
  5
89EA
  8
0
 10
4153.6085177779332298
 20
149.8703972971156873
 30
0.0
 40
0.0237188866283004
 50
49.8931967845518969
 51
126.3616946939957018
  0
ARC
  5
89EB
  8
0
 10
4153.6205767552037287
 20
149.8847143423350872
 30
0.0
 40
0.005
 50
314.2049268196739717
 51
49.8931967845518969
  0
ARC
  5
89EC
  8
0
 10
4153.5974197124651255
 20
149.8854714358772924
 30
0.0
 40
0.005
 50
126.3616946939957018
 51
222.0499646588816063
  0
ARC
  5
89ED
  8
0
 10
4153.6093628041999182
 20
149.8962439174322014
 30
0.0
 40
0.0210836500539991
 50
222.0499646588816063
 51
314.2049268196739717
  0
ARC
  5
89EE
  8
0
 10
4153.6983159061601327
 20
150.0011533271760129
 30
0.0
 40
0.0262823379935567
 50
134.0351500246000001
 51
222.539078576699012
  0
ARC
  5
89EF
  8
0
 10
4153.7448757190632023
 20
150.0582937093996065
 30
0.0
 40
0.0997876530691234
 50
228.6502625869379131
 51
300.861517877148799
  0
ARC
  5
89F0
  8
0
 10
4153.7827004442387988
 20
149.997740776913588
 30
0.0
 40
0.0284405328727562
 50
298.024666328385706
 51
35.9929047524486734
  0
ARC
  5
89F1
  8
0
 10
4153.7396170766787691
 20
149.943959639838198
 30
0.0
 40
0.0966334993067387
 50
46.8454261306898587
 51
128.0575747109222959
  0
ARC
  5
89F2
  8
0
 10
4153.7765877016126979
 20
150.0122198663331972
 30
0.0
 40
0.0476957477653339
 50
298.7569925817794001
 51
344.828417510840211
  0
ARC
  5
89F3
  8
0
 10
4153.7449263394337322
 20
150.0699142104342059
 30
0.0
 40
0.1135066829985698
 50
231.2787014660626994
 51
298.7569925817794001
  0
ARC
  5
89F4
  8
0
 10
4153.7038977895972494
 20
150.0127819003799061
 30
0.0
 40
0.0434277584956983
 50
188.6608072629298931
 51
226.3545028203324136
  0
ARC
  5
89F5
  8
0
 10
4153.684624383917253
 20
150.0304269829534007
 30
0.0
 40
0.0338327062025688
 50
149.7241614233244036
 51
225.6292722100479011
  0
ARC
  5
89F6
  8
0
 10
4153.7405192118467312
 20
149.9621634337088949
 30
0.0
 40
0.1205149823503475
 50
41.0855523711819686
 51
134.9301651770834951
  0
ARC
  5
89F7
  8
0
 10
4153.7987546778658725
 20
150.026474426513289
 30
0.0
 40
0.0358395659310882
 50
311.7532012491965929
 51
24.5478748357403411
  0
LINE
  5
89F8
  8
0
 10
4153.8306587178785776
 20
150.0421554984606871
 30
0.0
 11
4153.8226210816337698
 21
149.9997373874614937
 31
0.0
  0
LINE
  5
89F9
  8
0
 10
4153.653238523712389
 20
150.0430594723383138
 30
0.0
 11
4153.6609652324350463
 21
150.0062423481614928
 31
0.0
  0
ARC
  5
89FA
  8
0
 10
4153.7411804837938689
 20
149.9849480295524984
 30
0.0
 40
0.0237188866283004
 50
49.8931967845518969
 51
126.3616946939957018
  0
ARC
  5
89FB
  8
0
 10
4153.7532394610643678
 20
149.9992650747718983
 30
0.0
 40
0.005
 50
314.2049268196739717
 51
49.8931967845518969
  0
ARC
  5
89FC
  8
0
 10
4153.7300824183239456
 20
150.0000221683141035
 30
0.0
 40
0.005
 50
126.3616946939957018
 51
222.0499646588816063
  0
ARC
  5
89FD
  8
0
 10
4153.7420255100578288
 20
150.0107946498688989
 30
0.0
 40
0.0210836500539991
 50
222.0499646588816063
 51
314.2049268196739717
  0
ARC
  5
89FE
  8
0
 10
4153.3329679094331368
 20
150.0199011357709082
 30
0.0
 40
0.0262823379935567
 50
134.0351500246000001
 51
222.539078576699012
  0
ARC
  5
89FF
  8
0
 10
4153.3795277223352969
 20
150.0770415179945019
 30
0.0
 40
0.0997876530691234
 50
228.6502625869379131
 51
300.861517877148799
  0
ARC
  5
8A00
  8
0
 10
4153.4173524475099839
 20
150.016488585508597
 30
0.0
 40
0.0284405328727562
 50
298.024666328385706
 51
35.9929047524486734
  0
ARC
  5
8A01
  8
0
 10
4153.3742690799517732
 20
149.9627074484330933
 30
0.0
 40
0.0966334993067387
 50
46.8454261306898587
 51
128.0575747109222959
  0
ARC
  5
8A02
  8
0
 10
4153.4112397048847924
 20
150.0309676749282062
 30
0.0
 40
0.0476957477653339
 50
298.7569925817794001
 51
344.828417510840211
  0
ARC
  5
8A03
  8
0
 10
4153.3795783427049173
 20
150.0886620190291012
 30
0.0
 40
0.1135066829985698
 50
231.2787014660626994
 51
298.7569925817794001
  0
ARC
  5
8A04
  8
0
 10
4153.3385497928702534
 20
150.0315297089748867
 30
0.0
 40
0.0434277584956983
 50
188.6608072629298931
 51
226.3545028203324136
  0
ARC
  5
8A05
  8
0
 10
4153.3192763871902571
 20
150.0491747915482961
 30
0.0
 40
0.0338327062025688
 50
149.7241614233244036
 51
225.6292722100479011
  0
ARC
  5
8A06
  8
0
 10
4153.3751712151197353
 20
149.9809112423039892
 30
0.0
 40
0.1205149823503475
 50
41.0855523711819686
 51
134.9301651770834951
  0
ARC
  5
8A07
  8
0
 10
4153.4334066811370576
 20
150.0452222351082128
 30
0.0
 40
0.0358395659310882
 50
311.7532012491965929
 51
24.5478748357403411
  0
LINE
  5
8A08
  8
0
 10
4153.4653107211497627
 20
150.0609033070556961
 30
0.0
 11
4153.4572730849049549
 21
150.018485196056389
 31
0.0
  0
LINE
  5
8A09
  8
0
 10
4153.2878905269817551
 20
150.0618072809332091
 30
0.0
 11
4153.2956172357053219
 21
150.0249901567563882
 31
0.0
  0
ARC
  5
8A0A
  8
0
 10
4153.375832487065054
 20
150.0036958381475074
 30
0.0
 40
0.0237188866283004
 50
49.8931967845518969
 51
126.3616946939957018
  0
ARC
  5
8A0B
  8
0
 10
4153.3878914643328244
 20
150.0180128833667084
 30
0.0
 40
0.005
 50
314.2049268196739717
 51
49.8931967845518969
  0
ARC
  5
8A0C
  8
0
 10
4153.3647344215951307
 20
150.0187699769091125
 30
0.0
 40
0.005
 50
126.3616946939957018
 51
222.0499646588816063
  0
ARC
  5
8A0D
  8
0
 10
4153.3766775133299234
 20
150.0295424584639079
 30
0.0
 40
0.0210836500539991
 50
222.0499646588816063
 51
314.2049268196739717
  0
ARC
  5
8A0E
  8
0
 10
4153.1420593763759825
 20
150.1825343271806901
 30
0.0
 40
0.0262823379935567
 50
134.0351500246000001
 51
222.539078576699012
  0
ARC
  5
8A0F
  8
0
 10
4153.1886191892781426
 20
150.2396747094043121
 30
0.0
 40
0.0997876530691234
 50
228.6502625869379131
 51
300.861517877148799
  0
ARC
  5
8A10
  8
0
 10
4153.2264439144555581
 20
150.1791217769182936
 30
0.0
 40
0.0284405328727562
 50
298.024666328385706
 51
35.9929047524486734
  0
ARC
  5
8A11
  8
0
 10
4153.1833605468964379
 20
150.1253406398429888
 30
0.0
 40
0.0966334993067387
 50
46.8454261306898587
 51
128.0575747109222959
  0
ARC
  5
8A12
  8
0
 10
4153.2203311718285477
 20
150.1936008663379027
 30
0.0
 40
0.0476957477653339
 50
298.7569925817794001
 51
344.828417510840211
  0
ARC
  5
8A13
  8
0
 10
4153.188669809651401
 20
150.2512952104389115
 30
0.0
 40
0.1135066829985698
 50
231.2787014660626994
 51
298.7569925817794001
  0
ARC
  5
8A14
  8
0
 10
4153.1476412598149182
 20
150.1941629003846117
 30
0.0
 40
0.0434277584956983
 50
188.6608072629298931
 51
226.3545028203324136
  0
ARC
  5
8A15
  8
0
 10
4153.1283678541349218
 20
150.2118079829581916
 30
0.0
 40
0.0338327062025688
 50
149.7241614233244036
 51
225.6292722100479011
  0
ARC
  5
8A16
  8
0
 10
4153.184262682062581
 20
150.1435444337136005
 30
0.0
 40
0.1205149823503475
 50
41.0855523711819686
 51
134.9301651770834951
  0
ARC
  5
8A17
  8
0
 10
4153.2424981480808128
 20
150.2078554265179946
 30
0.0
 40
0.0358395659310882
 50
311.7532012491965929
 51
24.5478748357403411
  0
LINE
  5
8A18
  8
0
 10
4153.2744021880944274
 20
150.2235364984653927
 30
0.0
 11
4153.2663645518487101
 21
150.1811183874661992
 31
0.0
  0
LINE
  5
8A19
  8
0
 10
4153.0969819939273293
 20
150.2244404723429909
 30
0.0
 11
4153.1047087026490772
 21
150.1876233481661984
 31
0.0
  0
ARC
  5
8A1A
  8
0
 10
4153.1849239540097187
 20
150.166329029557204
 30
0.0
 40
0.0237188866283004
 50
49.8931967845518969
 51
126.3616946939957018
  0
ARC
  5
8A1B
  8
0
 10
4153.1969829312793081
 20
150.1806460747764902
 30
0.0
 40
0.005
 50
314.2049268196739717
 51
49.8931967845518969
  0
ARC
  5
8A1C
  8
0
 10
4153.1738258885388859
 20
150.1814031683188091
 30
0.0
 40
0.005
 50
126.3616946939957018
 51
222.0499646588816063
  0
ARC
  5
8A1D
  8
0
 10
4153.1857689802764071
 20
150.1921756498736045
 30
0.0
 40
0.0210836500539991
 50
222.0499646588816063
 51
314.2049268196739717
  0
ARC
  5
8A1E
  8
0
 10
4153.3373798374323087
 20
150.2507181919133927
 30
0.0
 40
0.0262823379935567
 50
134.0351500246000001
 51
222.539078576699012
  0
ARC
  5
8A1F
  8
0
 10
4153.3839396503353782
 20
150.3078585741369864
 30
0.0
 40
0.0997876530691234
 50
228.6502625869379131
 51
300.861517877148799
  0
ARC
  5
8A20
  8
0
 10
4153.4217643755118843
 20
150.2473056416509962
 30
0.0
 40
0.0284405328727562
 50
298.024666328385706
 51
35.9929047524486734
  0
ARC
  5
8A21
  8
0
 10
4153.3786810079509451
 20
150.1935245045756062
 30
0.0
 40
0.0966334993067387
 50
46.8454261306898587
 51
128.0575747109222959
  0
ARC
  5
8A22
  8
0
 10
4153.4156516328839643
 20
150.2617847310706907
 30
0.0
 40
0.0476957477653339
 50
298.7569925817794001
 51
344.828417510840211
  0
ARC
  5
8A23
  8
0
 10
4153.3839902707059082
 20
150.3194790751716141
 30
0.0
 40
0.1135066829985698
 50
231.2787014660626994
 51
298.7569925817794001
  0
ARC
  5
8A24
  8
0
 10
4153.3429617208712443
 20
150.2623467651173996
 30
0.0
 40
0.0434277584956983
 50
188.6608072629298931
 51
226.3545028203324136
  0
ARC
  5
8A25
  8
0
 10
4153.323688315191248
 20
150.279991847690809
 30
0.0
 40
0.0338327062025688
 50
149.7241614233244036
 51
225.6292722100479011
  0
ARC
  5
8A26
  8
0
 10
4153.3795831431216357
 20
150.2117282984463031
 30
0.0
 40
0.1205149823503475
 50
41.0855523711819686
 51
134.9301651770834951
  0
ARC
  5
8A27
  8
0
 10
4153.4378186091380485
 20
150.2760392912506973
 30
0.0
 40
0.0358395659310882
 50
311.7532012491965929
 51
24.5478748357403411
  0
LINE
  5
8A28
  8
0
 10
4153.4697226491543915
 20
150.2917203631980954
 30
0.0
 11
4153.4616850129059458
 21
150.2493022521989019
 31
0.0
  0
LINE
  5
8A29
  8
0
 10
4153.2923024549836555
 20
150.2926243370756936
 30
0.0
 11
4153.3000291637072223
 21
150.2558072128989011
 31
0.0
  0
ARC
  5
8A2A
  8
0
 10
4153.3802444150642259
 20
150.2345128942899066
 30
0.0
 40
0.0237188866283004
 50
49.8931967845518969
 51
126.3616946939957018
  0
ARC
  5
8A2B
  8
0
 10
4153.3923033923356343
 20
150.2488299395093065
 30
0.0
 40
0.005
 50
314.2049268196739717
 51
49.8931967845518969
  0
ARC
  5
8A2C
  8
0
 10
4153.3691463495961216
 20
150.249587033051597
 30
0.0
 40
0.005
 50
126.3616946939957018
 51
222.0499646588816063
  0
ARC
  5
8A2D
  8
0
 10
4153.3810894413290953
 20
150.2603595146063071
 30
0.0
 40
0.0210836500539991
 50
222.0499646588816063
 51
314.2049268196739717
  0
ARC
  5
8A2E
  8
0
 10
4152.9985400495270369
 20
150.3671353982389007
 30
0.0
 40
0.0262823379935567
 50
134.0351500246000001
 51
222.539078576699012
  0
ARC
  5
8A2F
  8
0
 10
4153.0450998624291969
 20
150.4242757804624091
 30
0.0
 40
0.0997876530691234
 50
228.6502625869379131
 51
300.861517877148799
  0
ARC
  5
8A30
  8
0
 10
4153.0829245876047935
 20
150.3637228479765042
 30
0.0
 40
0.0284405328727562
 50
298.024666328385706
 51
35.9929047524486734
  0
ARC
  5
8A31
  8
0
 10
4153.0398412200465827
 20
150.3099417109010005
 30
0.0
 40
0.0966334993067387
 50
46.8454261306898587
 51
128.0575747109222959
  0
ARC
  5
8A32
  8
0
 10
4153.076811844979602
 20
150.3782019373961134
 30
0.0
 40
0.0476957477653339
 50
298.7569925817794001
 51
344.828417510840211
  0
ARC
  5
8A33
  8
0
 10
4153.0451504827997269
 20
150.4358962814970084
 30
0.0
 40
0.1135066829985698
 50
231.2787014660626994
 51
298.7569925817794001
  0
ARC
  5
8A34
  8
0
 10
4153.0041219329659725
 20
150.3787639714427939
 30
0.0
 40
0.0434277584956983
 50
188.6608072629298931
 51
226.3545028203324136
  0
ARC
  5
8A35
  8
0
 10
4152.9848485272841572
 20
150.3964090540162886
 30
0.0
 40
0.0338327062025688
 50
149.7241614233244036
 51
225.6292722100479011
  0
ARC
  5
8A36
  8
0
 10
4153.0407433552154544
 20
150.3281455047718111
 30
0.0
 40
0.1205149823503475
 50
41.0855523711819686
 51
134.9301651770834951
  0
ARC
  5
8A37
  8
0
 10
4153.0989788212300482
 20
150.3924564975762053
 30
0.0
 40
0.0358395659310882
 50
311.7532012491965929
 51
24.5478748357403411
  0
LINE
  5
8A38
  8
0
 10
4153.1308828612445723
 20
150.4081375695236034
 30
0.0
 11
4153.122845224998855
 21
150.3657194585242962
 31
0.0
  0
LINE
  5
8A39
  8
0
 10
4152.9534626670765647
 20
150.4090415434010879
 30
0.0
 11
4152.961189375799222
 21
150.3722244192244091
 31
0.0
  0
ARC
  5
8A3A
  8
0
 10
4153.0414046271598636
 20
150.3509301006153862
 30
0.0
 40
0.0237188866283004
 50
49.8931967845518969
 51
126.3616946939957018
  0
ARC
  5
8A3B
  8
0
 10
4153.0534636044303625
 20
150.3652471458347009
 30
0.0
 40
0.005
 50
314.2049268196739717
 51
49.8931967845518969
  0
ARC
  5
8A3C
  8
0
 10
4153.0303065616899403
 20
150.3660042393769913
 30
0.0
 40
0.005
 50
126.3616946939957018
 51
222.0499646588816063
  0
ARC
  5
8A3D
  8
0
 10
4153.042249653424733
 20
150.3767767209317867
 30
0.0
 40
0.0210836500539991
 50
222.0499646588816063
 51
314.2049268196739717
  0
ARC
  5
8A3E
  8
0
 10
4153.145147610362983
 20
150.5780771507953943
 30
0.0
 40
0.0262823379935567
 50
134.0351500246000001
 51
222.539078576699012
  0
ARC
  5
8A3F
  8
0
 10
4153.1917074232660525
 20
150.635217533018988
 30
0.0
 40
0.0997876530691234
 50
228.6502625869379131
 51
300.861517877148799
  0
ARC
  5
8A40
  8
0
 10
4153.229532148441649
 20
150.5746646005329978
 30
0.0
 40
0.0284405328727562
 50
298.024666328385706
 51
35.9929047524486734
  0
ARC
  5
8A41
  8
0
 10
4153.1864487808834383
 20
150.5208834634576078
 30
0.0
 40
0.0966334993067387
 50
46.8454261306898587
 51
128.0575747109222959
  0
ARC
  5
8A42
  8
0
 10
4153.2234194058155481
 20
150.5891436899526923
 30
0.0
 40
0.0476957477653339
 50
298.7569925817794001
 51
344.828417510840211
  0
ARC
  5
8A43
  8
0
 10
4153.1917580436356729
 20
150.6468380340535873
 30
0.0
 40
0.1135066829985698
 50
231.2787014660626994
 51
298.7569925817794001
  0
ARC
  5
8A44
  8
0
 10
4153.1507294938010091
 20
150.5897057239994865
 30
0.0
 40
0.0434277584956983
 50
188.6608072629298931
 51
226.3545028203324136
  0
ARC
  5
8A45
  8
0
 10
4153.1314560881219222
 20
150.6073508065728959
 30
0.0
 40
0.0338327062025688
 50
149.7241614233244036
 51
225.6292722100479011
  0
ARC
  5
8A46
  8
0
 10
4153.1873509160495814
 20
150.5390872573283048
 30
0.0
 40
0.1205149823503475
 50
41.0855523711819686
 51
134.9301651770834951
  0
ARC
  5
8A47
  8
0
 10
4153.2455863820687227
 20
150.6033982501328126
 30
0.0
 40
0.0358395659310882
 50
311.7532012491965929
 51
24.5478748357403411
  0
LINE
  5
8A48
  8
0
 10
4153.2774904220841563
 20
150.6190793220802107
 30
0.0
 11
4153.26945278583662
 21
150.5766612110809888
 31
0.0
  0
LINE
  5
8A49
  8
0
 10
4153.1000702279143297
 20
150.6199832959576952
 30
0.0
 11
4153.1077969366342586
 21
150.583166171780988
 31
0.0
  0
ARC
  5
8A4A
  8
0
 10
4153.1880121879958097
 20
150.5618718531719082
 30
0.0
 40
0.0237188866283004
 50
49.8931967845518969
 51
126.3616946939957018
  0
ARC
  5
8A4B
  8
0
 10
4153.200071165265399
 20
150.5761888983913082
 30
0.0
 40
0.005
 50
314.2049268196739717
 51
49.8931967845518969
  0
ARC
  5
8A4C
  8
0
 10
4153.1769141225240674
 20
150.5769459919335986
 30
0.0
 40
0.005
 50
126.3616946939957018
 51
222.0499646588816063
  0
ARC
  5
8A4D
  8
0
 10
4153.1888572142615885
 20
150.587718473488394
 30
0.0
 40
0.0210836500539991
 50
222.0499646588816063
 51
314.2049268196739717
  0
ARC
  5
8A4E
  8
0
 10
4152.9109341661569488
 20
150.5676673144606923
 30
0.0
 40
0.0262823379935567
 50
134.0351500246000001
 51
222.539078576699012
  0
ARC
  5
8A4F
  8
0
 10
4152.9574939790600183
 20
150.6248076966842859
 30
0.0
 40
0.0997876530691234
 50
228.6502625869379131
 51
300.861517877148799
  0
ARC
  5
8A50
  8
0
 10
4152.9953187042356149
 20
150.5642547641982958
 30
0.0
 40
0.0284405328727562
 50
298.024666328385706
 51
35.9929047524486734
  0
ARC
  5
8A51
  8
0
 10
4152.9522353366774041
 20
150.510473627122991
 30
0.0
 40
0.0966334993067387
 50
46.8454261306898587
 51
128.0575747109222959
  0
ARC
  5
8A52
  8
0
 10
4152.9892059616104234
 20
150.5787338536181039
 30
0.0
 40
0.0476957477653339
 50
298.7569925817794001
 51
344.828417510840211
  0
ARC
  5
8A53
  8
0
 10
4152.9575445994323672
 20
150.6364281977189137
 30
0.0
 40
0.1135066829985698
 50
231.2787014660626994
 51
298.7569925817794001
  0
ARC
  5
8A54
  8
0
 10
4152.9165160495967939
 20
150.5792958876646992
 30
0.0
 40
0.0434277584956983
 50
188.6608072629298931
 51
226.3545028203324136
  0
ARC
  5
8A55
  8
0
 10
4152.8972426439149785
 20
150.5969409702381085
 30
0.0
 40
0.0338327062025688
 50
149.7241614233244036
 51
225.6292722100479011
  0
ARC
  5
8A56
  8
0
 10
4152.9531374718435472
 20
150.5286774209936027
 30
0.0
 40
0.1205149823503475
 50
41.0855523711819686
 51
134.9301651770834951
  0
ARC
  5
8A57
  8
0
 10
4153.0113729378608696
 20
150.5929884137981105
 30
0.0
 40
0.0358395659310882
 50
311.7532012491965929
 51
24.5478748357403411
  0
LINE
  5
8A58
  8
0
 10
4153.0432769778763031
 20
150.6086694857453949
 30
0.0
 11
4153.0352393416296763
 21
150.5662513747462015
 31
0.0
  0
LINE
  5
8A59
  8
0
 10
4152.8658567837082956
 20
150.6095734596229931
 30
0.0
 11
4152.8735834924309529
 21
150.5727563354462006
 31
0.0
  0
ARC
  5
8A5A
  8
0
 10
4152.9537987437897755
 20
150.5514620168372062
 30
0.0
 40
0.0237188866283004
 50
49.8931967845518969
 51
126.3616946939957018
  0
ARC
  5
8A5B
  8
0
 10
4152.9658577210611838
 20
150.5657790620566061
 30
0.0
 40
0.005
 50
314.2049268196739717
 51
49.8931967845518969
  0
ARC
  5
8A5C
  8
0
 10
4152.9427006783207617
 20
150.5665361555988966
 30
0.0
 40
0.005
 50
126.3616946939957018
 51
222.0499646588816063
  0
ARC
  5
8A5D
  8
0
 10
4152.9546437700546448
 20
150.577308637153692
 30
0.0
 40
0.0210836500539991
 50
222.0499646588816063
 51
314.2049268196739717
  0
ARC
  5
8A5E
  8
0
 10
4152.8817421952890072
 20
150.7769869679771944
 30
0.0
 40
0.0262823379935567
 50
134.0351500246000001
 51
222.539078576699012
  0
ARC
  5
8A5F
  8
0
 10
4152.9283020081929862
 20
150.834127350200788
 30
0.0
 40
0.0997876530691234
 50
228.6502625869379131
 51
300.861517877148799
  0
ARC
  5
8A60
  8
0
 10
4152.9661267333676733
 20
150.7735744177147978
 30
0.0
 40
0.0284405328727562
 50
298.024666328385706
 51
35.9929047524486734
  0
ARC
  5
8A61
  8
0
 10
4152.9230433658085531
 20
150.7197932806394078
 30
0.0
 40
0.0966334993067387
 50
46.8454261306898587
 51
128.0575747109222959
  0
ARC
  5
8A62
  8
0
 10
4152.9600139907433913
 20
150.788053507134407
 30
0.0
 40
0.0476957477653339
 50
298.7569925817794001
 51
344.828417510840211
  0
ARC
  5
8A63
  8
0
 10
4152.9283526285653352
 20
150.8457478512353873
 30
0.0
 40
0.1135066829985698
 50
231.2787014660626994
 51
298.7569925817794001
  0
ARC
  5
8A64
  8
0
 10
4152.8873240787279428
 20
150.7886155411812013
 30
0.0
 40
0.0434277584956983
 50
188.6608072629298931
 51
226.3545028203324136
  0
ARC
  5
8A65
  8
0
 10
4152.868050673047037
 20
150.8062606237546106
 30
0.0
 40
0.0338327062025688
 50
149.7241614233244036
 51
225.6292722100479011
  0
ARC
  5
8A66
  8
0
 10
4152.9239455009774247
 20
150.7379970745101048
 30
0.0
 40
0.1205149823503475
 50
41.0855523711819686
 51
134.9301651770834951
  0
ARC
  5
8A67
  8
0
 10
4152.9821809669938375
 20
150.8023080673144989
 30
0.0
 40
0.0358395659310882
 50
311.7532012491965929
 51
24.5478748357403411
  0
LINE
  5
8A68
  8
0
 10
4153.0140850070092711
 20
150.8179891392620107
 30
0.0
 11
4153.0060473707626443
 21
150.7755710282627035
 31
0.0
  0
LINE
  5
8A69
  8
0
 10
4152.836664812840354
 20
150.8188931131394952
 30
0.0
 11
4152.8443915215639208
 21
150.7820759889627027
 31
0.0
  0
ARC
  5
8A6A
  8
0
 10
4152.9246067729227434
 20
150.7607816703537083
 30
0.0
 40
0.0237188866283004
 50
49.8931967845518969
 51
126.3616946939957018
  0
ARC
  5
8A6B
  8
0
 10
4152.9366657501941518
 20
150.7750987155729945
 30
0.0
 40
0.005
 50
314.2049268196739717
 51
49.8931967845518969
  0
ARC
  5
8A6C
  8
0
 10
4152.9135087074528201
 20
150.7758558091153134
 30
0.0
 40
0.005
 50
126.3616946939957018
 51
222.0499646588816063
  0
ARC
  5
8A6D
  8
0
 10
4152.9254517991876128
 20
150.7866282906701088
 30
0.0
 40
0.0210836500539991
 50
222.0499646588816063
 51
314.2049268196739717
  0
ARC
  5
8A6E
  8
0
 10
4153.1427842776038233
 20
150.9322861198075998
 30
0.0
 40
0.0262823379935567
 50
134.0351500246000001
 51
222.539078576699012
  0
ARC
  5
8A6F
  8
0
 10
4153.1893440905078023
 20
150.9894265020311934
 30
0.0
 40
0.0997876530691234
 50
228.6502625869379131
 51
300.861517877148799
  0
ARC
  5
8A70
  8
0
 10
4153.2271688156852179
 20
150.9288735695452033
 30
0.0
 40
0.0284405328727562
 50
298.024666328385706
 51
35.9929047524486734
  0
ARC
  5
8A71
  8
0
 10
4153.1840854481270071
 20
150.8750924324698133
 30
0.0
 40
0.0966334993067387
 50
46.8454261306898587
 51
128.0575747109222959
  0
ARC
  5
8A72
  8
0
 10
4153.2210560730600264
 20
150.9433526589648977
 30
0.0
 40
0.0476957477653339
 50
298.7569925817794001
 51
344.828417510840211
  0
ARC
  5
8A73
  8
0
 10
4153.1893947108810607
 20
151.0010470030657928
 30
0.0
 40
0.1135066829985698
 50
231.2787014660626994
 51
298.7569925817794001
  0
ARC
  5
8A74
  8
0
 10
4153.1483661610463969
 20
150.9439146930116067
 30
0.0
 40
0.0434277584956983
 50
188.6608072629298931
 51
226.3545028203324136
  0
ARC
  5
8A75
  8
0
 10
4153.1290927553627625
 20
150.9615597755851013
 30
0.0
 40
0.0338327062025688
 50
149.7241614233244036
 51
225.6292722100479011
  0
ARC
  5
8A76
  8
0
 10
4153.1849875832931502
 20
150.8932962263405102
 30
0.0
 40
0.1205149823503475
 50
41.0855523711819686
 51
134.9301651770834951
  0
ARC
  5
8A77
  8
0
 10
4153.2432230493113821
 20
150.9576072191449896
 30
0.0
 40
0.0358395659310882
 50
311.7532012491965929
 51
24.5478748357403411
  0
LINE
  5
8A78
  8
0
 10
4153.2751270893249966
 20
150.9732882910923877
 30
0.0
 11
4153.2670894530801888
 21
150.930870180093109
 31
0.0
  0
LINE
  5
8A79
  8
0
 10
4153.0977068951578985
 20
150.9741922649699859
 30
0.0
 11
4153.1054336038787369
 21
150.9373751407931081
 31
0.0
  0
ARC
  5
8A7A
  8
0
 10
4153.1856488552411975
 20
150.9160808221841137
 30
0.0
 40
0.0237188866283004
 50
49.8931967845518969
 51
126.3616946939957018
  0
ARC
  5
8A7B
  8
0
 10
4153.1977078325098773
 20
150.9303978674035136
 30
0.0
 40
0.005
 50
314.2049268196739717
 51
49.8931967845518969
  0
ARC
  5
8A7C
  8
0
 10
4153.1745507897703646
 20
150.9311549609458041
 30
0.0
 40
0.005
 50
126.3616946939957018
 51
222.0499646588816063
  0
ARC
  5
8A7D
  8
0
 10
4153.1864938815051573
 20
150.9419274425005995
 30
0.0
 40
0.0210836500539991
 50
222.0499646588816063
 51
314.2049268196739717
  0
ARC
  5
8A7E
  8
0
 10
4152.9108832069623531
 20
150.9859851643425941
 30
0.0
 40
0.0262823379935567
 50
134.0351500246000001
 51
222.539078576699012
  0
ARC
  5
8A7F
  8
0
 10
4152.9574430198636037
 20
151.0431255465661877
 30
0.0
 40
0.0997876530691234
 50
228.6502625869379131
 51
300.861517877148799
  0
ARC
  5
8A80
  8
0
 10
4152.9952677450410192
 20
150.9825726140801976
 30
0.0
 40
0.0284405328727562
 50
298.024666328385706
 51
35.9929047524486734
  0
ARC
  5
8A81
  8
0
 10
4152.952184377481899
 20
150.9287914770048076
 30
0.0
 40
0.0966334993067387
 50
46.8454261306898587
 51
128.0575747109222959
  0
ARC
  5
8A82
  8
0
 10
4152.9891550024130993
 20
150.997051703499892
 30
0.0
 40
0.0476957477653339
 50
298.7569925817794001
 51
344.828417510840211
  0
ARC
  5
8A83
  8
0
 10
4152.9574936402359526
 20
151.0547460476007871
 30
0.0
 40
0.1135066829985698
 50
231.2787014660626994
 51
298.7569925817794001
  0
ARC
  5
8A84
  8
0
 10
4152.9164650903976508
 20
150.997613737546601
 30
0.0
 40
0.0434277584956983
 50
188.6608072629298931
 51
226.3545028203324136
  0
ARC
  5
8A85
  8
0
 10
4152.8971916847203829
 20
151.0152588201200956
 30
0.0
 40
0.0338327062025688
 50
149.7241614233244036
 51
225.6292722100479011
  0
ARC
  5
8A86
  8
0
 10
4152.9530865126507706
 20
150.9469952708755045
 30
0.0
 40
0.1205149823503475
 50
41.0855523711819686
 51
134.9301651770834951
  0
ARC
  5
8A87
  8
0
 10
4153.0113219786671834
 20
151.0113062636798986
 30
0.0
 40
0.0358395659310882
 50
311.7532012491965929
 51
24.5478748357403411
  0
LINE
  5
8A88
  8
0
 10
4153.0432260186798885
 20
151.0269873356272967
 30
0.0
 11
4153.0351883824350807
 21
150.9845692246281033
 31
0.0
  0
LINE
  5
8A89
  8
0
 10
4152.8658058245127904
 20
151.0278913095048949
 30
0.0
 11
4152.8735325332363573
 21
150.9910741853281024
 31
0.0
  0
ARC
  5
8A8A
  8
0
 10
4152.9537477845933608
 20
150.969779866719108
 30
0.0
 40
0.0237188866283004
 50
49.8931967845518969
 51
126.3616946939957018
  0
ARC
  5
8A8B
  8
0
 10
4152.9658067618647692
 20
150.9840969119383942
 30
0.0
 40
0.005
 50
314.2049268196739717
 51
49.8931967845518969
  0
ARC
  5
8A8C
  8
0
 10
4152.9426497191252565
 20
150.9848540054807131
 30
0.0
 40
0.005
 50
126.3616946939957018
 51
222.0499646588816063
  0
ARC
  5
8A8D
  8
0
 10
4152.9545928108600492
 20
150.9956264870355085
 30
0.0
 40
0.0210836500539991
 50
222.0499646588816063
 51
314.2049268196739717
  0
ARC
  5
8A8E
  8
0
 10
4152.9975499470374416
 20
151.1871522334149063
 30
0.0
 40
0.0262823379935567
 50
134.0351500246000001
 51
222.539078576699012
  0
ARC
  5
8A8F
  8
0
 10
4153.0441097599396016
 20
151.2442926156386136
 30
0.0
 40
0.0997876530691234
 50
228.6502625869379131
 51
300.861517877148799
  0
ARC
  5
8A90
  8
0
 10
4153.0819344851151982
 20
151.183739683152595
 30
0.0
 40
0.0284405328727562
 50
298.024666328385706
 51
35.9929047524486734
  0
ARC
  5
8A91
  8
0
 10
4153.0388511175569874
 20
151.1299585460770913
 30
0.0
 40
0.0966334993067387
 50
46.8454261306898587
 51
128.0575747109222959
  0
ARC
  5
8A92
  8
0
 10
4153.0758217424900067
 20
151.1982187725722042
 30
0.0
 40
0.0476957477653339
 50
298.7569925817794001
 51
344.828417510840211
  0
ARC
  5
8A93
  8
0
 10
4153.0441603803119506
 20
151.2559131166732982
 30
0.0
 40
0.1135066829985698
 50
231.2787014660626994
 51
298.7569925817794001
  0
ARC
  5
8A94
  8
0
 10
4153.0031318304763772
 20
151.1987808066189132
 30
0.0
 40
0.0434277584956983
 50
188.6608072629298931
 51
226.3545028203324136
  0
ARC
  5
8A95
  8
0
 10
4152.9838584247963809
 20
151.2164258891924078
 30
0.0
 40
0.0338327062025688
 50
149.7241614233244036
 51
225.6292722100479011
  0
ARC
  5
8A96
  8
0
 10
4153.0397532527231306
 20
151.1481623399477883
 30
0.0
 40
0.1205149823503475
 50
41.0855523711819686
 51
134.9301651770834951
  0
ARC
  5
8A97
  8
0
 10
4153.0979887187404529
 20
151.2124733327524098
 30
0.0
 40
0.0358395659310882
 50
311.7532012491965929
 51
24.5478748357403411
  0
LINE
  5
8A98
  8
0
 10
4153.129892758754977
 20
151.2281544046996942
 30
0.0
 11
4153.1218551225101692
 21
151.1857362937005007
 31
0.0
  0
LINE
  5
8A99
  8
0
 10
4152.9524725645878789
 20
151.2290583785772071
 30
0.0
 11
4152.9601992733096267
 21
151.1922412544003862
 31
0.0
  0
ARC
  5
8A9A
  8
0
 10
4153.0404145246720873
 20
151.1709469357915054
 30
0.0
 40
0.0237188866283004
 50
49.8931967845518969
 51
126.3616946939957018
  0
ARC
  5
8A9B
  8
0
 10
4153.0524735019398577
 20
151.1852639810107917
 30
0.0
 40
0.005
 50
314.2049268196739717
 51
49.8931967845518969
  0
ARC
  5
8A9C
  8
0
 10
4153.029316459200345
 20
151.1860210745531106
 30
0.0
 40
0.005
 50
126.3616946939957018
 51
222.0499646588816063
  0
ARC
  5
8A9D
  8
0
 10
4153.0412595509351377
 20
151.1967935561079059
 30
0.0
 40
0.0210836500539991
 50
222.0499646588816063
 51
314.2049268196739717
  0
ARC
  5
8A9E
  8
0
 10
4153.3393192216963143
 20
151.2581044970673076
 30
0.0
 40
0.0262823379935567
 50
134.0351500246000001
 51
222.539078576699012
  0
ARC
  5
8A9F
  8
0
 10
4153.3858790345966554
 20
151.3152448792909013
 30
0.0
 40
0.0997876530691234
 50
228.6502625869379131
 51
300.861517877148799
  0
ARC
  5
8AA0
  8
0
 10
4153.4237037597740709
 20
151.2546919468049111
 30
0.0
 40
0.0284405328727562
 50
298.024666328385706
 51
35.9929047524486734
  0
ARC
  5
8AA1
  8
0
 10
4153.3806203922158602
 20
151.2009108097294927
 30
0.0
 40
0.0966334993067387
 50
46.8454261306898587
 51
128.0575747109222959
  0
ARC
  5
8AA2
  8
0
 10
4153.4175910171488795
 20
151.2691710362244919
 30
0.0
 40
0.0476957477653339
 50
298.7569925817794001
 51
344.828417510840211
  0
ARC
  5
8AA3
  8
0
 10
4153.3859296549699138
 20
151.3268653803255006
 30
0.0
 40
0.1135066829985698
 50
231.2787014660626994
 51
298.7569925817794001
  0
ARC
  5
8AA4
  8
0
 10
4153.34490110513525
 20
151.2697330702712009
 30
0.0
 40
0.0434277584956983
 50
188.6608072629298931
 51
226.3545028203324136
  0
ARC
  5
8AA5
  8
0
 10
4153.3256276994543441
 20
151.2873781528446955
 30
0.0
 40
0.0338327062025688
 50
149.7241614233244036
 51
225.6292722100479011
  0
ARC
  5
8AA6
  8
0
 10
4153.3815225273847318
 20
151.2191146036001896
 30
0.0
 40
0.1205149823503475
 50
41.0855523711819686
 51
134.9301651770834951
  0
ARC
  5
8AA7
  8
0
 10
4153.4397579934011446
 20
151.2834255964046122
 30
0.0
 40
0.0358395659310882
 50
311.7532012491965929
 51
24.5478748357403411
  0
LINE
  5
8AA8
  8
0
 10
4153.4716620334147592
 20
151.2991066683520103
 30
0.0
 11
4153.4636243971681324
 21
151.2566885573527884
 31
0.0
  0
LINE
  5
8AA9
  8
0
 10
4153.2942418392449326
 20
151.3000106422296085
 30
0.0
 11
4153.30196854796759
 21
151.2631935180527876
 31
0.0
  0
ARC
  5
8AAA
  8
0
 10
4153.382183799329141
 20
151.2418991994437931
 30
0.0
 40
0.0237188866283004
 50
49.8931967845518969
 51
126.3616946939957018
  0
ARC
  5
8AAB
  8
0
 10
4153.3942427765996399
 20
151.2562162446631078
 30
0.0
 40
0.005
 50
314.2049268196739717
 51
49.8931967845518969
  0
ARC
  5
8AAC
  8
0
 10
4153.3710857338592177
 20
151.2569733382053982
 30
0.0
 40
0.005
 50
126.3616946939957018
 51
222.0499646588816063
  0
ARC
  5
8AAD
  8
0
 10
4153.3830288255940104
 20
151.2677458197601936
 30
0.0
 40
0.0210836500539991
 50
222.0499646588816063
 51
314.2049268196739717
  0
ARC
  5
8AAE
  8
0
 10
4153.1413439910857051
 20
151.370916886093994
 30
0.0
 40
0.0262823379935567
 50
134.0351500246000001
 51
222.539078576699012
  0
ARC
  5
8AAF
  8
0
 10
4153.1879038039887746
 20
151.4280572683175876
 30
0.0
 40
0.0997876530691234
 50
228.6502625869379131
 51
300.861517877148799
  0
ARC
  5
8AB0
  8
0
 10
4153.2257285291670996
 20
151.3675043358315975
 30
0.0
 40
0.0284405328727562
 50
298.024666328385706
 51
35.9929047524486734
  0
ARC
  5
8AB1
  8
0
 10
4153.1826451616061604
 20
151.3137231987562075
 30
0.0
 40
0.0966334993067387
 50
46.8454261306898587
 51
128.0575747109222959
  0
ARC
  5
8AB2
  8
0
 10
4153.2196157865391797
 20
151.3819834252512919
 30
0.0
 40
0.0476957477653339
 50
298.7569925817794001
 51
344.828417510840211
  0
ARC
  5
8AB3
  8
0
 10
4153.187954424362033
 20
151.4396777693521869
 30
0.0
 40
0.1135066829985698
 50
231.2787014660626994
 51
298.7569925817794001
  0
ARC
  5
8AB4
  8
0
 10
4153.1469258745246407
 20
151.3825454592980009
 30
0.0
 40
0.0434277584956983
 50
188.6608072629298931
 51
226.3545028203324136
  0
ARC
  5
8AB5
  8
0
 10
4153.1276524688428253
 20
151.4001905418714102
 30
0.0
 40
0.0338327062025688
 50
149.7241614233244036
 51
225.6292722100479011
  0
ARC
  5
8AB6
  8
0
 10
4153.1835472967741225
 20
151.3319269926269897
 30
0.0
 40
0.1205149823503475
 50
41.0855523711819686
 51
134.9301651770834951
  0
ARC
  5
8AB7
  8
0
 10
4153.2417827627923543
 20
151.3962379854312985
 30
0.0
 40
0.0358395659310882
 50
311.7532012491965929
 51
24.5478748357403411
  0
LINE
  5
8AB8
  8
0
 10
4153.2736868028041499
 20
151.4119190573786966
 30
0.0
 11
4153.2656491665602516
 21
151.3695009463795031
 31
0.0
  0
LINE
  5
8AB9
  8
0
 10
4153.0962666086370518
 20
151.4128230312562948
 30
0.0
 11
4153.1039933173606187
 21
151.3760059070795023
 31
0.0
  0
ARC
  5
8ABA
  8
0
 10
4153.1842085687203507
 20
151.3547115884705931
 30
0.0
 40
0.0237188866283004
 50
49.8931967845518969
 51
126.3616946939957018
  0
ARC
  5
8ABB
  8
0
 10
4153.1962675459890306
 20
151.3690286336897941
 30
0.0
 40
0.005
 50
314.2049268196739717
 51
49.8931967845518969
  0
ARC
  5
8ABC
  8
0
 10
4153.1731105032504274
 20
151.3697857272321983
 30
0.0
 40
0.005
 50
126.3616946939957018
 51
222.0499646588816063
  0
ARC
  5
8ABD
  8
0
 10
4153.1850535949852201
 20
151.3805582087869936
 30
0.0
 40
0.0210836500539991
 50
222.0499646588816063
 51
314.2049268196739717
  0
ARC
  5
8ABE
  8
0
 10
4153.3325110553496415
 20
151.5344476117707018
 30
0.0
 40
0.0262823379935567
 50
134.0351500246000001
 51
222.539078576699012
  0
ARC
  5
8ABF
  8
0
 10
4153.3790708682527111
 20
151.5915879939942101
 30
0.0
 40
0.0997876530691234
 50
228.6502625869379131
 51
300.861517877148799
  0
ARC
  5
8AC0
  8
0
 10
4153.4168955934292171
 20
151.5310350615083053
 30
0.0
 40
0.0284405328727562
 50
298.024666328385706
 51
35.9929047524486734
  0
ARC
  5
8AC1
  8
0
 10
4153.3738122258710064
 20
151.4772539244328016
 30
0.0
 40
0.0966334993067387
 50
46.8454261306898587
 51
128.0575747109222959
  0
ARC
  5
8AC2
  8
0
 10
4153.4107828508040257
 20
151.5455141509278008
 30
0.0
 40
0.0476957477653339
 50
298.7569925817794001
 51
344.828417510840211
  0
ARC
  5
8AC3
  8
0
 10
4153.3791214886241505
 20
151.6032084950288095
 30
0.0
 40
0.1135066829985698
 50
231.2787014660626994
 51
298.7569925817794001
  0
ARC
  5
8AC4
  8
0
 10
4153.3380929387885772
 20
151.546076184974595
 30
0.0
 40
0.0434277584956983
 50
188.6608072629298931
 51
226.3545028203324136
  0
ARC
  5
8AC5
  8
0
 10
4153.3188195331085808
 20
151.5637212675480043
 30
0.0
 40
0.0338327062025688
 50
149.7241614233244036
 51
225.6292722100479011
  0
ARC
  5
8AC6
  8
0
 10
4153.374714361038059
 20
151.4954577183034985
 30
0.0
 40
0.1205149823503475
 50
41.0855523711819686
 51
134.9301651770834951
  0
ARC
  5
8AC7
  8
0
 10
4153.4329498270535623
 20
151.5597687111078926
 30
0.0
 40
0.0358395659310882
 50
311.7532012491965929
 51
24.5478748357403411
  0
LINE
  5
8AC8
  8
0
 10
4153.4648538670680864
 20
151.5754497830552907
 30
0.0
 11
4153.4568162308241881
 21
151.5330316720560972
 31
0.0
  0
LINE
  5
8AC9
  8
0
 10
4153.2874336729018978
 20
151.5763537569328889
 30
0.0
 11
4153.2951603816227362
 21
151.5395366327560964
 31
0.0
  0
ARC
  5
8ACA
  8
0
 10
4153.3753756329842872
 20
151.518242314147102
 30
0.0
 40
0.0237188866283004
 50
49.8931967845518969
 51
126.3616946939957018
  0
ARC
  5
8ACB
  8
0
 10
4153.3874346102529671
 20
151.5325593593663882
 30
0.0
 40
0.005
 50
314.2049268196739717
 51
49.8931967845518969
  0
ARC
  5
8ACC
  8
0
 10
4153.3642775675116354
 20
151.5333164529087924
 30
0.0
 40
0.005
 50
126.3616946939957018
 51
222.0499646588816063
  0
ARC
  5
8ACD
  8
0
 10
4153.3762206592491566
 20
151.5440889344635025
 30
0.0
 40
0.0210836500539991
 50
222.0499646588816063
 51
314.2049268196739717
  0
ARC
  5
8ACE
  8
0
 10
4153.6980409221569062
 20
151.5075274824687881
 30
0.0
 40
0.0262823379935567
 50
134.0351500246000001
 51
222.539078576699012
  0
ARC
  5
8ACF
  8
0
 10
4153.7446007350608852
 20
151.5646678646924101
 30
0.0
 40
0.0997876530691234
 50
228.6502625869379131
 51
300.861517877148799
  0
ARC
  5
8AD0
  8
0
 10
4153.7824254602383007
 20
151.5041149322065905
 30
0.0
 40
0.0284405328727562
 50
298.024666328385706
 51
35.9929047524486734
  0
ARC
  5
8AD1
  8
0
 10
4153.739342092678271
 20
151.4503337951310016
 30
0.0
 40
0.0966334993067387
 50
46.8454261306898587
 51
128.0575747109222959
  0
ARC
  5
8AD2
  8
0
 10
4153.7763127176112903
 20
151.518594021626086
 30
0.0
 40
0.0476957477653339
 50
298.7569925817794001
 51
344.828417510840211
  0
ARC
  5
8AD3
  8
0
 10
4153.7446513554341436
 20
151.5762883657270095
 30
0.0
 40
0.1135066829985698
 50
231.2787014660626994
 51
298.7569925817794001
  0
ARC
  5
8AD4
  8
0
 10
4153.7036228055958418
 20
151.519156055672795
 30
0.0
 40
0.0434277584956983
 50
188.6608072629298931
 51
226.3545028203324136
  0
ARC
  5
8AD5
  8
0
 10
4153.6843493999149359
 20
151.5368011382462896
 30
0.0
 40
0.0338327062025688
 50
149.7241614233244036
 51
225.6292722100479011
  0
ARC
  5
8AD6
  8
0
 10
4153.7402442278453236
 20
151.4685375890016985
 30
0.0
 40
0.1205149823503475
 50
41.0855523711819686
 51
134.9301651770834951
  0
ARC
  5
8AD7
  8
0
 10
4153.798479693860827
 20
151.5328485818060926
 30
0.0
 40
0.0358395659310882
 50
311.7532012491965929
 51
24.5478748357403411
  0
LINE
  5
8AD8
  8
0
 10
4153.83038373387717
 20
151.5485296537536044
 30
0.0
 11
4153.8223460976323622
 21
151.5061115427542973
 31
0.0
  0
LINE
  5
8AD9
  8
0
 10
4153.6529635397091624
 20
151.5494336276310889
 30
0.0
 11
4153.6606902484309103
 21
151.5126165034542964
 31
0.0
  0
ARC
  5
8ADA
  8
0
 10
4153.7409054997942803
 20
151.4913221848453873
 30
0.0
 40
0.0237188866283004
 50
49.8931967845518969
 51
126.3616946939957018
  0
ARC
  5
8ADB
  8
0
 10
4153.7529644770620507
 20
151.5056392300645882
 30
0.0
 40
0.005
 50
314.2049268196739717
 51
49.8931967845518969
  0
ARC
  5
8ADC
  8
0
 10
4153.7298074343216285
 20
151.5063963236069924
 30
0.0
 40
0.005
 50
126.3616946939957018
 51
222.0499646588816063
  0
ARC
  5
8ADD
  8
0
 10
4153.7417505260582402
 20
151.5171688051617878
 30
0.0
 40
0.0210836500539991
 50
222.0499646588816063
 51
314.2049268196739717
  0
ARC
  5
8ADE
  8
0
 10
4153.5668041844401159
 20
151.6663204850152056
 30
0.0
 40
0.0262823379935567
 50
134.0351500246000001
 51
222.539078576699012
  0
ARC
  5
8ADF
  8
0
 10
4153.6133639973431855
 20
151.7234608672387992
 30
0.0
 40
0.0997876530691234
 50
228.6502625869379131
 51
300.861517877148799
  0
ARC
  5
8AE0
  8
0
 10
4153.651188722518782
 20
151.6629079347528091
 30
0.0
 40
0.0284405328727562
 50
298.024666328385706
 51
35.9929047524486734
  0
ARC
  5
8AE1
  8
0
 10
4153.6081053549605713
 20
151.6091267976773906
 30
0.0
 40
0.0966334993067387
 50
46.8454261306898587
 51
128.0575747109222959
  0
ARC
  5
8AE2
  8
0
 10
4153.6450759798954095
 20
151.6773870241723898
 30
0.0
 40
0.0476957477653339
 50
298.7569925817794001
 51
344.828417510840211
  0
ARC
  5
8AE3
  8
0
 10
4153.6134146177137154
 20
151.7350813682733985
 30
0.0
 40
0.1135066829985698
 50
231.2787014660626994
 51
298.7569925817794001
  0
ARC
  5
8AE4
  8
0
 10
4153.5723860678790516
 20
151.6779490582192125
 30
0.0
 40
0.0434277584956983
 50
188.6608072629298931
 51
226.3545028203324136
  0
ARC
  5
8AE5
  8
0
 10
4153.5531126621990552
 20
151.6955941407925934
 30
0.0
 40
0.0338327062025688
 50
149.7241614233244036
 51
225.6292722100479011
  0
ARC
  5
8AE6
  8
0
 10
4153.6090074901294429
 20
151.6273305915480876
 30
0.0
 40
0.1205149823503475
 50
41.0855523711819686
 51
134.9301651770834951
  0
ARC
  5
8AE7
  8
0
 10
4153.6672429561449462
 20
151.6916415843525954
 30
0.0
 40
0.0358395659310882
 50
311.7532012491965929
 51
24.5478748357403411
  0
LINE
  5
8AE8
  8
0
 10
4153.6991469961612893
 20
151.7073226562999082
 30
0.0
 11
4153.691109359913753
 21
151.6649045453006863
 31
0.0
  0
LINE
  5
8AE9
  8
0
 10
4153.5217268019905532
 20
151.7082266301775917
 30
0.0
 11
4153.5294535107150296
 21
151.6714095060007139
 31
0.0
  0
ARC
  5
8AEA
  8
0
 10
4153.6096687620738521
 20
151.6501151873916911
 30
0.0
 40
0.0237188866283004
 50
49.8931967845518969
 51
126.3616946939957018
  0
ARC
  5
8AEB
  8
0
 10
4153.621727739344351
 20
151.664432232611091
 30
0.0
 40
0.005
 50
314.2049268196739717
 51
49.8931967845518969
  0
ARC
  5
8AEC
  8
0
 10
4153.5985706966039288
 20
151.6651893261532962
 30
0.0
 40
0.005
 50
126.3616946939957018
 51
222.0499646588816063
  0
ARC
  5
8AED
  8
0
 10
4153.610513788339631
 20
151.6759618077082052
 30
0.0
 40
0.0210836500539991
 50
222.0499646588816063
 51
314.2049268196739717
  0
ARC
  5
8AEE
  8
0
 10
4153.8325919641501969
 20
151.765041892075601
 30
0.0
 40
0.0262823379935567
 50
134.0351500246000001
 51
222.539078576699012
  0
ARC
  5
8AEF
  8
0
 10
4153.8791517770532664
 20
151.8221822742991947
 30
0.0
 40
0.0997876530691234
 50
228.6502625869379131
 51
300.861517877148799
  0
ARC
  5
8AF0
  8
0
 10
4153.9169765022297724
 20
151.7616293418132045
 30
0.0
 40
0.0284405328727562
 50
298.024666328385706
 51
35.9929047524486734
  0
ARC
  5
8AF1
  8
0
 10
4153.8738931346706522
 20
151.7078482047377861
 30
0.0
 40
0.0966334993067387
 50
46.8454261306898587
 51
128.0575747109222959
  0
ARC
  5
8AF2
  8
0
 10
4153.9108637596036715
 20
151.776108431232899
 30
0.0
 40
0.0476957477653339
 50
298.7569925817794001
 51
344.828417510840211
  0
ARC
  5
8AF3
  8
0
 10
4153.8792023974237964
 20
151.8338027753339077
 30
0.0
 40
0.1135066829985698
 50
231.2787014660626994
 51
298.7569925817794001
  0
ARC
  5
8AF4
  8
0
 10
4153.8381738475891325
 20
151.7766704652796079
 30
0.0
 40
0.0434277584956983
 50
188.6608072629298931
 51
226.3545028203324136
  0
ARC
  5
8AF5
  8
0
 10
4153.8189004419091361
 20
151.7943155478529889
 30
0.0
 40
0.0338327062025688
 50
149.7241614233244036
 51
225.6292722100479011
  0
ARC
  5
8AF6
  8
0
 10
4153.8747952698386143
 20
151.7260519986085114
 30
0.0
 40
0.1205149823503475
 50
41.0855523711819686
 51
134.9301651770834951
  0
ARC
  5
8AF7
  8
0
 10
4153.9330307358541177
 20
151.7903629914129908
 30
0.0
 40
0.0358395659310882
 50
311.7532012491965929
 51
24.5478748357403411
  0
LINE
  5
8AF8
  8
0
 10
4153.9649347758695512
 20
151.8060440633603037
 30
0.0
 11
4153.9568971396238339
 21
151.7636259523611102
 31
0.0
  0
LINE
  5
8AF9
  8
0
 10
4153.7875145817024531
 20
151.8069480372379019
 30
0.0
 11
4153.7952412904251105
 21
151.7701309130611094
 31
0.0
  0
ARC
  5
8AFA
  8
0
 10
4153.8754565417839331
 20
151.7488365944520865
 30
0.0
 40
0.0237188866283004
 50
49.8931967845518969
 51
126.3616946939957018
  0
ARC
  5
8AFB
  8
0
 10
4153.8875155190553414
 20
151.7631536396714012
 30
0.0
 40
0.005
 50
314.2049268196739717
 51
49.8931967845518969
  0
ARC
  5
8AFC
  8
0
 10
4153.8643584763121908
 20
151.7639107332138053
 30
0.0
 40
0.005
 50
126.3616946939957018
 51
222.0499646588816063
  0
ARC
  5
8AFD
  8
0
 10
4153.8763015680488024
 20
151.7746832147686007
 30
0.0
 40
0.0210836500539991
 50
222.0499646588816063
 51
314.2049268196739717
  0
ARC
  5
8AFE
  8
0
 10
4154.1689556509572867
 20
151.641908324667412
 30
0.0
 40
0.0262823379935567
 50
134.0351500246000001
 51
222.539078576699012
  0
ARC
  5
8AFF
  8
0
 10
4154.2155154638621752
 20
151.6990487068910056
 30
0.0
 40
0.0997876530691234
 50
228.6502625869379131
 51
300.861517877148799
  0
ARC
  5
8B00
  8
0
 10
4154.2533401890377718
 20
151.6384957744049871
 30
0.0
 40
0.0284405328727562
 50
298.024666328385706
 51
35.9929047524486734
  0
ARC
  5
8B01
  8
0
 10
4154.2102568214768326
 20
151.5847146373295971
 30
0.0
 40
0.0966334993067387
 50
46.8454261306898587
 51
128.0575747109222959
  0
ARC
  5
8B02
  8
0
 10
4154.2472274464098518
 20
151.6529748638245962
 30
0.0
 40
0.0476957477653339
 50
298.7569925817794001
 51
344.828417510840211
  0
ARC
  5
8B03
  8
0
 10
4154.2155660842317957
 20
151.710669207925605
 30
0.0
 40
0.1135066829985698
 50
231.2787014660626994
 51
298.7569925817794001
  0
ARC
  5
8B04
  8
0
 10
4154.1745375343962223
 20
151.6535368978713905
 30
0.0
 40
0.0434277584956983
 50
188.6608072629298931
 51
226.3545028203324136
  0
ARC
  5
8B05
  8
0
 10
4154.155264128716226
 20
151.6711819804447998
 30
0.0
 40
0.0338327062025688
 50
149.7241614233244036
 51
225.6292722100479011
  0
ARC
  5
8B06
  8
0
 10
4154.2111589566438852
 20
151.602918431200294
 30
0.0
 40
0.1205149823503475
 50
41.0855523711819686
 51
134.9301651770834951
  0
ARC
  5
8B07
  8
0
 10
4154.2693944226612075
 20
151.6672294240046881
 30
0.0
 40
0.0358395659310882
 50
311.7532012491965929
 51
24.5478748357403411
  0
LINE
  5
8B08
  8
0
 10
4154.3012984626766411
 20
151.6829104959520862
 30
0.0
 11
4154.2932608264300143
 21
151.6404923849528927
 31
0.0
  0
LINE
  5
8B09
  8
0
 10
4154.123878268507724
 20
151.6838144698297128
 30
0.0
 11
4154.1316049772322003
 21
151.6469973456528919
 31
0.0
  0
ARC
  5
8B0A
  8
0
 10
4154.2118202285910229
 20
151.6257030270438975
 30
0.0
 40
0.0237188866283004
 50
49.8931967845518969
 51
126.3616946939957018
  0
ARC
  5
8B0B
  8
0
 10
4154.2238792058597028
 20
151.6400200722632121
 30
0.0
 40
0.005
 50
314.2049268196739717
 51
49.8931967845518969
  0
ARC
  5
8B0C
  8
0
 10
4154.2007221631201901
 20
151.6407771658055026
 30
0.0
 40
0.005
 50
126.3616946939957018
 51
222.0499646588816063
  0
ARC
  5
8B0D
  8
0
 10
4154.2126652548549828
 20
151.651549647360298
 30
0.0
 40
0.0210836500539991
 50
222.0499646588816063
 51
314.2049268196739717
  0
ARC
  5
8B0E
  8
0
 10
4154.12088432078599
 20
151.8279445103079865
 30
0.0
 40
0.0262823379935567
 50
134.0351500246000001
 51
222.539078576699012
  0
ARC
  5
8B0F
  8
0
 10
4154.167444133689969
 20
151.8850848925316939
 30
0.0
 40
0.0997876530691234
 50
228.6502625869379131
 51
300.861517877148799
  0
ARC
  5
8B10
  8
0
 10
4154.2052688588655656
 20
151.8245319600457037
 30
0.0
 40
0.0284405328727562
 50
298.024666328385706
 51
35.9929047524486734
  0
ARC
  5
8B11
  8
0
 10
4154.1621854913073548
 20
151.7707508229703137
 30
0.0
 40
0.0966334993067387
 50
46.8454261306898587
 51
128.0575747109222959
  0
ARC
  5
8B12
  8
0
 10
4154.1991561162412836
 20
151.8390110494653129
 30
0.0
 40
0.0476957477653339
 50
298.7569925817794001
 51
344.828417510840211
  0
ARC
  5
8B13
  8
0
 10
4154.1674947540614085
 20
151.8967053935662932
 30
0.0
 40
0.1135066829985698
 50
231.2787014660626994
 51
298.7569925817794001
  0
ARC
  5
8B14
  8
0
 10
4154.1264662042249256
 20
151.8395730835119934
 30
0.0
 40
0.0434277584956983
 50
188.6608072629298931
 51
226.3545028203324136
  0
ARC
  5
8B15
  8
0
 10
4154.1071927985440198
 20
151.8572181660854881
 30
0.0
 40
0.0338327062025688
 50
149.7241614233244036
 51
225.6292722100479011
  0
ARC
  5
8B16
  8
0
 10
4154.1630876264753169
 20
151.7889546168410106
 30
0.0
 40
0.1205149823503475
 50
41.0855523711819686
 51
134.9301651770834951
  0
ARC
  5
8B17
  8
0
 10
4154.2213230924917298
 20
151.8532656096454048
 30
0.0
 40
0.0358395659310882
 50
311.7532012491965929
 51
24.5478748357403411
  0
LINE
  5
8B18
  8
0
 10
4154.2532271325071633
 20
151.8689466815928029
 30
0.0
 11
4154.245189496261446
 21
151.8265285705936094
 31
0.0
  0
LINE
  5
8B19
  8
0
 10
4154.0758069383373368
 20
151.8698506554704011
 30
0.0
 11
4154.0835336470599941
 21
151.8330335312936086
 31
0.0
  0
ARC
  5
8B1A
  8
0
 10
4154.1637488984197262
 20
151.8117392126846141
 30
0.0
 40
0.0237188866283004
 50
49.8931967845518969
 51
126.3616946939957018
  0
ARC
  5
8B1B
  8
0
 10
4154.1758078756911345
 20
151.8260562579039004
 30
0.0
 40
0.005
 50
314.2049268196739717
 51
49.8931967845518969
  0
ARC
  5
8B1C
  8
0
 10
4154.1526508329498029
 20
151.8268133514461908
 30
0.0
 40
0.005
 50
126.3616946939957018
 51
222.0499646588816063
  0
ARC
  5
8B1D
  8
0
 10
4154.1645939246864145
 20
151.8375858330009862
 30
0.0
 40
0.0210836500539991
 50
222.0499646588816063
 51
314.2049268196739717
  0
ARC
  5
8B1E
  8
0
 10
4154.24496925108906
 20
150.4085098784968011
 30
0.0
 40
0.0262823379935567
 50
134.0351500246000001
 51
222.539078576699012
  0
ARC
  5
8B1F
  8
0
 10
4154.2915290639921295
 20
150.4656502607203947
 30
0.0
 40
0.0997876530691234
 50
228.6502625869379131
 51
300.861517877148799
  0
ARC
  5
8B20
  8
0
 10
4154.3293537891704545
 20
150.4050973282344899
 30
0.0
 40
0.0284405328727562
 50
298.024666328385706
 51
35.9929047524486734
  0
ARC
  5
8B21
  8
0
 10
4154.2862704216104248
 20
150.3513161911589862
 30
0.0
 40
0.0966334993067387
 50
46.8454261306898587
 51
128.0575747109222959
  0
ARC
  5
8B22
  8
0
 10
4154.3232410465443536
 20
150.419576417654099
 30
0.0
 40
0.0476957477653339
 50
298.7569925817794001
 51
344.828417510840211
  0
ARC
  5
8B23
  8
0
 10
4154.2915796843626595
 20
150.4772707617549941
 30
0.0
 40
0.1135066829985698
 50
231.2787014660626994
 51
298.7569925817794001
  0
ARC
  5
8B24
  8
0
 10
4154.2505511345298146
 20
150.420138451700808
 30
0.0
 40
0.0434277584956983
 50
188.6608072629298931
 51
226.3545028203324136
  0
ARC
  5
8B25
  8
0
 10
4154.2312777288479992
 20
150.4377835342743026
 30
0.0
 40
0.0338327062025688
 50
149.7241614233244036
 51
225.6292722100479011
  0
ARC
  5
8B26
  8
0
 10
4154.2871725567783869
 20
150.3695199850297115
 30
0.0
 40
0.1205149823503475
 50
41.0855523711819686
 51
134.9301651770834951
  0
ARC
  5
8B27
  8
0
 10
4154.3454080227938903
 20
150.4338309778341909
 30
0.0
 40
0.0358395659310882
 50
311.7532012491965929
 51
24.5478748357403411
  0
LINE
  5
8B28
  8
0
 10
4154.3773120628102333
 20
150.4495120497815037
 30
0.0
 11
4154.3692744265654255
 21
150.4070939387823103
 31
0.0
  0
LINE
  5
8B29
  8
0
 10
4154.1998918686404068
 20
150.4504160236591019
 30
0.0
 11
4154.2076185773630641
 21
150.4135988994823094
 31
0.0
  0
ARC
  5
8B2A
  8
0
 10
4154.2878338287237057
 20
150.3923045808734003
 30
0.0
 40
0.0237188866283004
 50
49.8931967845518969
 51
126.3616946939957018
  0
ARC
  5
8B2B
  8
0
 10
4154.2998928059905666
 20
150.4066216260926012
 30
0.0
 40
0.005
 50
314.2049268196739717
 51
49.8931967845518969
  0
ARC
  5
8B2C
  8
0
 10
4154.2767357632528729
 20
150.4073787196350054
 30
0.0
 40
0.005
 50
126.3616946939957018
 51
222.0499646588816063
  0
ARC
  5
8B2D
  8
0
 10
4154.2886788549876655
 20
150.418151201189886
 30
0.0
 40
0.0210836500539991
 50
222.0499646588816063
 51
314.2049268196739717
  0
ARC
  5
8B2E
  8
0
 10
4153.9763038331620919
 20
150.4016283537233107
 30
0.0
 40
0.0262823379935567
 50
134.0351500246000001
 51
222.539078576699012
  0
ARC
  5
8B2F
  8
0
 10
4154.0228636460651614
 20
150.4587687359469044
 30
0.0
 40
0.0997876530691234
 50
228.6502625869379131
 51
300.861517877148799
  0
ARC
  5
8B30
  8
0
 10
4154.0606883712416675
 20
150.3982158034608858
 30
0.0
 40
0.0284405328727562
 50
298.024666328385706
 51
35.9929047524486734
  0
ARC
  5
8B31
  8
0
 10
4154.0176050036825472
 20
150.3444346663854958
 30
0.0
 40
0.0966334993067387
 50
46.8454261306898587
 51
128.0575747109222959
  0
ARC
  5
8B32
  8
0
 10
4154.0545756286155665
 20
150.412694892880495
 30
0.0
 40
0.0476957477653339
 50
298.7569925817794001
 51
344.828417510840211
  0
ARC
  5
8B33
  8
0
 10
4154.0229142664356914
 20
150.4703892369815037
 30
0.0
 40
0.1135066829985698
 50
231.2787014660626994
 51
298.7569925817794001
  0
ARC
  5
8B34
  8
0
 10
4153.9818857166010275
 20
150.4132569269272892
 30
0.0
 40
0.0434277584956983
 50
188.6608072629298931
 51
226.3545028203324136
  0
ARC
  5
8B35
  8
0
 10
4153.9626123109210312
 20
150.4309020095006986
 30
0.0
 40
0.0338327062025688
 50
149.7241614233244036
 51
225.6292722100479011
  0
ARC
  5
8B36
  8
0
 10
4154.0185071388486904
 20
150.3626384602561927
 30
0.0
 40
0.1205149823503475
 50
41.0855523711819686
 51
134.9301651770834951
  0
ARC
  5
8B37
  8
0
 10
4154.0767426048660127
 20
150.4269494530605868
 30
0.0
 40
0.0358395659310882
 50
311.7532012491965929
 51
24.5478748357403411
  0
LINE
  5
8B38
  8
0
 10
4154.1086466448832653
 20
150.4426305250080134
 30
0.0
 11
4154.100609008635729
 21
150.4002124140087915
 31
0.0
  0
LINE
  5
8B39
  8
0
 10
4153.9312264507143482
 20
150.4435344988856116
 30
0.0
 11
4153.9389531594370055
 21
150.4067173747087907
 31
0.0
  0
ARC
  5
8B3A
  8
0
 10
4154.0191684107958281
 20
150.3854230560997962
 30
0.0
 40
0.0237188866283004
 50
49.8931967845518969
 51
126.3616946939957018
  0
ARC
  5
8B3B
  8
0
 10
4154.0312273880635985
 20
150.3997401013191961
 30
0.0
 40
0.005
 50
314.2049268196739717
 51
49.8931967845518969
  0
ARC
  5
8B3C
  8
0
 10
4154.0080703453240858
 20
150.4004971948614013
 30
0.0
 40
0.005
 50
126.3616946939957018
 51
222.0499646588816063
  0
ARC
  5
8B3D
  8
0
 10
4154.0200134370606975
 20
150.4112696764161967
 30
0.0
 40
0.0210836500539991
 50
222.0499646588816063
 51
314.2049268196739717
  0
ARC
  5
8B3E
  8
0
 10
4153.9950592184359266
 20
150.5820213874619071
 30
0.0
 40
0.0262823379935567
 50
134.0351500246000001
 51
222.539078576699012
  0
ARC
  5
8B3F
  8
0
 10
4154.0416190313389961
 20
150.6391617696855008
 30
0.0
 40
0.0997876530691234
 50
228.6502625869379131
 51
300.861517877148799
  0
ARC
  5
8B40
  8
0
 10
4154.0794437565173212
 20
150.5786088371995106
 30
0.0
 40
0.0284405328727562
 50
298.024666328385706
 51
35.9929047524486734
  0
ARC
  5
8B41
  8
0
 10
4154.0363603889536535
 20
150.5248277001240069
 30
0.0
 40
0.0966334993067387
 50
46.8454261306898587
 51
128.0575747109222959
  0
ARC
  5
8B42
  8
0
 10
4154.0733310138866727
 20
150.5930879266190914
 30
0.0
 40
0.0476957477653339
 50
298.7569925817794001
 51
344.828417510840211
  0
ARC
  5
8B43
  8
0
 10
4154.0416696517104356
 20
150.6507822707201001
 30
0.0
 40
0.1135066829985698
 50
231.2787014660626994
 51
298.7569925817794001
  0
ARC
  5
8B44
  8
0
 10
4154.0006411018721337
 20
150.5936499606658003
 30
0.0
 40
0.0434277584956983
 50
188.6608072629298931
 51
226.3545028203324136
  0
ARC
  5
8B45
  8
0
 10
4153.9813676961930469
 20
150.611295043239295
 30
0.0
 40
0.0338327062025688
 50
149.7241614233244036
 51
225.6292722100479011
  0
ARC
  5
8B46
  8
0
 10
4154.0372625241252535
 20
150.5430314939947039
 30
0.0
 40
0.1205149823503475
 50
41.0855523711819686
 51
134.9301651770834951
  0
ARC
  5
8B47
  8
0
 10
4154.0954979901398474
 20
150.6073424867992117
 30
0.0
 40
0.0358395659310882
 50
311.7532012491965929
 51
24.5478748357403411
  0
LINE
  5
8B48
  8
0
 10
4154.1274020301543715
 20
150.6230235587466098
 30
0.0
 11
4154.1193643939086542
 21
150.5806054477473026
 31
0.0
  0
LINE
  5
8B49
  8
0
 10
4153.9499818359872734
 20
150.6239275326240943
 30
0.0
 11
4153.9577085447090212
 21
150.5871104084473018
 31
0.0
  0
ARC
  5
8B4A
  8
0
 10
4154.0379237960669343
 20
150.5658160898383926
 30
0.0
 40
0.0237188866283004
 50
49.8931967845518969
 51
126.3616946939957018
  0
ARC
  5
8B4B
  8
0
 10
4154.0499827733383427
 20
150.5801331350577072
 30
0.0
 40
0.005
 50
314.2049268196739717
 51
49.8931967845518969
  0
ARC
  5
8B4C
  8
0
 10
4154.0268257305979205
 20
150.5808902285999977
 30
0.0
 40
0.005
 50
126.3616946939957018
 51
222.0499646588816063
  0
ARC
  5
8B4D
  8
0
 10
4154.0387688223318037
 20
150.5916627101547931
 30
0.0
 40
0.0210836500539991
 50
222.0499646588816063
 51
314.2049268196739717
  0
ARC
  5
8B4E
  8
0
 10
4153.7907018154546677
 20
150.712527136440201
 30
0.0
 40
0.0262823379935567
 50
134.0351500246000001
 51
222.539078576699012
  0
ARC
  5
8B4F
  8
0
 10
4153.8372616283577372
 20
150.7696675186639084
 30
0.0
 40
0.0997876530691234
 50
228.6502625869379131
 51
300.861517877148799
  0
ARC
  5
8B50
  8
0
 10
4153.8750863535333337
 20
150.7091145861778898
 30
0.0
 40
0.0284405328727562
 50
298.024666328385706
 51
35.9929047524486734
  0
ARC
  5
8B51
  8
0
 10
4153.832002985976942
 20
150.6553334491024998
 30
0.0
 40
0.0966334993067387
 50
46.8454261306898587
 51
128.0575747109222959
  0
ARC
  5
8B52
  8
0
 10
4153.8689736109099613
 20
150.723593675597499
 30
0.0
 40
0.0476957477653339
 50
298.7569925817794001
 51
344.828417510840211
  0
ARC
  5
8B53
  8
0
 10
4153.8373122487282671
 20
150.7812880196985077
 30
0.0
 40
0.1135066829985698
 50
231.2787014660626994
 51
298.7569925817794001
  0
ARC
  5
8B54
  8
0
 10
4153.7962836988936033
 20
150.7241557096442079
 30
0.0
 40
0.0434277584956983
 50
188.6608072629298931
 51
226.3545028203324136
  0
ARC
  5
8B55
  8
0
 10
4153.7770102932136069
 20
150.7418007922177026
 30
0.0
 40
0.0338327062025688
 50
149.7241614233244036
 51
225.6292722100479011
  0
ARC
  5
8B56
  8
0
 10
4153.8329051211439946
 20
150.6735372429731967
 30
0.0
 40
0.1205149823503475
 50
41.0855523711819686
 51
134.9301651770834951
  0
ARC
  5
8B57
  8
0
 10
4153.8911405871604074
 20
150.7378482357775908
 30
0.0
 40
0.0358395659310882
 50
311.7532012491965929
 51
24.5478748357403411
  0
LINE
  5
8B58
  8
0
 10
4153.923044627175841
 20
150.7535293077249889
 30
0.0
 11
4153.9150069909283047
 21
150.7111111967257102
 31
0.0
  0
LINE
  5
8B59
  8
0
 10
4153.7456244330060144
 20
150.7544332816025019
 30
0.0
 11
4153.7533511417286718
 21
150.7176161574257947
 31
0.0
  0
ARC
  5
8B5A
  8
0
 10
4153.8335663930920418
 20
150.6963218388168002
 30
0.0
 40
0.0237188866283004
 50
49.8931967845518969
 51
126.3616946939957018
  0
ARC
  5
8B5B
  8
0
 10
4153.8456253703589027
 20
150.7106388840360864
 30
0.0
 40
0.005
 50
314.2049268196739717
 51
49.8931967845518969
  0
ARC
  5
8B5C
  8
0
 10
4153.8224683276166616
 20
150.7113959775784053
 30
0.0
 40
0.005
 50
126.3616946939957018
 51
222.0499646588816063
  0
ARC
  5
8B5D
  8
0
 10
4153.8344114193550922
 20
150.7221684591332007
 30
0.0
 40
0.0210836500539991
 50
222.0499646588816063
 51
314.2049268196739717
  0
ARC
  5
8B5E
  8
0
 10
4153.9941648089552473
 20
150.8277472164658946
 30
0.0
 40
0.0262823379935567
 50
134.0351500246000001
 51
222.539078576699012
  0
ARC
  5
8B5F
  8
0
 10
4154.0407246218583168
 20
150.8848875986894882
 30
0.0
 40
0.0997876530691234
 50
228.6502625869379131
 51
300.861517877148799
  0
ARC
  5
8B60
  8
0
 10
4154.0785493470330039
 20
150.824334666203498
 30
0.0
 40
0.0284405328727562
 50
298.024666328385706
 51
35.9929047524486734
  0
ARC
  5
8B61
  8
0
 10
4154.0354659794747931
 20
150.7705535291279944
 30
0.0
 40
0.0966334993067387
 50
46.8454261306898587
 51
128.0575747109222959
  0
ARC
  5
8B62
  8
0
 10
4154.0724366044078124
 20
150.8388137556231925
 30
0.0
 40
0.0476957477653339
 50
298.7569925817794001
 51
344.828417510840211
  0
ARC
  5
8B63
  8
0
 10
4154.0407752422297563
 20
150.8965080997240875
 30
0.0
 40
0.1135066829985698
 50
231.2787014660626994
 51
298.7569925817794001
  0
ARC
  5
8B64
  8
0
 10
4153.9997466923941829
 20
150.8393757896699015
 30
0.0
 40
0.0434277584956983
 50
188.6608072629298931
 51
226.3545028203324136
  0
ARC
  5
8B65
  8
0
 10
4153.9804732867123676
 20
150.8570208722433108
 30
0.0
 40
0.0338327062025688
 50
149.7241614233244036
 51
225.6292722100479011
  0
ARC
  5
8B66
  8
0
 10
4154.0363681146427552
 20
150.788757322998805
 30
0.0
 40
0.1205149823503475
 50
41.0855523711819686
 51
134.9301651770834951
  0
ARC
  5
8B67
  8
0
 10
4154.0946035806582586
 20
150.8530683158031991
 30
0.0
 40
0.0358395659310882
 50
311.7532012491965929
 51
24.5478748357403411
  0
LINE
  5
8B68
  8
0
 10
4154.1265076206746016
 20
150.8687493877505972
 30
0.0
 11
4154.1184699844279749
 21
150.82633127675129
 31
0.0
  0
LINE
  5
8B69
  8
0
 10
4153.9490874265056846
 20
150.8696533616281101
 30
0.0
 11
4153.9568141352283419
 21
150.8328362374514029
 31
0.0
  0
ARC
  5
8B6A
  8
0
 10
4154.037029386588074
 20
150.8115419188424084
 30
0.0
 40
0.0237188866283004
 50
49.8931967845518969
 51
126.3616946939957018
  0
ARC
  5
8B6B
  8
0
 10
4154.0490883638576634
 20
150.8258589640616947
 30
0.0
 40
0.005
 50
314.2049268196739717
 51
49.8931967845518969
  0
ARC
  5
8B6C
  8
0
 10
4154.0259313211172412
 20
150.8266160576040136
 30
0.0
 40
0.005
 50
126.3616946939957018
 51
222.0499646588816063
  0
ARC
  5
8B6D
  8
0
 10
4154.0378744128529434
 20
150.837388539158809
 30
0.0
 40
0.0210836500539991
 50
222.0499646588816063
 51
314.2049268196739717
  0
ARC
  5
8B6E
  8
0
 10
4153.9754723000351078
 20
151.0206419973343941
 30
0.0
 40
0.0262823379935567
 50
134.0351500246000001
 51
222.539078576699012
  0
ARC
  5
8B6F
  8
0
 10
4154.0220321129381773
 20
151.0777823795579877
 30
0.0
 40
0.0997876530691234
 50
228.6502625869379131
 51
300.861517877148799
  0
ARC
  5
8B70
  8
0
 10
4154.0598568381174118
 20
151.0172294470719976
 30
0.0
 40
0.0284405328727562
 50
298.024666328385706
 51
35.9929047524486734
  0
ARC
  5
8B71
  8
0
 10
4154.0167734705582916
 20
150.9634483099966076
 30
0.0
 40
0.0966334993067387
 50
46.8454261306898587
 51
128.0575747109222959
  0
ARC
  5
8B72
  8
0
 10
4154.0537440954913109
 20
151.0317085364916068
 30
0.0
 40
0.0476957477653339
 50
298.7569925817794001
 51
344.828417510840211
  0
ARC
  5
8B73
  8
0
 10
4154.0220827333123452
 20
151.0894028805925871
 30
0.0
 40
0.1135066829985698
 50
231.2787014660626994
 51
298.7569925817794001
  0
ARC
  5
8B74
  8
0
 10
4153.9810541834758624
 20
151.0322705705382873
 30
0.0
 40
0.0434277584956983
 50
188.6608072629298931
 51
226.3545028203324136
  0
ARC
  5
8B75
  8
0
 10
4153.9617807777949565
 20
151.0499156531118103
 30
0.0
 40
0.0338327062025688
 50
149.7241614233244036
 51
225.6292722100479011
  0
ARC
  5
8B76
  8
0
 10
4154.0176756057244347
 20
150.9816521038673898
 30
0.0
 40
0.1205149823503475
 50
41.0855523711819686
 51
134.9301651770834951
  0
ARC
  5
8B77
  8
0
 10
4154.0759110717408475
 20
151.0459630966716986
 30
0.0
 40
0.0358395659310882
 50
311.7532012491965929
 51
24.5478748357403411
  0
LINE
  5
8B78
  8
0
 10
4154.1078151117562811
 20
151.0616441686190967
 30
0.0
 11
4154.0997774755105638
 21
151.0192260576199033
 31
0.0
  0
LINE
  5
8B79
  8
0
 10
4153.9303949175882735
 20
151.0625481424966949
 30
0.0
 11
4153.9381216263109309
 21
151.0257310183199024
 31
0.0
  0
ARC
  5
8B7A
  8
0
 10
4154.0183368776679345
 20
151.004436699710908
 30
0.0
 40
0.0237188866283004
 50
49.8931967845518969
 51
126.3616946939957018
  0
ARC
  5
8B7B
  8
0
 10
4154.0303958549411618
 20
151.0187537449301942
 30
0.0
 40
0.005
 50
314.2049268196739717
 51
49.8931967845518969
  0
ARC
  5
8B7C
  8
0
 10
4154.0072388121989206
 20
151.0195108384725131
 30
0.0
 40
0.005
 50
126.3616946939957018
 51
222.0499646588816063
  0
ARC
  5
8B7D
  8
0
 10
4154.0191819039328038
 20
151.0302833200273085
 30
0.0
 40
0.0210836500539991
 50
222.0499646588816063
 51
314.2049268196739717
  0
ARC
  5
8B7E
  8
0
 10
4154.2449615138275476
 20
151.0029741836463018
 30
0.0
 40
0.0262823379935567
 50
134.0351500246000001
 51
222.539078576699012
  0
ARC
  5
8B7F
  8
0
 10
4154.2915213267306171
 20
151.0601145658700091
 30
0.0
 40
0.0997876530691234
 50
228.6502625869379131
 51
300.861517877148799
  0
ARC
  5
8B80
  8
0
 10
4154.3293460519080327
 20
150.9995616333839905
 30
0.0
 40
0.0284405328727562
 50
298.024666328385706
 51
35.9929047524486734
  0
ARC
  5
8B81
  8
0
 10
4154.2862626843480029
 20
150.9457804963086005
 30
0.0
 40
0.0966334993067387
 50
46.8454261306898587
 51
128.0575747109222959
  0
ARC
  5
8B82
  8
0
 10
4154.3232333092828412
 20
151.0140407228035997
 30
0.0
 40
0.0476957477653339
 50
298.7569925817794001
 51
344.828417510840211
  0
ARC
  5
8B83
  8
0
 10
4154.2915719471038756
 20
151.0717350669046084
 30
0.0
 40
0.1135066829985698
 50
231.2787014660626994
 51
298.7569925817794001
  0
ARC
  5
8B84
  8
0
 10
4154.2505433972692117
 20
151.0146027568503087
 30
0.0
 40
0.0434277584956983
 50
188.6608072629298931
 51
226.3545028203324136
  0
ARC
  5
8B85
  8
0
 10
4154.2312699915892154
 20
151.0322478394238033
 30
0.0
 40
0.0338327062025688
 50
149.7241614233244036
 51
225.6292722100479011
  0
ARC
  5
8B86
  8
0
 10
4154.2871648195159651
 20
150.9639842901792974
 30
0.0
 40
0.1205149823503475
 50
41.0855523711819686
 51
134.9301651770834951
  0
ARC
  5
8B87
  8
0
 10
4154.3454002855341969
 20
151.0282952829836915
 30
0.0
 40
0.0358395659310882
 50
311.7532012491965929
 51
24.5478748357403411
  0
LINE
  5
8B88
  8
0
 10
4154.3773043255478115
 20
151.0439763549310896
 30
0.0
 11
4154.3692666893030037
 21
151.0015582439318962
 31
0.0
  0
LINE
  5
8B89
  8
0
 10
4154.1998841313788944
 20
151.0448803288086026
 30
0.0
 11
4154.2076108401033707
 21
151.0080632046318101
 31
0.0
  0
ARC
  5
8B8A
  8
0
 10
4154.2878260914640123
 20
150.9867688860229009
 30
0.0
 40
0.0237188866283004
 50
49.8931967845518969
 51
126.3616946939957018
  0
ARC
  5
8B8B
  8
0
 10
4154.2998850687317827
 20
151.0010859312421871
 30
0.0
 40
0.005
 50
314.2049268196739717
 51
49.8931967845518969
  0
ARC
  5
8B8C
  8
0
 10
4154.27672802599227
 20
151.001843024784506
 30
0.0
 40
0.005
 50
126.3616946939957018
 51
222.0499646588816063
  0
ARC
  5
8B8D
  8
0
 10
4154.2886711177279722
 20
151.0126155063393014
 30
0.0
 40
0.0210836500539991
 50
222.0499646588816063
 51
314.2049268196739717
  0
ARC
  5
8B8E
  8
0
 10
4154.1007030777000182
 20
150.0368822075319883
 30
0.0
 40
0.1927421565859276
 50
64.4475620145569792
 51
125.1299274386962992
  0
ARC
  5
8B8F
  8
0
 10
4154.1230569311846921
 20
150.0836378631013019
 30
0.0
 40
0.1409175862223613
 50
34.6256647104719519
 51
64.4475620145569792
  0
ARC
  5
8B90
  8
0
 10
4154.181564468212855
 20
150.133778034016899
 30
0.0
 40
0.0647802353497898
 50
313.5861768056188907
 51
27.5187126278529206
  0
ARC
  5
8B91
  8
0
 10
4154.1148425589362887
 20
150.2096992312378916
 30
0.0
 40
0.1658225298535404
 50
265.5402356552978063
 51
312.1990199889203836
  0
ARC
  5
8B92
  8
0
 10
4154.1056473263233784
 20
150.2351277688661924
 30
0.0
 40
0.1907848489371033
 50
235.9395298900359137
 51
268.8890725326464235
  0
ARC
  5
8B93
  8
0
 10
4154.0318145291948895
 20
150.138670361317196
 30
0.0
 40
0.0698897212901058
 50
126.9598456114269993
 51
241.80635645192109
  0
ARC
  5
8B94
  8
0
 10
4154.1000058207609982
 20
150.0608723810300944
 30
0.0
 40
0.0794943820092316
 50
43.5927489302066391
 51
122.9687042177236975
  0
ARC
  5
8B95
  8
0
 10
4154.1330270954467778
 20
150.1011589642467072
 30
0.0
 40
0.0285288708713396
 50
312.6527954731167824
 51
30.6108118289216584
  0
ARC
  5
8B96
  8
0
 10
4154.1053597634254402
 20
150.1426903564658062
 30
0.0
 40
0.0782092468540521
 50
220.954069160411791
 51
306.9355237885279735
  0
ARC
  5
8B97
  8
0
 10
4154.0709046432502873
 20
150.1038895507504094
 30
0.0
 40
0.0275863953504439
 50
120.8791655964876952
 51
206.8550608097714019
  0
ARC
  5
8B98
  8
0
 10
4154.1294068909301131
 20
150.1137258761779947
 30
0.0
 40
0.0456316546509115
 50
298.7635312023974166
 51
343.6094322880172172
  0
ARC
  5
8B99
  8
0
 10
4154.106113861897029
 20
150.1561596941934056
 30
0.0
 40
0.0940382049602132
 50
225.9884982631546109
 51
298.7635312023974166
  0
ARC
  5
8B9A
  8
0
 10
4154.0737092382769333
 20
150.1147618496204927
 30
0.0
 40
0.0421052808182292
 50
190.710549095328588
 51
218.5405431832593024
  0
ARC
  5
8B9B
  8
0
 10
4154.1484585378766496
 20
150.1277156259677952
 30
0.0
 40
0.0365123079731247
 50
312.6239950527453857
 51
28.9680498121520813
  0
ARC
  5
8B9C
  8
0
 10
4154.102469518145881
 20
150.0796812587574891
 30
0.0
 40
0.1019434152692049
 50
40.1396241629303319
 51
138.3088497648768964
  0
ARC
  5
8B9D
  8
0
 10
4154.054442618912617
 20
150.1309211871534046
 30
0.0
 40
0.0326173716327942
 50
149.4804241156971045
 51
227.3350250400553989
  0
LINE
  5
8B9E
  8
0
 10
4154.1832450710053308
 20
150.138808224693804
 30
0.0
 11
4154.1731840952979837
 21
150.1008493749507977
 31
0.0
  0
LINE
  5
8B9F
  8
0
 10
4154.0323374905829041
 20
150.1069366872887088
 30
0.0
 11
4154.0259622856337955
 21
150.1468197263500883
 31
0.0
  0
ARC
  5
8BA0
  8
0
 10
4154.1017266657581786
 20
150.0880645470925003
 30
0.0
 40
0.0237188866283004
 50
49.8931967845518969
 51
126.3616946939957018
  0
ARC
  5
8BA1
  8
0
 10
4154.1137856430295869
 20
150.1023815923117866
 30
0.0
 40
0.005
 50
314.2049268196739717
 51
49.8931967845518969
  0
ARC
  5
8BA2
  8
0
 10
4154.0906286002900742
 20
150.1031386858541907
 30
0.0
 40
0.005
 50
126.3616946939957018
 51
222.0499646588816063
  0
ARC
  5
8BA3
  8
0
 10
4154.1025716920248669
 20
150.1139111674089008
 30
0.0
 40
0.0210836500539991
 50
222.0499646588816063
 51
314.2049268196739717
  0
ARC
  5
8BA4
  8
0
 10
4153.5874260494720147
 20
150.3939099140214921
 30
0.0
 40
0.1927421565859276
 50
64.4475620145569792
 51
125.1299274386962992
  0
ARC
  5
8BA5
  8
0
 10
4153.6097799029548696
 20
150.4406655695908057
 30
0.0
 40
0.1409175862223613
 50
34.6256647104719519
 51
64.4475620145569792
  0
ARC
  5
8BA6
  8
0
 10
4153.6682874399848515
 20
150.4908057405064028
 30
0.0
 40
0.0647802353497898
 50
313.5861768056188907
 51
27.5187126278529206
  0
ARC
  5
8BA7
  8
0
 10
4153.6015655307091947
 20
150.5667269377273101
 30
0.0
 40
0.1658225298535404
 50
265.5402356552978063
 51
312.1990199889203836
  0
ARC
  5
8BA8
  8
0
 10
4153.5923702980953749
 20
150.5921554753556109
 30
0.0
 40
0.1907848489371033
 50
235.9395298900359137
 51
268.8890725326464235
  0
ARC
  5
8BA9
  8
0
 10
4153.5185375009659765
 20
150.4956980678066998
 30
0.0
 40
0.0698897212901058
 50
126.9598456114269993
 51
241.80635645192109
  0
ARC
  5
8BAA
  8
0
 10
4153.5867287925311757
 20
150.4179000875195982
 30
0.0
 40
0.0794943820092316
 50
43.5927489302066391
 51
122.9687042177236975
  0
ARC
  5
8BAB
  8
0
 10
4153.6197500672196838
 20
150.458186670736211
 30
0.0
 40
0.0285288708713396
 50
312.6527954731167824
 51
30.6108118289216584
  0
ARC
  5
8BAC
  8
0
 10
4153.5920827351947082
 20
150.49971806295531
 30
0.0
 40
0.0782092468540521
 50
220.954069160411791
 51
306.9355237885279735
  0
ARC
  5
8BAD
  8
0
 10
4153.5576276150222839
 20
150.4609172572399132
 30
0.0
 40
0.0275863953504439
 50
120.8791655964876952
 51
206.8550608097714019
  0
ARC
  5
8BAE
  8
0
 10
4153.6161298627012002
 20
150.4707535826674984
 30
0.0
 40
0.0456316546509115
 50
298.7635312023974166
 51
343.6094322880172172
  0
ARC
  5
8BAF
  8
0
 10
4153.5928368336690255
 20
150.5131874006829094
 30
0.0
 40
0.0940382049602132
 50
225.9884982631546109
 51
298.7635312023974166
  0
ARC
  5
8BB0
  8
0
 10
4153.5604322100480204
 20
150.4717895561101102
 30
0.0
 40
0.0421052808182292
 50
190.710549095328588
 51
218.5405431832593024
  0
ARC
  5
8BB1
  8
0
 10
4153.6351815096477367
 20
150.4847433324572989
 30
0.0
 40
0.0365123079731247
 50
312.6239950527453857
 51
28.9680498121520813
  0
ARC
  5
8BB2
  8
0
 10
4153.5891924899160585
 20
150.4367089652469929
 30
0.0
 40
0.1019434152692049
 50
40.1396241629303319
 51
138.3088497648768964
  0
ARC
  5
8BB3
  8
0
 10
4153.5411655906837041
 20
150.4879488936429937
 30
0.0
 40
0.0326173716327942
 50
149.4804241156971045
 51
227.3350250400553989
  0
LINE
  5
8BB4
  8
0
 10
4153.6699680427764179
 20
150.4958359311833078
 30
0.0
 11
4153.6599070670681613
 21
150.4578770814403015
 31
0.0
  0
LINE
  5
8BB5
  8
0
 10
4153.5190604623549007
 20
150.4639643937782125
 30
0.0
 11
4153.5126852574057921
 21
150.5038474328397058
 31
0.0
  0
ARC
  5
8BB6
  8
0
 10
4153.5884496375329036
 20
150.4450922535820041
 30
0.0
 40
0.0237188866283004
 50
49.8931967845518969
 51
126.3616946939957018
  0
ARC
  5
8BB7
  8
0
 10
4153.600508614800674
 20
150.4594092988012903
 30
0.0
 40
0.005
 50
314.2049268196739717
 51
49.8931967845518969
  0
ARC
  5
8BB8
  8
0
 10
4153.5773515720611613
 20
150.4601663923436092
 30
0.0
 40
0.005
 50
126.3616946939957018
 51
222.0499646588816063
  0
ARC
  5
8BB9
  8
0
 10
4153.589294663797773
 20
150.4709388738984046
 30
0.0
 40
0.0210836500539991
 50
222.0499646588816063
 51
314.2049268196739717
  0
ARC
  5
8BBA
  8
0
 10
4153.5870374967189491
 20
150.899846702685295
 30
0.0
 40
0.1927421565859276
 50
64.4475620145569792
 51
125.1299274386962992
  0
ARC
  5
8BBB
  8
0
 10
4153.6093913502063515
 20
150.9466023582546086
 30
0.0
 40
0.1409175862223613
 50
34.6256647104719519
 51
64.4475620145569792
  0
ARC
  5
8BBC
  8
0
 10
4153.6678988872336049
 20
150.9967425291702909
 30
0.0
 40
0.0647802353497898
 50
313.5861768056188907
 51
27.5187126278529206
  0
ARC
  5
8BBD
  8
0
 10
4153.6011769779561291
 20
151.072663726391113
 30
0.0
 40
0.1658225298535404
 50
265.5402356552978063
 51
312.1990199889203836
  0
ARC
  5
8BBE
  8
0
 10
4153.5919817453413998
 20
151.098092264019499
 30
0.0
 40
0.1907848489371033
 50
235.9395298900359137
 51
268.8890725326464235
  0
ARC
  5
8BBF
  8
0
 10
4153.5181489482138204
 20
151.0016348564705027
 30
0.0
 40
0.0698897212901058
 50
126.9598456114269993
 51
241.80635645192109
  0
ARC
  5
8BC0
  8
0
 10
4153.5863402397808386
 20
150.923836876183401
 30
0.0
 40
0.0794943820092316
 50
43.5927489302066391
 51
122.9687042177236975
  0
ARC
  5
8BC1
  8
0
 10
4153.6193615144693467
 20
150.9641234594000139
 30
0.0
 40
0.0285288708713396
 50
312.6527954731167824
 51
30.6108118289216584
  0
ARC
  5
8BC2
  8
0
 10
4153.5916941824425521
 20
151.0056548516191981
 30
0.0
 40
0.0782092468540521
 50
220.954069160411791
 51
306.9355237885279735
  0
ARC
  5
8BC3
  8
0
 10
4153.5572390622683088
 20
150.9668540459038013
 30
0.0
 40
0.0275863953504439
 50
120.8791655964876952
 51
206.8550608097714019
  0
ARC
  5
8BC4
  8
0
 10
4153.6157413099499536
 20
150.9766903713313866
 30
0.0
 40
0.0456316546509115
 50
298.7635312023974166
 51
343.6094322880172172
  0
ARC
  5
8BC5
  8
0
 10
4153.5924482809177789
 20
151.0191241893467122
 30
0.0
 40
0.0940382049602132
 50
225.9884982631546109
 51
298.7635312023974166
  0
ARC
  5
8BC6
  8
0
 10
4153.5600436572967737
 20
150.9777263447739131
 30
0.0
 40
0.0421052808182292
 50
190.710549095328588
 51
218.5405431832593024
  0
ARC
  5
8BC7
  8
0
 10
4153.6347929568983091
 20
150.9906801211211871
 30
0.0
 40
0.0365123079731247
 50
312.6239950527453857
 51
28.9680498121520813
  0
ARC
  5
8BC8
  8
0
 10
4153.5888039371648119
 20
150.9426457539109094
 30
0.0
 40
0.1019434152692049
 50
40.1396241629303319
 51
138.3088497648768964
  0
ARC
  5
8BC9
  8
0
 10
4153.5407770379342764
 20
150.9938856823067965
 30
0.0
 40
0.0326173716327942
 50
149.4804241156971045
 51
227.3350250400553989
  0
LINE
  5
8BCA
  8
0
 10
4153.6695794900242618
 20
151.0017727198471107
 30
0.0
 11
4153.6595185143169147
 21
150.9638138701041044
 31
0.0
  0
LINE
  5
8BCB
  8
0
 10
4153.5186719096036541
 20
150.9699011824421007
 30
0.0
 11
4153.5122967046545455
 21
151.0097842215035087
 31
0.0
  0
ARC
  5
8BCC
  8
0
 10
4153.5880610847789285
 20
150.9510290422458922
 30
0.0
 40
0.0237188866283004
 50
49.8931967845518969
 51
126.3616946939957018
  0
ARC
  5
8BCD
  8
0
 10
4153.6001200620521558
 20
150.9653460874650932
 30
0.0
 40
0.005
 50
314.2049268196739717
 51
49.8931967845518969
  0
ARC
  5
8BCE
  8
0
 10
4153.5769630193080957
 20
150.9661031810074121
 30
0.0
 40
0.005
 50
126.3616946939957018
 51
222.0499646588816063
  0
ARC
  5
8BCF
  8
0
 10
4153.5889061110437979
 20
150.9768756625622927
 30
0.0
 40
0.0210836500539991
 50
222.0499646588816063
 51
314.2049268196739717
  0
ARC
  5
8BD0
  8
0
 10
4154.1008959755981778
 20
151.256500129801708
 30
0.0
 40
0.1927421565859276
 50
64.4475620145569792
 51
125.1299274386962992
  0
ARC
  5
8BD1
  8
0
 10
4154.1232498290819422
 20
151.3032557853709079
 30
0.0
 40
0.1409175862223613
 50
34.6256647104719519
 51
64.4475620145569792
  0
ARC
  5
8BD2
  8
0
 10
4154.1817573661119241
 20
151.3533959562863913
 30
0.0
 40
0.0647802353497898
 50
313.5861768056188907
 51
27.5187126278529206
  0
ARC
  5
8BD3
  8
0
 10
4154.1150354568326293
 20
151.4293171535072986
 30
0.0
 40
0.1658225298535404
 50
265.5402356552978063
 51
312.1990199889203836
  0
ARC
  5
8BD4
  8
0
 10
4154.1058402242206284
 20
151.4547456911357131
 30
0.0
 40
0.1907848489371033
 50
235.9395298900359137
 51
268.8890725326464235
  0
ARC
  5
8BD5
  8
0
 10
4154.032007427093049
 20
151.3582882835866883
 30
0.0
 40
0.0698897212901058
 50
126.9598456114269993
 51
241.80635645192109
  0
ARC
  5
8BD6
  8
0
 10
4154.1001987186582483
 20
151.2804903032995867
 30
0.0
 40
0.0794943820092316
 50
43.5927489302066391
 51
122.9687042177236975
  0
ARC
  5
8BD7
  8
0
 10
4154.1332199933467564
 20
151.3207768865161995
 30
0.0
 40
0.0285288708713396
 50
312.6527954731167824
 51
30.6108118289216584
  0
ARC
  5
8BD8
  8
0
 10
4154.1055526613217808
 20
151.3623082787352985
 30
0.0
 40
0.0782092468540521
 50
220.954069160411791
 51
306.9355237885279735
  0
ARC
  5
8BD9
  8
0
 10
4154.0710975411493564
 20
151.3235074730199869
 30
0.0
 40
0.0275863953504439
 50
120.8791655964876952
 51
206.8550608097714019
  0
ARC
  5
8BDA
  8
0
 10
4154.1295997888282727
 20
151.3333437984476006
 30
0.0
 40
0.0456316546509115
 50
298.7635312023974166
 51
343.6094322880172172
  0
ARC
  5
8BDB
  8
0
 10
4154.106306759796098
 20
151.3757776164628979
 30
0.0
 40
0.0940382049602132
 50
225.9884982631546109
 51
298.7635312023974166
  0
ARC
  5
8BDC
  8
0
 10
4154.0739021361750929
 20
151.3343797718900987
 30
0.0
 40
0.0421052808182292
 50
190.710549095328588
 51
218.5405431832593024
  0
ARC
  5
8BDD
  8
0
 10
4154.1486514357738997
 20
151.3473335482374011
 30
0.0
 40
0.0365123079731247
 50
312.6239950527453857
 51
28.9680498121520813
  0
ARC
  5
8BDE
  8
0
 10
4154.1026624160440406
 20
151.2992991810270098
 30
0.0
 40
0.1019434152692049
 50
40.1396241629303319
 51
138.3088497648768964
  0
ARC
  5
8BDF
  8
0
 10
4154.0546355168107766
 20
151.3505391094230106
 30
0.0
 40
0.0326173716327942
 50
149.4804241156971045
 51
227.3350250400553989
  0
LINE
  5
8BE0
  8
0
 10
4154.1834379688998524
 20
151.3584261469632963
 30
0.0
 11
4154.1733769931952338
 21
151.32046729722029
 31
0.0
  0
LINE
  5
8BE1
  8
0
 10
4154.0325303884819732
 20
151.3265546095582863
 30
0.0
 11
4154.0261551835328646
 21
151.3664376486196943
 31
0.0
  0
ARC
  5
8BE2
  8
0
 10
4154.1019195636572476
 20
151.3076824693619926
 30
0.0
 40
0.0237188866283004
 50
49.8931967845518969
 51
126.3616946939957018
  0
ARC
  5
8BE3
  8
0
 10
4154.113978540926837
 20
151.3219995145813073
 30
0.0
 40
0.005
 50
314.2049268196739717
 51
49.8931967845518969
  0
ARC
  5
8BE4
  8
0
 10
4154.0908214981882338
 20
151.3227566081235977
 30
0.0
 40
0.005
 50
126.3616946939957018
 51
222.0499646588816063
  0
ARC
  5
8BE5
  8
0
 10
4154.1027645899230265
 20
151.3335290896783931
 30
0.0
 40
0.0210836500539991
 50
222.0499646588816063
 51
314.2049268196739717
  0
ARC
  5
8BE6
  8
0
 10
4153.8456901788176765
 20
143.9246783896668944
 30
0.0
 40
0.0788
 50
183.0771721812538999
 51
270.0167288807703017
  0
LINE
  5
8BE7
  8
0
 10
4152.202370806979161
 20
151.096444636015292
 30
0.0
 11
4152.202370806979161
 21
151.5786127904748071
 31
0.0
  0
LINE
  5
8BE8
  8
0
 10
4154.878618845850724
 20
143.626618964860711
 30
0.0
 11
4154.878618845850724
 21
143.6522371165264929
 31
0.0
  0
LINE
  5
8BE9
  8
0
 10
4154.878618845850724
 20
143.6911856998929125
 30
0.0
 11
4154.878618845850724
 21
143.7166866439829107
 31
0.0
  0
LINE
  5
8BEA
  8
0
 10
4154.878618845850724
 20
143.7558182621831975
 30
0.0
 11
4154.878618845850724
 21
143.7812406449455125
 31
0.0
  0
LINE
  5
8BEB
  8
0
 10
4154.878618845850724
 20
143.8204554999308868
 30
0.0
 11
4154.878618845850724
 21
143.8458783896668933
 31
0.0
  0
LINE
  5
8BEC
  8
0
 10
4154.878618845850724
 20
143.5876793463320098
 30
0.0
 11
4154.878618845850724
 21
143.5623629935724921
 31
0.0
  0
LINE
  5
8BED
  8
0
 10
4154.85309600740311
 20
143.8056958257967892
 30
0.0
 11
4154.878618845850724
 21
143.8204554999308868
 31
0.0
  0
LINE
  5
8BEE
  8
0
 10
4154.8530960100069933
 20
143.7960002992724924
 30
0.0
 11
4154.878618845850724
 21
143.7812406449455125
 31
0.0
  0
LINE
  5
8BEF
  8
0
 10
4154.8531634771152312
 20
143.741100514026499
 30
0.0
 11
4154.878618845850724
 21
143.7558182621831975
 31
0.0
  0
LINE
  5
8BF0
  8
0
 10
4154.8531634604469218
 20
143.7314045185368059
 30
0.0
 11
4154.878618845850724
 21
143.7166866439829107
 31
0.0
  0
LINE
  5
8BF1
  8
0
 10
4154.8533124014802524
 20
143.6765600826689138
 30
0.0
 11
4154.878618845850724
 21
143.6911856998929125
 31
0.0
  0
LINE
  5
8BF2
  8
0
 10
4154.8533123521656307
 20
143.6668631056195125
 30
0.0
 11
4154.878618845850724
 21
143.6522371165264929
 31
0.0
  0
LINE
  5
8BF3
  8
0
 10
4154.8533058965049349
 20
143.611988956899495
 30
0.0
 11
4154.878618845850724
 21
143.626618964860711
 31
0.0
  0
LINE
  5
8BF4
  8
0
 10
4154.8533083813799749
 20
143.6022906207925018
 30
0.0
 11
4154.878618845850724
 21
143.5876793463320098
 31
0.0
  0
ARC
  5
8BF5
  8
0
 10
4154.8558994336362957
 20
143.8008480632877877
 30
0.0
 40
0.0056
 50
120.0404864593973997
 51
239.9595443276730009
  0
ARC
  5
8BF6
  8
0
 10
4154.8559664882013749
 20
143.7362525114637037
 30
0.0
 40
0.0056
 50
120.0355799296898027
 51
239.9642231046478003
  0
ARC
  5
8BF7
  8
0
 10
4154.8561145472376666
 20
143.6717115798936959
 30
0.0
 40
0.0056
 50
120.0253536124963034
 51
239.9740636302269934
  0
ARC
  5
8BF8
  8
0
 10
4154.8561081328962246
 20
143.6071405065073066
 30
0.0
 40
0.0056
 50
120.0264246748354964
 51
240.0029355913947882
  0
ARC
  5
8BF9
  8
0
 10
3880.9641847234661327
 20
158.6610809028987035
 30
0.0
 40
274.5969803585952036
 50
356.9228278187591172
 51
357.0541953055284239
  0
ARC
  5
8BFA
  8
0
 10
4105.6198618062808237
 20
147.1004476854681968
 30
0.0
 40
49.644048646368141
 50
357.0541953055300155
 51
358.5655581764577846
  0
ARC
  5
8BFB
  8
0
 10
4146.3786917662046108
 20
146.0798072608187113
 30
0.0
 40
8.8724417786170289
 50
358.5655581764577846
 51
7.3096920533287264
  0
ARC
  5
8BFC
  8
0
 10
4170.557805124337392
 20
149.1813804244609969
 30
0.0
 40
15.5047869169269994
 50
184.0460662009635087
 51
187.3096920533286891
  0
ARC
  5
8BFD
  8
0
 10
4157.7789949107500433
 20
148.2774738931244087
 30
0.0
 40
2.694047769933138
 50
174.1055630900079905
 51
184.0460662009635087
  0
ARC
  5
8BFE
  8
0
 10
4156.0318699960789672
 20
148.4817683768609129
 30
0.0
 40
0.9354826388886479
 50
128.9270446287088134
 51
175.562895762530502
  0
ARC
  5
8BFF
  8
0
 10
4160.2564072697687152
 20
142.9243502327639135
 30
0.0
 40
7.9159284356423498
 50
121.4301503912903968
 51
127.4399695583799001
  0
ARC
  5
8C00
  8
0
 10
4154.5900550865835612
 20
152.0804333848585088
 30
0.0
 40
2.8521515907187318
 50
302.6445145926783198
 51
318.6603628930054128
  0
ARC
  5
8C01
  8
0
 10
4155.3580668281229009
 20
151.3826074012521872
 30
0.0
 40
1.8146701767851281
 50
319.1859083461964133
 51
342.9250256587981198
  0
ARC
  5
8C02
  8
0
 10
4155.5840008855793712
 20
151.31350241609411
 30
0.0
 40
1.578404210433398
 50
342.9148448179333855
 51
359.9404893852857867
  0
ARC
  5
8C03
  8
0
 10
4155.6225744751018283
 20
151.3062334585301869
 30
0.0
 40
1.53984006013047
 50
0.2094694954393802
 51
26.4712088071573213
  0
ARC
  5
8C04
  8
0
 10
4155.0770984594882975
 20
151.0154924444092046
 30
0.0
 40
2.157792644658036
 50
26.9256517580990185
 51
58.8648919366032786
  0
ARC
  5
8C05
  8
0
 10
4154.6406977691940483
 20
150.3790748277623948
 30
0.0
 40
2.9285166992637799
 50
57.9947621360320227
 51
70.5016574673620795
  0
ARC
  5
8C06
  8
0
 10
4154.485367169935671
 20
149.9476253216417092
 30
0.0
 40
3.3870701148041711
 50
70.4608301473650727
 51
82.0773710623096804
  0
ARC
  5
8C07
  8
0
 10
4154.4635136583729036
 20
149.8255645689974074
 30
0.0
 40
3.5109813142597681
 50
81.9987037536993171
 51
89.9574857799086232
  0
ARC
  5
8C08
  8
0
 10
4154.4526352557168138
 20
148.9335942361446996
 30
0.0
 40
3.7818765510734611
 50
86.4963200862991641
 51
89.7957218314308676
  0
ARC
  5
8C09
  8
0
 10
4154.4844756764614431
 20
149.4536323787455956
 30
0.0
 40
3.260864572177629
 50
75.66065274495719
 51
86.4963200862991641
  0
ARC
  5
8C0A
  8
0
 10
4154.5843228796065887
 20
149.8442276571103946
 30
0.0
 40
2.8577093471624759
 50
59.0826296668114068
 51
75.66065274495719
  0
ARC
  5
8C0B
  8
0
 10
4155.1038519580943102
 20
150.7117005598582011
 30
0.0
 40
1.8465616327333061
 50
31.6232556407899388
 51
59.0826296668114068
  0
ARC
  5
8C0C
  8
0
 10
4155.6308713233802337
 20
151.0615024909793931
 30
0.0
 40
1.2145757836353761
 50
0.4122060279420113
 51
30.6076319243820016
  0
ARC
  5
8C0D
  8
0
 10
4155.5895992352961912
 20
151.0832151409385915
 30
0.0
 40
1.2558834622595021
 50
323.5505236910316853
 51
359.4080618855011267
  0
ARC
  5
8C0E
  8
0
 10
4155.0293084717095553
 20
151.4969518065875036
 30
0.0
 40
1.9523773708413581
 50
294.5201748135647222
 51
323.5527095686061898
  0
ARC
  5
8C0F
  8
0
 10
4154.5408583654298127
 20
152.4153425001354094
 30
0.0
 40
2.9913254968968501
 50
278.275950165578422
 51
295.7318436714368204
  0
ARC
  5
8C10
  8
0
 10
4154.4671874378527718
 20
152.8075664510321019
 30
0.0
 40
3.3901090930721942
 50
269.981939979019387
 51
278.553914676082627
  0
ARC
  5
8C11
  8
0
 10
4154.468759799401596
 20
149.5423348468245877
 30
0.0
 40
2.7711442446816581
 50
76.3193591742848696
 51
90.0546038496973296
  0
ARC
  5
8C12
  8
0
 10
4154.575099687119291
 20
149.9792000423842921
 30
0.0
 40
2.321522880852382
 50
56.2231696675125932
 51
76.3193591742848696
  0
ARC
  5
8C13
  8
0
 10
4155.0933827299741097
 20
150.7540796740121891
 30
0.0
 40
1.389291280861898
 50
25.9612388554472489
 51
56.2231696675125932
  0
ARC
  5
8C14
  8
0
 10
4155.5099906186851513
 20
150.9569241489963076
 30
0.0
 40
0.9259253196964332
 50
359.5605872466044275
 51
25.9612388554472489
  0
ARC
  5
8C15
  8
0
 10
4155.3175331846168774
 20
150.9584001723575
 30
0.0
 40
1.118388413749229
 50
325.086937277119489
 51
359.5605872466044275
  0
ARC
  5
8C16
  8
0
 10
4154.8607964105231076
 20
151.3099465510616994
 30
0.0
 40
1.6943369635045451
 50
294.5603089706045239
 51
324.1782585492529165
  0
ARC
  5
8C17
  8
0
 10
4154.4834405001256528
 20
152.0780258468749082
 30
0.0
 40
2.5498846046261918
 50
278.1130778375464274
 51
295.0987319713746047
  0
ARC
  5
8C18
  8
0
 10
4154.4478134395385496
 20
152.8277113984069047
 30
0.0
 40
3.297849152568304
 50
270.3180340375697028
 51
276.8876093203659252
  0
ARC
  5
8C19
  8
0
 10
4154.215558459982276
 20
150.4762322756999993
 30
0.0
 40
2.4854396463700681
 50
48.9849321452927882
 51
53.8196456279998188
  0
ARC
  5
8C1A
  8
0
 10
4154.2933098744169911
 20
150.5656275545451024
 30
0.0
 40
2.3669626514445641
 50
39.0066841790148402
 51
48.9849321452927882
  0
ARC
  5
8C1B
  8
0
 10
4154.9829655663188532
 20
151.1242329496652985
 30
0.0
 40
1.479457743948795
 50
14.3244307118888194
 51
39.0066841790148402
  0
ARC
  5
8C1C
  8
0
 10
4155.3348300761417704
 20
151.657211226056404
 30
0.0
 40
1.10267038153676
 50
357.2528705219414178
 51
21.7751797018307087
  0
LINE
  5
8C1D
  8
0
 10
4156.4232048260601005
 20
151.6043623450725022
 30
0.0
 11
4156.7173750645997643
 21
151.6043623450725022
 31
0.0
  0
ARC
  5
8C1E
  8
0
 10
4156.5810005186058333
 20
151.555966522218597
 30
0.0
 40
0.1650504051998794
 50
159.1189565417012091
 51
182.1737074423398042
  0
ARC
  5
8C1F
  8
0
 10
4156.4184190832156673
 20
151.603955549390605
 30
0.0
 40
0.0136958078822866
 50
1.7020612691374211
 51
52.3223126202824318
  0
ARC
  5
8C20
  8
0
 10
4156.4358230139177977
 20
151.5595017028929021
 30
0.0
 40
0.0220494007108962
 50
197.1305141514964134
 51
206.3752849400343905
  0
ARC
  5
8C21
  8
0
 10
4155.3804713562221878
 20
151.3120544409169952
 30
0.0
 40
1.061976561942896
 50
13.1140842173160195
 51
18.6856987061017286
  0
ARC
  5
8C22
  8
0
 10
4155.086073885220685
 20
151.1938066369528997
 30
0.0
 40
1.3788538176337151
 50
19.4210835963314388
 51
38.1899855230779934
  0
ARC
  5
8C23
  8
0
 10
4154.4060890332166309
 20
150.6702589711163967
 30
0.0
 40
2.237010249138911
 50
37.9613968329426683
 51
52.5328382032685965
  0
LINE
  5
8C24
  8
0
 10
4156.4160688792162546
 20
151.5497062838724958
 30
0.0
 11
4156.4074484922157353
 21
151.5496536801724972
 31
0.0
  0
ARC
  5
8C25
  8
0
 10
4156.4076560016537769
 20
151.521808470793701
 30
0.0
 40
0.0278454225357021
 50
90.4269593589539795
 51
105.4457779474696935
  0
ARC
  5
8C26
  8
0
 10
4166.8152693787451426
 20
151.9537054230709998
 30
0.0
 40
10.4091636068628599
 50
182.5517652713481027
 51
184.1909398974025009
  0
ARC
  5
8C27
  8
0
 10
4152.1096726987843795
 20
151.0402487054531946
 30
0.0
 40
4.3269637192435422
 50
358.9484207149819213
 51
2.0230685946946618
  0
LINE
  5
8C28
  8
0
 10
4156.6161596137926608
 20
151.0138111639724912
 30
0.0
 11
4156.4372252071188996
 21
151.0138111639724912
 31
0.0
  0
ARC
  5
8C29
  8
0
 10
4156.6475307069658811
 20
151.1043692160615137
 30
0.0
 40
0.0827166686428634
 50
293.4265444023646978
 51
354.5024086446051115
  0
ARC
  5
8C2A
  8
0
 10
4156.6175959545053047
 20
151.1556724144627992
 30
0.0
 40
0.1418685217563244
 50
269.419901852086582
 51
296.2832491422109911
  0
ARC
  5
8C2B
  8
0
 10
4155.3869923007241596
 20
151.4302110994536008
 30
0.0
 40
1.1886461667802151
 50
331.5304206881100981
 51
339.493450140782727
  0
ARC
  5
8C2C
  8
0
 10
4154.8936225708912389
 20
150.0643557298498081
 30
0.0
 40
2.3912578878658861
 50
72.9741055311873055
 51
79.9515824028860749
  0
ARC
  5
8C2D
  8
0
 10
4154.6612439493401325
 20
148.7529523469528954
 30
0.0
 40
3.723090706363092
 50
79.9515824028860749
 51
86.7263955395599879
  0
ARC
  5
8C2E
  8
0
 10
4154.4556968820106704
 20
145.1593106084957867
 30
0.0
 40
7.3226060266900852
 50
86.7263955395599879
 51
89.9184531964491924
  0
LINE
  5
8C2F
  8
0
 10
4155.6054898612692341
 20
152.3544494784854919
 30
0.0
 11
4155.6073988271391499
 21
152.5125264256980984
 31
0.0
  0
ARC
  5
8C30
  8
0
 10
4155.6006520381961309
 20
152.3545052159363138
 30
0.0
 40
0.0048381441408539
 50
269.3919136996224211
 51
359.3399139747317008
  0
ARC
  5
8C31
  8
0
 10
4155.6009324026781542
 20
152.3724841969091983
 30
0.0
 40
0.0228192637174971
 50
251.7656014850981023
 51
269.1670929900723763
  0
LINE
  5
8C32
  8
0
 10
4155.6005903563209358
 20
152.4961515243523991
 30
0.0
 11
4155.6014444082147747
 21
152.4253408600725095
 31
0.0
  0
LINE
  5
8C33
  8
0
 10
4155.6014444082147747
 20
152.4253408600725095
 30
0.0
 11
4155.6005939988990576
 21
152.3556555686550098
 31
0.0
  0
ARC
  5
8C34
  8
0
 10
4155.5924368009418686
 20
152.3556352331696928
 30
0.0
 40
0.0081572233043671
 50
314.6565565092128054
 51
0.1428352079670183
  0
LINE
  5
8C35
  8
0
 10
4155.5536826582147114
 20
152.5325067223263886
 30
0.0
 11
4155.595155157840054
 21
152.505946025773909
 31
0.0
  0
ARC
  5
8C36
  8
0
 10
4155.5887912144953589
 20
152.4960092141577093
 30
0.0
 40
0.0118
 50
0.6910145095225433
 51
57.3628279952122924
  0
LINE
  5
8C37
  8
0
 10
4155.6072104513041268
 20
152.4969274686150129
 30
0.0
 11
4155.5984046635203413
 21
152.5028518450758099
 31
0.0
  0
LINE
  5
8C38
  8
0
 10
4155.484829549845017
 20
152.5078530451388872
 30
0.0
 11
4155.484829548221569
 21
152.4303914865867
 31
0.0
  0
LINE
  5
8C39
  8
0
 10
4155.4703888653775721
 20
152.5328180223573042
 30
0.0
 11
4155.365685738585853
 21
152.593041000258097
 31
0.0
  0
ARC
  5
8C3A
  8
0
 10
4151.8135278301069775
 20
135.4276048961743868
 30
0.0
 40
17.3885769791871709
 50
77.8316522686510979
 51
78.0264692950392487
  0
ARC
  5
8C3B
  8
0
 10
4154.4838622552979359
 20
147.5549365607195114
 30
0.0
 40
4.9720387725037902
 50
79.1363046681281901
 51
90.2044682892343843
  0
ARC
  5
8C3C
  8
0
 10
4155.4560295498449705
 20
152.5078530457421948
 30
0.0
 40
0.0288
 50
359.999998799883997
 51
60.0934165806960934
  0
ARC
  5
8C3D
  8
0
 10
4155.4798295482205504
 20
152.4303914866914909
 30
0.0
 40
0.005
 50
257.8316522686511121
 51
359.9999987998775168
  0
LINE
  5
8C3E
  8
0
 10
4155.4315129533933941
 20
152.4356263275113008
 30
0.0
 11
4155.4798870177201024
 21
152.5239856594972139
 31
0.0
  0
ARC
  5
8C3F
  8
0
 10
4154.8101013706891536
 20
149.7271434378870083
 30
0.0
 40
0.0262823379935567
 50
317.460921423300988
 51
45.9648499754000071
  0
ARC
  5
8C40
  8
0
 10
4154.763541557784265
 20
149.7842838201106019
 30
0.0
 40
0.0997876530691234
 50
239.138482122851201
 51
311.3497374130620869
  0
ARC
  5
8C41
  8
0
 10
4154.725716832611397
 20
149.7237308876246118
 30
0.0
 40
0.0284405328727562
 50
144.0070952475512911
 51
241.975333671614294
  0
ARC
  5
8C42
  8
0
 10
4154.7688002001696077
 20
149.6699497505491934
 30
0.0
 40
0.0966334993067387
 50
51.9424252890776685
 51
133.1545738693100986
  0
ARC
  5
8C43
  8
0
 10
4154.7318295752356789
 20
149.7382099770443062
 30
0.0
 40
0.0476957477653339
 50
195.1715824891599027
 51
241.2430074182207136
  0
ARC
  5
8C44
  8
0
 10
4154.7634909374137351
 20
149.7959043211452013
 30
0.0
 40
0.1135066829985698
 50
241.2430074182207136
 51
308.7212985339372722
  0
ARC
  5
8C45
  8
0
 10
4154.8045194872502179
 20
149.7387720110909015
 30
0.0
 40
0.0434277584956983
 50
313.6454971796675864
 51
351.3391927370701069
  0
ARC
  5
8C46
  8
0
 10
4154.8237928929320333
 20
149.7564170936643961
 30
0.0
 40
0.0338327062025688
 50
314.3707277899521273
 51
30.275838576675639
  0
ARC
  5
8C47
  8
0
 10
4154.7678980650016456
 20
149.6881535444198903
 30
0.0
 40
0.1205149823503475
 50
45.069834822916512
 51
138.9144476288180101
  0
ARC
  5
8C48
  8
0
 10
4154.7096625989843233
 20
149.7524645372243128
 30
0.0
 40
0.0358395659310882
 50
155.4521251642595985
 51
228.2467987508034071
  0
LINE
  5
8C49
  8
0
 10
4154.6777585589697992
 20
149.7681456091717109
 30
0.0
 11
4154.685796195216426
 21
149.725727498172489
 31
0.0
  0
LINE
  5
8C4A
  8
0
 10
4154.8551787531378068
 20
149.7690495830493091
 30
0.0
 11
4154.8474520444160589
 21
149.7322324588724882
 31
0.0
  0
ARC
  5
8C4B
  8
0
 10
4154.7672367930554174
 20
149.7109381402634938
 30
0.0
 40
0.0237188866283004
 50
53.6383053060042485
 51
130.1068032154470018
  0
ARC
  5
8C4C
  8
0
 10
4154.755177815785828
 20
149.7252551854828084
 30
0.0
 40
0.005
 50
130.1068032154470018
 51
225.7950731803259998
  0
ARC
  5
8C4D
  8
0
 10
4154.7783348585262502
 20
149.7260122790250989
 30
0.0
 40
0.005
 50
317.9500353411183937
 51
53.6383053060042485
  0
ARC
  5
8C4E
  8
0
 10
4154.7663917667896385
 20
149.7367847605798943
 30
0.0
 40
0.0210836500539991
 50
225.7950731803259998
 51
317.9500353411183937
  0
ARC
  5
8C4F
  8
0
 10
4154.7645862711733571
 20
149.8660220191312931
 30
0.0
 40
0.0262823379935567
 50
317.460921423300988
 51
45.9648499754000071
  0
ARC
  5
8C50
  8
0
 10
4154.7180264582693781
 20
149.9231624013548014
 30
0.0
 40
0.0997876530691234
 50
239.138482122851201
 51
311.3497374130620869
  0
ARC
  5
8C51
  8
0
 10
4154.6802017330937815
 20
149.8626094688688966
 30
0.0
 40
0.0284405328727562
 50
144.0070952475512911
 51
241.975333671614294
  0
ARC
  5
8C52
  8
0
 10
4154.7232851006519923
 20
149.8088283317933929
 30
0.0
 40
0.0966334993067387
 50
51.9424252890776685
 51
133.1545738693100986
  0
ARC
  5
8C53
  8
0
 10
4154.686314475718973
 20
149.8770885582885057
 30
0.0
 40
0.0476957477653339
 50
195.1715824891599027
 51
241.2430074182207136
  0
ARC
  5
8C54
  8
0
 10
4154.7179758378988481
 20
149.9347829023894008
 30
0.0
 40
0.1135066829985698
 50
241.2430074182207136
 51
308.7212985339372722
  0
ARC
  5
8C55
  8
0
 10
4154.7590043877344215
 20
149.8776505923351863
 30
0.0
 40
0.0434277584956983
 50
313.6454971796675864
 51
351.3391927370701069
  0
ARC
  5
8C56
  8
0
 10
4154.7782777934144178
 20
149.8952956749087093
 30
0.0
 40
0.0338327062025688
 50
314.3707277899521273
 51
30.275838576675639
  0
ARC
  5
8C57
  8
0
 10
4154.7223829654840301
 20
149.8270321256642035
 30
0.0
 40
0.1205149823503475
 50
45.069834822916512
 51
138.9144476288180101
  0
ARC
  5
8C58
  8
0
 10
4154.6641474994676173
 20
149.8913431184685976
 30
0.0
 40
0.0358395659310882
 50
155.4521251642595985
 51
228.2467987508034071
  0
LINE
  5
8C59
  8
0
 10
4154.6322434594521837
 20
149.9070241904159957
 30
0.0
 11
4154.6402810956988105
 21
149.8646060794166885
 31
0.0
  0
LINE
  5
8C5A
  8
0
 10
4154.8096636536192818
 20
149.9079281642935086
 30
0.0
 11
4154.801936944899353
 21
149.8711110401168014
 31
0.0
  0
ARC
  5
8C5B
  8
0
 10
4154.7217216935387114
 20
149.849816721507807
 30
0.0
 40
0.0237188866283004
 50
53.6383053060042485
 51
130.1068032154470018
  0
ARC
  5
8C5C
  8
0
 10
4154.7096627162700315
 20
149.8641337667270932
 30
0.0
 40
0.005
 50
130.1068032154470018
 51
225.7950731803259998
  0
ARC
  5
8C5D
  8
0
 10
4154.7328197590104537
 20
149.8648908602694121
 30
0.0
 40
0.005
 50
317.9500353411183937
 51
53.6383053060042485
  0
ARC
  5
8C5E
  8
0
 10
4154.720876667273842
 20
149.8756633418242075
 30
0.0
 40
0.0210836500539991
 50
225.7950731803259998
 51
317.9500353411183937
  0
ARC
  5
8C5F
  8
0
 10
4155.1001979318725716
 20
149.7876282087067068
 30
0.0
 40
0.0262823379935567
 50
317.460921423300988
 51
45.9648499754000071
  0
ARC
  5
8C60
  8
0
 10
4155.0536381189676831
 20
149.8447685909303004
 30
0.0
 40
0.0997876530691234
 50
239.138482122851201
 51
311.3497374130620869
  0
ARC
  5
8C61
  8
0
 10
4155.0158133937929961
 20
149.7842156584443103
 30
0.0
 40
0.0284405328727562
 50
144.0070952475512911
 51
241.975333671614294
  0
ARC
  5
8C62
  8
0
 10
4155.0588967613512068
 20
149.7304345213688919
 30
0.0
 40
0.0966334993067387
 50
51.9424252890776685
 51
133.1545738693100986
  0
ARC
  5
8C63
  8
0
 10
4155.021926136419097
 20
149.7986947478640047
 30
0.0
 40
0.0476957477653339
 50
195.1715824891599027
 51
241.2430074182207136
  0
ARC
  5
8C64
  8
0
 10
4155.0535874985980627
 20
149.8563890919648998
 30
0.0
 40
0.1135066829985698
 50
241.2430074182207136
 51
308.7212985339372722
  0
ARC
  5
8C65
  8
0
 10
4155.094616048431817
 20
149.7992567819107137
 30
0.0
 40
0.0434277584956983
 50
313.6454971796675864
 51
351.3391927370701069
  0
ARC
  5
8C66
  8
0
 10
4155.1138894541136324
 20
149.8169018644842083
 30
0.0
 40
0.0338327062025688
 50
314.3707277899521273
 51
30.275838576675639
  0
ARC
  5
8C67
  8
0
 10
4155.0579946261841542
 20
149.7486383152397025
 30
0.0
 40
0.1205149823503475
 50
45.069834822916512
 51
138.9144476288180101
  0
ARC
  5
8C68
  8
0
 10
4154.9997591601677414
 20
149.8129493080440113
 30
0.0
 40
0.0358395659310882
 50
155.4521251642595985
 51
228.2467987508034071
  0
LINE
  5
8C69
  8
0
 10
4154.9678551201523078
 20
149.8286303799914094
 30
0.0
 11
4154.9758927563980251
 21
149.7862122689921875
 31
0.0
  0
LINE
  5
8C6A
  8
0
 10
4155.1452753143221344
 20
149.8295343538690076
 30
0.0
 11
4155.1375486055985675
 21
149.7927172296921867
 31
0.0
  0
ARC
  5
8C6B
  8
0
 10
4155.057333354237926
 20
149.771422911083306
 30
0.0
 40
0.0237188866283004
 50
53.6383053060042485
 51
130.1068032154470018
  0
ARC
  5
8C6C
  8
0
 10
4155.0452743769692461
 20
149.7857399563025922
 30
0.0
 40
0.005
 50
130.1068032154470018
 51
225.7950731803259998
  0
ARC
  5
8C6D
  8
0
 10
4155.0684314197087588
 20
149.7864970498449111
 30
0.0
 40
0.005
 50
317.9500353411183937
 51
53.6383053060042485
  0
ARC
  5
8C6E
  8
0
 10
4155.0564883279739661
 20
149.7972695313997065
 30
0.0
 40
0.0210836500539991
 50
225.7950731803259998
 51
317.9500353411183937
  0
ARC
  5
8C6F
  8
0
 10
4155.3665845043651643
 20
149.8866025947392018
 30
0.0
 40
0.0262823379935567
 50
317.460921423300988
 51
45.9648499754000071
  0
ARC
  5
8C70
  8
0
 10
4155.3200246914639138
 20
149.9437429769627954
 30
0.0
 40
0.0997876530691234
 50
239.138482122851201
 51
311.3497374130620869
  0
ARC
  5
8C71
  8
0
 10
4155.2821999662883172
 20
149.8831900444768053
 30
0.0
 40
0.0284405328727562
 50
144.0070952475512911
 51
241.975333671614294
  0
ARC
  5
8C72
  8
0
 10
4155.3252833338474375
 20
149.8294089074015005
 30
0.0
 40
0.0966334993067387
 50
51.9424252890776685
 51
133.1545738693100986
  0
ARC
  5
8C73
  8
0
 10
4155.2883127089144182
 20
149.8976691338964997
 30
0.0
 40
0.0476957477653339
 50
195.1715824891599027
 51
241.2430074182207136
  0
ARC
  5
8C74
  8
0
 10
4155.3199740710933838
 20
149.9553634779973947
 30
0.0
 40
0.1135066829985698
 50
241.2430074182207136
 51
308.7212985339372722
  0
ARC
  5
8C75
  8
0
 10
4155.3610026209262287
 20
149.8982311679432087
 30
0.0
 40
0.0434277584956983
 50
313.6454971796675864
 51
351.3391927370701069
  0
ARC
  5
8C76
  8
0
 10
4155.3802760266071346
 20
149.9158762505165896
 30
0.0
 40
0.0338327062025688
 50
314.3707277899521273
 51
30.275838576675639
  0
ARC
  5
8C77
  8
0
 10
4155.3243811986767469
 20
149.8476127012721122
 30
0.0
 40
0.1205149823503475
 50
45.069834822916512
 51
138.9144476288180101
  0
ARC
  5
8C78
  8
0
 10
4155.2661457326612435
 20
149.9119236940767053
 30
0.0
 40
0.0358395659310882
 50
155.4521251642595985
 51
228.2467987508034071
  0
LINE
  5
8C79
  8
0
 10
4155.234241692647629
 20
149.9276047660239897
 30
0.0
 11
4155.2422793288933462
 21
149.8851866550247109
 31
0.0
  0
LINE
  5
8C7A
  8
0
 10
4155.4116618868129081
 20
149.9285087399015026
 30
0.0
 11
4155.4039351780929792
 21
149.8916916157247101
 31
0.0
  0
ARC
  5
8C7B
  8
0
 10
4155.3237199267314281
 20
149.8703972971156873
 30
0.0
 40
0.0237188866283004
 50
53.6383053060042485
 51
130.1068032154470018
  0
ARC
  5
8C7C
  8
0
 10
4155.3116609494627482
 20
149.8847143423350872
 30
0.0
 40
0.005
 50
130.1068032154470018
 51
225.7950731803259998
  0
ARC
  5
8C7D
  8
0
 10
4155.3348179922049894
 20
149.8854714358772924
 30
0.0
 40
0.005
 50
317.9500353411183937
 51
53.6383053060042485
  0
ARC
  5
8C7E
  8
0
 10
4155.3228749004683777
 20
149.8962439174322014
 30
0.0
 40
0.0210836500539991
 50
225.7950731803259998
 51
317.9500353411183937
  0
ARC
  5
8C7F
  8
0
 10
4155.2339217985081632
 20
150.0011533271760129
 30
0.0
 40
0.0262823379935567
 50
317.460921423300988
 51
45.9648499754000071
  0
ARC
  5
8C80
  8
0
 10
4155.1873619856050937
 20
150.0582937093996065
 30
0.0
 40
0.0997876530691234
 50
239.138482122851201
 51
311.3497374130620869
  0
ARC
  5
8C81
  8
0
 10
4155.1495372604267686
 20
149.997740776913588
 30
0.0
 40
0.0284405328727562
 50
144.0070952475512911
 51
241.975333671614294
  0
ARC
  5
8C82
  8
0
 10
4155.1926206279849794
 20
149.943959639838198
 30
0.0
 40
0.0966334993067387
 50
51.9424252890776685
 51
133.1545738693100986
  0
ARC
  5
8C83
  8
0
 10
4155.1556500030519601
 20
150.0122198663331972
 30
0.0
 40
0.0476957477653339
 50
195.1715824891599027
 51
241.2430074182207136
  0
ARC
  5
8C84
  8
0
 10
4155.1873113652318352
 20
150.0699142104342059
 30
0.0
 40
0.1135066829985698
 50
241.2430074182207136
 51
308.7212985339372722
  0
ARC
  5
8C85
  8
0
 10
4155.2283399150674086
 20
150.0127819003799061
 30
0.0
 40
0.0434277584956983
 50
313.6454971796675864
 51
351.3391927370701069
  0
ARC
  5
8C86
  8
0
 10
4155.2476133207483144
 20
150.0304269829534007
 30
0.0
 40
0.0338327062025688
 50
314.3707277899521273
 51
30.275838576675639
  0
ARC
  5
8C87
  8
0
 10
4155.1917184928179267
 20
149.9621634337088949
 30
0.0
 40
0.1205149823503475
 50
45.069834822916512
 51
138.9144476288180101
  0
ARC
  5
8C88
  8
0
 10
4155.1334830268024234
 20
150.026474426513289
 30
0.0
 40
0.0358395659310882
 50
155.4521251642595985
 51
228.2467987508034071
  0
LINE
  5
8C89
  8
0
 10
4155.1015789867888088
 20
150.0421554984606871
 30
0.0
 11
4155.1096166230327071
 21
149.9997373874614937
 31
0.0
  0
LINE
  5
8C8A
  8
0
 10
4155.2789991809559069
 20
150.0430594723383138
 30
0.0
 11
4155.2712724722332496
 21
150.0062423481614928
 31
0.0
  0
ARC
  5
8C8B
  8
0
 10
4155.1910572208716985
 20
149.9849480295524984
 30
0.0
 40
0.0237188866283004
 50
53.6383053060042485
 51
130.1068032154470018
  0
ARC
  5
8C8C
  8
0
 10
4155.1789982436039281
 20
149.9992650747718983
 30
0.0
 40
0.005
 50
130.1068032154470018
 51
225.7950731803259998
  0
ARC
  5
8C8D
  8
0
 10
4155.2021552863443503
 20
150.0000221683141035
 30
0.0
 40
0.005
 50
317.9500353411183937
 51
53.6383053060042485
  0
ARC
  5
8C8E
  8
0
 10
4155.1902121946095576
 20
150.0107946498688989
 30
0.0
 40
0.0210836500539991
 50
225.7950731803259998
 51
317.9500353411183937
  0
ARC
  5
8C8F
  8
0
 10
4155.5992697952369781
 20
150.0199011357709082
 30
0.0
 40
0.0262823379935567
 50
317.460921423300988
 51
45.9648499754000071
  0
ARC
  5
8C90
  8
0
 10
4155.5527099823329991
 20
150.0770415179945019
 30
0.0
 40
0.0997876530691234
 50
239.138482122851201
 51
311.3497374130620869
  0
ARC
  5
8C91
  8
0
 10
4155.5148852571555835
 20
150.016488585508597
 30
0.0
 40
0.0284405328727562
 50
144.0070952475512911
 51
241.975333671614294
  0
ARC
  5
8C92
  8
0
 10
4155.5579686247156133
 20
149.9627074484330933
 30
0.0
 40
0.0966334993067387
 50
51.9424252890776685
 51
133.1545738693100986
  0
ARC
  5
8C93
  8
0
 10
4155.520997999782594
 20
150.0309676749282062
 30
0.0
 40
0.0476957477653339
 50
195.1715824891599027
 51
241.2430074182207136
  0
ARC
  5
8C94
  8
0
 10
4155.5526593619633786
 20
150.0886620190291012
 30
0.0
 40
0.1135066829985698
 50
241.2430074182207136
 51
308.7212985339372722
  0
ARC
  5
8C95
  8
0
 10
4155.5936879117962235
 20
150.0315297089748867
 30
0.0
 40
0.0434277584956983
 50
313.6454971796675864
 51
351.3391927370701069
  0
ARC
  5
8C96
  8
0
 10
4155.6129613174753104
 20
150.0491747915482961
 30
0.0
 40
0.0338327062025688
 50
314.3707277899521273
 51
30.275838576675639
  0
ARC
  5
8C97
  8
0
 10
4155.5570664895476511
 20
149.9809112423039892
 30
0.0
 40
0.1205149823503475
 50
45.069834822916512
 51
138.9144476288180101
  0
ARC
  5
8C98
  8
0
 10
4155.4988310235312383
 20
150.0452222351082128
 30
0.0
 40
0.0358395659310882
 50
155.4521251642595985
 51
228.2467987508034071
  0
LINE
  5
8C99
  8
0
 10
4155.4669269835158047
 20
150.0609033070556961
 30
0.0
 11
4155.4749646197606125
 21
150.018485196056389
 31
0.0
  0
LINE
  5
8C9A
  8
0
 10
4155.6443471776856313
 20
150.0618072809332091
 30
0.0
 11
4155.636620468962974
 21
150.0249901567563882
 31
0.0
  0
ARC
  5
8C9B
  8
0
 10
4155.5564052176032419
 20
150.0036958381475074
 30
0.0
 40
0.0237188866283004
 50
53.6383053060042485
 51
130.1068032154470018
  0
ARC
  5
8C9C
  8
0
 10
4155.544346240330924
 20
150.0180128833667084
 30
0.0
 40
0.005
 50
130.1068032154470018
 51
225.7950731803259998
  0
ARC
  5
8C9D
  8
0
 10
4155.5675032830749842
 20
150.0187699769091125
 30
0.0
 40
0.005
 50
317.9500353411183937
 51
53.6383053060042485
  0
ARC
  5
8C9E
  8
0
 10
4155.5555601913383725
 20
150.0295424584639079
 30
0.0
 40
0.0210836500539991
 50
225.7950731803259998
 51
317.9500353411183937
  0
ARC
  5
8C9F
  8
0
 10
4155.7901783282923134
 20
150.1825343271806901
 30
0.0
 40
0.0262823379935567
 50
317.460921423300988
 51
45.9648499754000071
  0
ARC
  5
8CA0
  8
0
 10
4155.7436185153901533
 20
150.2396747094043121
 30
0.0
 40
0.0997876530691234
 50
239.138482122851201
 51
311.3497374130620869
  0
ARC
  5
8CA1
  8
0
 10
4155.7057937902118283
 20
150.1791217769182936
 30
0.0
 40
0.0284405328727562
 50
144.0070952475512911
 51
241.975333671614294
  0
ARC
  5
8CA2
  8
0
 10
4155.748877157770039
 20
150.1253406398429888
 30
0.0
 40
0.0966334993067387
 50
51.9424252890776685
 51
133.1545738693100986
  0
ARC
  5
8CA3
  8
0
 10
4155.7119065328370198
 20
150.1936008663379027
 30
0.0
 40
0.0476957477653339
 50
195.1715824891599027
 51
241.2430074182207136
  0
ARC
  5
8CA4
  8
0
 10
4155.7435678950168949
 20
150.2512952104389115
 30
0.0
 40
0.1135066829985698
 50
241.2430074182207136
 51
308.7212985339372722
  0
ARC
  5
8CA5
  8
0
 10
4155.7845964448515588
 20
150.1941629003846117
 30
0.0
 40
0.0434277584956983
 50
313.6454971796675864
 51
351.3391927370701069
  0
ARC
  5
8CA6
  8
0
 10
4155.8038698505333741
 20
150.2118079829581916
 30
0.0
 40
0.0338327062025688
 50
314.3707277899521273
 51
30.275838576675639
  0
ARC
  5
8CA7
  8
0
 10
4155.7479750226020769
 20
150.1435444337136005
 30
0.0
 40
0.1205149823503475
 50
45.069834822916512
 51
138.9144476288180101
  0
ARC
  5
8CA8
  8
0
 10
4155.6897395565865736
 20
150.2078554265179946
 30
0.0
 40
0.0358395659310882
 50
155.4521251642595985
 51
228.2467987508034071
  0
LINE
  5
8CA9
  8
0
 10
4155.65783551657114
 20
150.2235364984653927
 30
0.0
 11
4155.6658731528159478
 21
150.1811183874661992
 31
0.0
  0
LINE
  5
8CAA
  8
0
 10
4155.8352557107391476
 20
150.2244404723429909
 30
0.0
 11
4155.8275290020192188
 21
150.1876233481661984
 31
0.0
  0
ARC
  5
8CAB
  8
0
 10
4155.7473137506567582
 20
150.166329029557204
 30
0.0
 40
0.0237188866283004
 50
53.6383053060042485
 51
130.1068032154470018
  0
ARC
  5
8CAC
  8
0
 10
4155.7352547733889878
 20
150.1806460747764902
 30
0.0
 40
0.005
 50
130.1068032154470018
 51
225.7950731803259998
  0
ARC
  5
8CAD
  8
0
 10
4155.75841181612941
 20
150.1814031683188091
 30
0.0
 40
0.005
 50
317.9500353411183937
 51
53.6383053060042485
  0
ARC
  5
8CAE
  8
0
 10
4155.7464687243918888
 20
150.1921756498736045
 30
0.0
 40
0.0210836500539991
 50
225.7950731803259998
 51
317.9500353411183937
  0
ARC
  5
8CAF
  8
0
 10
4155.5948578672359872
 20
150.2507181919133927
 30
0.0
 40
0.0262823379935567
 50
317.460921423300988
 51
45.9648499754000071
  0
ARC
  5
8CB0
  8
0
 10
4155.5482980543310987
 20
150.3078585741369864
 30
0.0
 40
0.0997876530691234
 50
239.138482122851201
 51
311.3497374130620869
  0
ARC
  5
8CB1
  8
0
 10
4155.5104733291545926
 20
150.2473056416509962
 30
0.0
 40
0.0284405328727562
 50
144.0070952475512911
 51
241.975333671614294
  0
ARC
  5
8CB2
  8
0
 10
4155.5535566967128034
 20
150.1935245045756062
 30
0.0
 40
0.0966334993067387
 50
51.9424252890776685
 51
133.1545738693100986
  0
ARC
  5
8CB3
  8
0
 10
4155.5165860717797841
 20
150.2617847310706907
 30
0.0
 40
0.0476957477653339
 50
195.1715824891599027
 51
241.2430074182207136
  0
ARC
  5
8CB4
  8
0
 10
4155.5482474339596592
 20
150.3194790751716141
 30
0.0
 40
0.1135066829985698
 50
241.2430074182207136
 51
308.7212985339372722
  0
ARC
  5
8CB5
  8
0
 10
4155.5892759837970516
 20
150.2623467651173996
 30
0.0
 40
0.0434277584956983
 50
313.6454971796675864
 51
351.3391927370701069
  0
ARC
  5
8CB6
  8
0
 10
4155.6085493894761385
 20
150.279991847690809
 30
0.0
 40
0.0338327062025688
 50
314.3707277899521273
 51
30.275838576675639
  0
ARC
  5
8CB7
  8
0
 10
4155.5526545615457508
 20
150.2117282984463031
 30
0.0
 40
0.1205149823503475
 50
45.069834822916512
 51
138.9144476288180101
  0
ARC
  5
8CB8
  8
0
 10
4155.4944190955302474
 20
150.2760392912506973
 30
0.0
 40
0.0358395659310882
 50
155.4521251642595985
 51
228.2467987508034071
  0
LINE
  5
8CB9
  8
0
 10
4155.4625150555166329
 20
150.2917203631980954
 30
0.0
 11
4155.4705526917614407
 21
150.2493022521989019
 31
0.0
  0
LINE
  5
8CBA
  8
0
 10
4155.6399352496837309
 20
150.2926243370756936
 30
0.0
 11
4155.6322085409610736
 21
150.2558072128989011
 31
0.0
  0
ARC
  5
8CBB
  8
0
 10
4155.551993289600432
 20
150.2345128942899066
 30
0.0
 40
0.0237188866283004
 50
53.6383053060042485
 51
130.1068032154470018
  0
ARC
  5
8CBC
  8
0
 10
4155.5399343123317522
 20
150.2488299395093065
 30
0.0
 40
0.005
 50
130.1068032154470018
 51
225.7950731803259998
  0
ARC
  5
8CBD
  8
0
 10
4155.5630913550721743
 20
150.249587033051597
 30
0.0
 40
0.005
 50
317.9500353411183937
 51
53.6383053060042485
  0
ARC
  5
8CBE
  8
0
 10
4155.5511482633346532
 20
150.2603595146063071
 30
0.0
 40
0.0210836500539991
 50
225.7950731803259998
 51
317.9500353411183937
  0
ARC
  5
8CBF
  8
0
 10
4155.9336976551403495
 20
150.3671353982389007
 30
0.0
 40
0.0262823379935567
 50
317.460921423300988
 51
45.9648499754000071
  0
ARC
  5
8CC0
  8
0
 10
4155.88713784223728
 20
150.4242757804624091
 30
0.0
 40
0.0997876530691234
 50
239.138482122851201
 51
311.3497374130620869
  0
ARC
  5
8CC1
  8
0
 10
4155.8493131170598645
 20
150.3637228479765042
 30
0.0
 40
0.0284405328727562
 50
144.0070952475512911
 51
241.975333671614294
  0
ARC
  5
8CC2
  8
0
 10
4155.8923964846208037
 20
150.3099417109010005
 30
0.0
 40
0.0966334993067387
 50
51.9424252890776685
 51
133.1545738693100986
  0
ARC
  5
8CC3
  8
0
 10
4155.8554258596859654
 20
150.3782019373961134
 30
0.0
 40
0.0476957477653339
 50
195.1715824891599027
 51
241.2430074182207136
  0
ARC
  5
8CC4
  8
0
 10
4155.8870872218649311
 20
150.4358962814970084
 30
0.0
 40
0.1135066829985698
 50
241.2430074182207136
 51
308.7212985339372722
  0
ARC
  5
8CC5
  8
0
 10
4155.9281157717014139
 20
150.3787639714427939
 30
0.0
 40
0.0434277584956983
 50
313.6454971796675864
 51
351.3391927370701069
  0
ARC
  5
8CC6
  8
0
 10
4155.9473891773832293
 20
150.3964090540162886
 30
0.0
 40
0.0338327062025688
 50
314.3707277899521273
 51
30.275838576675639
  0
ARC
  5
8CC7
  8
0
 10
4155.8914943494528416
 20
150.3281455047718111
 30
0.0
 40
0.1205149823503475
 50
45.069834822916512
 51
138.9144476288180101
  0
ARC
  5
8CC8
  8
0
 10
4155.8332588834364287
 20
150.3924564975762053
 30
0.0
 40
0.0358395659310882
 50
155.4521251642595985
 51
228.2467987508034071
  0
LINE
  5
8CC9
  8
0
 10
4155.8013548434209952
 20
150.4081375695236034
 30
0.0
 11
4155.8093924796667125
 21
150.3657194585242962
 31
0.0
  0
LINE
  5
8CCA
  8
0
 10
4155.9787750375880933
 20
150.4090415434010879
 30
0.0
 11
4155.9710483288681644
 21
150.3722244192244091
 31
0.0
  0
ARC
  5
8CCB
  8
0
 10
4155.8908330775084323
 20
150.3509301006153862
 30
0.0
 40
0.0237188866283004
 50
53.6383053060042485
 51
130.1068032154470018
  0
ARC
  5
8CCC
  8
0
 10
4155.8787741002379335
 20
150.3652471458347009
 30
0.0
 40
0.005
 50
130.1068032154470018
 51
225.7950731803259998
  0
ARC
  5
8CCD
  8
0
 10
4155.9019311429774461
 20
150.3660042393769913
 30
0.0
 40
0.005
 50
317.9500353411183937
 51
53.6383053060042485
  0
ARC
  5
8CCE
  8
0
 10
4155.8899880512408345
 20
150.3767767209317867
 30
0.0
 40
0.0210836500539991
 50
225.7950731803259998
 51
317.9500353411183937
  0
ARC
  5
8CCF
  8
0
 10
4155.7870900943025845
 20
150.5780771507953943
 30
0.0
 40
0.0262823379935567
 50
317.460921423300988
 51
45.9648499754000071
  0
ARC
  5
8CD0
  8
0
 10
4155.7405302814022434
 20
150.635217533018988
 30
0.0
 40
0.0997876530691234
 50
239.138482122851201
 51
311.3497374130620869
  0
ARC
  5
8CD1
  8
0
 10
4155.7027055562248279
 20
150.5746646005329978
 30
0.0
 40
0.0284405328727562
 50
144.0070952475512911
 51
241.975333671614294
  0
ARC
  5
8CD2
  8
0
 10
4155.7457889237848576
 20
150.5208834634576078
 30
0.0
 40
0.0966334993067387
 50
51.9424252890776685
 51
133.1545738693100986
  0
ARC
  5
8CD3
  8
0
 10
4155.7088182988518383
 20
150.5891436899526923
 30
0.0
 40
0.0476957477653339
 50
195.1715824891599027
 51
241.2430074182207136
  0
ARC
  5
8CD4
  8
0
 10
4155.7404796610317135
 20
150.6468380340535873
 30
0.0
 40
0.1135066829985698
 50
241.2430074182207136
 51
308.7212985339372722
  0
ARC
  5
8CD5
  8
0
 10
4155.7815082108636489
 20
150.5897057239994865
 30
0.0
 40
0.0434277584956983
 50
313.6454971796675864
 51
351.3391927370701069
  0
ARC
  5
8CD6
  8
0
 10
4155.8007816165481927
 20
150.6073508065728959
 30
0.0
 40
0.0338327062025688
 50
314.3707277899521273
 51
30.275838576675639
  0
ARC
  5
8CD7
  8
0
 10
4155.7448867886168955
 20
150.5390872573283048
 30
0.0
 40
0.1205149823503475
 50
45.069834822916512
 51
138.9144476288180101
  0
ARC
  5
8CD8
  8
0
 10
4155.6866513226013922
 20
150.6033982501328126
 30
0.0
 40
0.0358395659310882
 50
155.4521251642595985
 51
228.2467987508034071
  0
LINE
  5
8CD9
  8
0
 10
4155.6547472825841396
 20
150.6190793220802107
 30
0.0
 11
4155.6627849188298569
 21
150.5766612110809888
 31
0.0
  0
LINE
  5
8CDA
  8
0
 10
4155.8321674767539662
 20
150.6199832959576952
 30
0.0
 11
4155.8244407680303993
 21
150.583166171780988
 31
0.0
  0
ARC
  5
8CDB
  8
0
 10
4155.7442255166715768
 20
150.5618718531719082
 30
0.0
 40
0.0237188866283004
 50
53.6383053060042485
 51
130.1068032154470018
  0
ARC
  5
8CDC
  8
0
 10
4155.7321665394010779
 20
150.5761888983913082
 30
0.0
 40
0.005
 50
130.1068032154470018
 51
225.7950731803259998
  0
ARC
  5
8CDD
  8
0
 10
4155.7553235821405906
 20
150.5769459919335986
 30
0.0
 40
0.005
 50
317.9500353411183937
 51
53.6383053060042485
  0
ARC
  5
8CDE
  8
0
 10
4155.7433804904057979
 20
150.587718473488394
 30
0.0
 40
0.0210836500539991
 50
225.7950731803259998
 51
317.9500353411183937
  0
ARC
  5
8CDF
  8
0
 10
4156.0213035385086187
 20
150.5676673144606923
 30
0.0
 40
0.0262823379935567
 50
317.460921423300988
 51
45.9648499754000071
  0
ARC
  5
8CE0
  8
0
 10
4155.9747437256055491
 20
150.6248076966842859
 30
0.0
 40
0.0997876530691234
 50
239.138482122851201
 51
311.3497374130620869
  0
ARC
  5
8CE1
  8
0
 10
4155.9369190004290431
 20
150.5642547641982958
 30
0.0
 40
0.0284405328727562
 50
144.0070952475512911
 51
241.975333671614294
  0
ARC
  5
8CE2
  8
0
 10
4155.9800023679908918
 20
150.510473627122991
 30
0.0
 40
0.0966334993067387
 50
51.9424252890776685
 51
133.1545738693100986
  0
ARC
  5
8CE3
  8
0
 10
4155.943031743055144
 20
150.5787338536181039
 30
0.0
 40
0.0476957477653339
 50
195.1715824891599027
 51
241.2430074182207136
  0
ARC
  5
8CE4
  8
0
 10
4155.9746931052350192
 20
150.6364281977189137
 30
0.0
 40
0.1135066829985698
 50
241.2430074182207136
 51
308.7212985339372722
  0
ARC
  5
8CE5
  8
0
 10
4156.015721655069683
 20
150.5792958876646992
 30
0.0
 40
0.0434277584956983
 50
313.6454971796675864
 51
351.3391927370701069
  0
ARC
  5
8CE6
  8
0
 10
4156.0349950607505889
 20
150.5969409702381085
 30
0.0
 40
0.0338327062025688
 50
314.3707277899521273
 51
30.275838576675639
  0
ARC
  5
8CE7
  8
0
 10
4155.9791002328220202
 20
150.5286774209936027
 30
0.0
 40
0.1205149823503475
 50
45.069834822916512
 51
138.9144476288180101
  0
ARC
  5
8CE8
  8
0
 10
4155.9208647668046979
 20
150.5929884137981105
 30
0.0
 40
0.0358395659310882
 50
155.4521251642595985
 51
228.2467987508034071
  0
LINE
  5
8CE9
  8
0
 10
4155.8889607267901738
 20
150.6086694857453949
 30
0.0
 11
4155.8969983630358911
 21
150.5662513747462015
 31
0.0
  0
LINE
  5
8CEA
  8
0
 10
4156.0663809209572719
 20
150.6095734596229931
 30
0.0
 11
4156.058654212233705
 21
150.5727563354462006
 31
0.0
  0
ARC
  5
8CEB
  8
0
 10
4155.9784389608748825
 20
150.5514620168372062
 30
0.0
 40
0.0237188866283004
 50
53.6383053060042485
 51
130.1068032154470018
  0
ARC
  5
8CEC
  8
0
 10
4155.9663799836071121
 20
150.5657790620566061
 30
0.0
 40
0.005
 50
130.1068032154470018
 51
225.7950731803259998
  0
ARC
  5
8CED
  8
0
 10
4155.9895370263466248
 20
150.5665361555988966
 30
0.0
 40
0.005
 50
317.9500353411183937
 51
53.6383053060042485
  0
ARC
  5
8CEE
  8
0
 10
4155.9775939346127416
 20
150.577308637153692
 30
0.0
 40
0.0210836500539991
 50
225.7950731803259998
 51
317.9500353411183937
  0
ARC
  5
8CEF
  8
0
 10
4156.0504955093765602
 20
150.7769869679771944
 30
0.0
 40
0.0262823379935567
 50
317.460921423300988
 51
45.9648499754000071
  0
ARC
  5
8CF0
  8
0
 10
4156.0039356964753097
 20
150.834127350200788
 30
0.0
 40
0.0997876530691234
 50
239.138482122851201
 51
311.3497374130620869
  0
ARC
  5
8CF1
  8
0
 10
4155.9661109712978941
 20
150.7735744177147978
 30
0.0
 40
0.0284405328727562
 50
144.0070952475512911
 51
241.975333671614294
  0
ARC
  5
8CF2
  8
0
 10
4156.0091943388570144
 20
150.7197932806394078
 30
0.0
 40
0.0966334993067387
 50
51.9424252890776685
 51
133.1545738693100986
  0
ARC
  5
8CF3
  8
0
 10
4155.9722237139230856
 20
150.788053507134407
 30
0.0
 40
0.0476957477653339
 50
195.1715824891599027
 51
241.2430074182207136
  0
ARC
  5
8CF4
  8
0
 10
4156.0038850761029607
 20
150.8457478512353873
 30
0.0
 40
0.1135066829985698
 50
241.2430074182207136
 51
308.7212985339372722
  0
ARC
  5
8CF5
  8
0
 10
4156.0449136259376246
 20
150.7886155411812013
 30
0.0
 40
0.0434277584956983
 50
313.6454971796675864
 51
351.3391927370701069
  0
ARC
  5
8CF6
  8
0
 10
4156.0641870316212589
 20
150.8062606237546106
 30
0.0
 40
0.0338327062025688
 50
314.3707277899521273
 51
30.275838576675639
  0
ARC
  5
8CF7
  8
0
 10
4156.0082922036908712
 20
150.7379970745101048
 30
0.0
 40
0.1205149823503475
 50
45.069834822916512
 51
138.9144476288180101
  0
ARC
  5
8CF8
  8
0
 10
4155.9500567376726394
 20
150.8023080673144989
 30
0.0
 40
0.0358395659310882
 50
155.4521251642595985
 51
228.2467987508034071
  0
LINE
  5
8CF9
  8
0
 10
4155.9181526976590249
 20
150.8179891392620107
 30
0.0
 11
4155.9261903339047421
 21
150.7755710282627035
 31
0.0
  0
LINE
  5
8CFA
  8
0
 10
4156.0955728918252134
 20
150.8188931131394952
 30
0.0
 11
4156.0878461831052846
 21
150.7820759889627027
 31
0.0
  0
ARC
  5
8CFB
  8
0
 10
4156.007630931742824
 20
150.7607816703537083
 30
0.0
 40
0.0237188866283004
 50
53.6383053060042485
 51
130.1068032154470018
  0
ARC
  5
8CFC
  8
0
 10
4155.9955719544732347
 20
150.7750987155729945
 30
0.0
 40
0.005
 50
130.1068032154470018
 51
225.7950731803259998
  0
ARC
  5
8CFD
  8
0
 10
4156.0187289972145663
 20
150.7758558091153134
 30
0.0
 40
0.005
 50
317.9500353411183937
 51
53.6383053060042485
  0
ARC
  5
8CFE
  8
0
 10
4156.0067859054779547
 20
150.7866282906701088
 30
0.0
 40
0.0210836500539991
 50
225.7950731803259998
 51
317.9500353411183937
  0
ARC
  5
8CFF
  8
0
 10
4155.7894534270599252
 20
150.9322861198075998
 30
0.0
 40
0.0262823379935567
 50
317.460921423300988
 51
45.9648499754000071
  0
ARC
  5
8D00
  8
0
 10
4155.7428936141559461
 20
150.9894265020311934
 30
0.0
 40
0.0997876530691234
 50
239.138482122851201
 51
311.3497374130620869
  0
ARC
  5
8D01
  8
0
 10
4155.7050688889812591
 20
150.9288735695452033
 30
0.0
 40
0.0284405328727562
 50
144.0070952475512911
 51
241.975333671614294
  0
ARC
  5
8D02
  8
0
 10
4155.7481522565412888
 20
150.8750924324698133
 30
0.0
 40
0.0966334993067387
 50
51.9424252890776685
 51
133.1545738693100986
  0
ARC
  5
8D03
  8
0
 10
4155.7111816316082695
 20
150.9433526589648977
 30
0.0
 40
0.0476957477653339
 50
195.1715824891599027
 51
241.2430074182207136
  0
ARC
  5
8D04
  8
0
 10
4155.7428429937863257
 20
151.0010470030657928
 30
0.0
 40
0.1135066829985698
 50
241.2430074182207136
 51
308.7212985339372722
  0
ARC
  5
8D05
  8
0
 10
4155.783871543621899
 20
150.9439146930116067
 30
0.0
 40
0.0434277584956983
 50
313.6454971796675864
 51
351.3391927370701069
  0
ARC
  5
8D06
  8
0
 10
4155.8031449493018954
 20
150.9615597755851013
 30
0.0
 40
0.0338327062025688
 50
314.3707277899521273
 51
30.275838576675639
  0
ARC
  5
8D07
  8
0
 10
4155.7472501213724172
 20
150.8932962263405102
 30
0.0
 40
0.1205149823503475
 50
45.069834822916512
 51
138.9144476288180101
  0
ARC
  5
8D08
  8
0
 10
4155.6890146553560044
 20
150.9576072191449896
 30
0.0
 40
0.0358395659310882
 50
155.4521251642595985
 51
228.2467987508034071
  0
LINE
  5
8D09
  8
0
 10
4155.6571106153396613
 20
150.9732882910923877
 30
0.0
 11
4155.6651482515881071
 21
150.930870180093109
 31
0.0
  0
LINE
  5
8D0A
  8
0
 10
4155.8345308095076689
 20
150.9741922649699859
 30
0.0
 11
4155.82680410078774
 21
150.9373751407931081
 31
0.0
  0
ARC
  5
8D0B
  8
0
 10
4155.7465888494270985
 20
150.9160808221841137
 30
0.0
 40
0.0237188866283004
 50
53.6383053060042485
 51
130.1068032154470018
  0
ARC
  5
8D0C
  8
0
 10
4155.7345298721584186
 20
150.9303978674035136
 30
0.0
 40
0.005
 50
130.1068032154470018
 51
225.7950731803259998
  0
ARC
  5
8D0D
  8
0
 10
4155.7576869148979313
 20
150.9311549609458041
 30
0.0
 40
0.005
 50
317.9500353411183937
 51
53.6383053060042485
  0
ARC
  5
8D0E
  8
0
 10
4155.7457438231631386
 20
150.9419274425005995
 30
0.0
 40
0.0210836500539991
 50
225.7950731803259998
 51
317.9500353411183937
  0
ARC
  5
8D0F
  8
0
 10
4156.0213544977050333
 20
150.9859851643425941
 30
0.0
 40
0.0262823379935567
 50
317.460921423300988
 51
45.9648499754000071
  0
ARC
  5
8D10
  8
0
 10
4155.9747946848019637
 20
151.0431255465661877
 30
0.0
 40
0.0997876530691234
 50
239.138482122851201
 51
311.3497374130620869
  0
ARC
  5
8D11
  8
0
 10
4155.9369699596263672
 20
150.9825726140801976
 30
0.0
 40
0.0284405328727562
 50
144.0070952475512911
 51
241.975333671614294
  0
ARC
  5
8D12
  8
0
 10
4155.9800533271836684
 20
150.9287914770048076
 30
0.0
 40
0.0966334993067387
 50
51.9424252890776685
 51
133.1545738693100986
  0
ARC
  5
8D13
  8
0
 10
4155.9430827022506492
 20
150.997051703499892
 30
0.0
 40
0.0476957477653339
 50
195.1715824891599027
 51
241.2430074182207136
  0
ARC
  5
8D14
  8
0
 10
4155.9747440644332528
 20
151.0547460476007871
 30
0.0
 40
0.1135066829985698
 50
241.2430074182207136
 51
308.7212985339372722
  0
ARC
  5
8D15
  8
0
 10
4156.0157726142660977
 20
150.997613737546601
 30
0.0
 40
0.0434277584956983
 50
313.6454971796675864
 51
351.3391927370701069
  0
ARC
  5
8D16
  8
0
 10
4156.0350460199470035
 20
151.0152588201200956
 30
0.0
 40
0.0338327062025688
 50
314.3707277899521273
 51
30.275838576675639
  0
ARC
  5
8D17
  8
0
 10
4155.9791511920202538
 20
150.9469952708755045
 30
0.0
 40
0.1205149823503475
 50
45.069834822916512
 51
138.9144476288180101
  0
ARC
  5
8D18
  8
0
 10
4155.9209157260011125
 20
151.0113062636798986
 30
0.0
 40
0.0358395659310882
 50
155.4521251642595985
 51
228.2467987508034071
  0
LINE
  5
8D19
  8
0
 10
4155.8890116859847694
 20
151.0269873356272967
 30
0.0
 11
4155.8970493222313962
 21
150.9845692246281033
 31
0.0
  0
LINE
  5
8D1A
  8
0
 10
4156.066431880152777
 20
151.0278913095048949
 30
0.0
 11
4156.0587051714328481
 21
150.9910741853281024
 31
0.0
  0
ARC
  5
8D1B
  8
0
 10
4155.9784899200712971
 20
150.969779866719108
 30
0.0
 40
0.0237188866283004
 50
53.6383053060042485
 51
130.1068032154470018
  0
ARC
  5
8D1C
  8
0
 10
4155.9664309427998887
 20
150.9840969119383942
 30
0.0
 40
0.005
 50
130.1068032154470018
 51
225.7950731803259998
  0
ARC
  5
8D1D
  8
0
 10
4155.9895879855430394
 20
150.9848540054807131
 30
0.0
 40
0.005
 50
317.9500353411183937
 51
53.6383053060042485
  0
ARC
  5
8D1E
  8
0
 10
4155.9776448938082467
 20
150.9956264870355085
 30
0.0
 40
0.0210836500539991
 50
225.7950731803259998
 51
317.9500353411183937
  0
ARC
  5
8D1F
  8
0
 10
4155.9346877576299448
 20
151.1871522334149063
 30
0.0
 40
0.0262823379935567
 50
317.460921423300988
 51
45.9648499754000071
  0
ARC
  5
8D20
  8
0
 10
4155.8881279447277848
 20
151.2442926156386136
 30
0.0
 40
0.0997876530691234
 50
239.138482122851201
 51
311.3497374130620869
  0
ARC
  5
8D21
  8
0
 10
4155.8503032195503692
 20
151.183739683152595
 30
0.0
 40
0.0284405328727562
 50
144.0070952475512911
 51
241.975333671614294
  0
ARC
  5
8D22
  8
0
 10
4155.89338658710858
 20
151.1299585460770913
 30
0.0
 40
0.0966334993067387
 50
51.9424252890776685
 51
133.1545738693100986
  0
ARC
  5
8D23
  8
0
 10
4155.8564159621782892
 20
151.1982187725722042
 30
0.0
 40
0.0476957477653339
 50
195.1715824891599027
 51
241.2430074182207136
  0
ARC
  5
8D24
  8
0
 10
4155.8880773243563453
 20
151.2559131166732982
 30
0.0
 40
0.1135066829985698
 50
241.2430074182207136
 51
308.7212985339372722
  0
ARC
  5
8D25
  8
0
 10
4155.9291058741919187
 20
151.1987808066189132
 30
0.0
 40
0.0434277584956983
 50
313.6454971796675864
 51
351.3391927370701069
  0
ARC
  5
8D26
  8
0
 10
4155.9483792798719151
 20
151.2164258891924078
 30
0.0
 40
0.0338327062025688
 50
314.3707277899521273
 51
30.275838576675639
  0
ARC
  5
8D27
  8
0
 10
4155.8924844519406179
 20
151.1481623399477883
 30
0.0
 40
0.1205149823503475
 50
45.069834822916512
 51
138.9144476288180101
  0
ARC
  5
8D28
  8
0
 10
4155.834248985926024
 20
151.2124733327524098
 30
0.0
 40
0.0358395659310882
 50
155.4521251642595985
 51
228.2467987508034071
  0
LINE
  5
8D29
  8
0
 10
4155.802344945909681
 20
151.2281544046996942
 30
0.0
 11
4155.8103825821581268
 21
151.1857362937005007
 31
0.0
  0
LINE
  5
8D2A
  8
0
 10
4155.9797651400776886
 20
151.2290583785772071
 30
0.0
 11
4155.9720384313559407
 21
151.1922412544003862
 31
0.0
  0
ARC
  5
8D2B
  8
0
 10
4155.8918231799962086
 20
151.1709469357915054
 30
0.0
 40
0.0237188866283004
 50
53.6383053060042485
 51
130.1068032154470018
  0
ARC
  5
8D2C
  8
0
 10
4155.8797642027284382
 20
151.1852639810107917
 30
0.0
 40
0.005
 50
130.1068032154470018
 51
225.7950731803259998
  0
ARC
  5
8D2D
  8
0
 10
4155.9029212454688604
 20
151.1860210745531106
 30
0.0
 40
0.005
 50
317.9500353411183937
 51
53.6383053060042485
  0
ARC
  5
8D2E
  8
0
 10
4155.8909781537331583
 20
151.1967935561079059
 30
0.0
 40
0.0210836500539991
 50
225.7950731803259998
 51
317.9500353411183937
  0
ARC
  5
8D2F
  8
0
 10
4155.5929184829710721
 20
151.2581044970673076
 30
0.0
 40
0.0262823379935567
 50
317.460921423300988
 51
45.9648499754000071
  0
ARC
  5
8D30
  8
0
 10
4155.5463586700680025
 20
151.3152448792909013
 30
0.0
 40
0.0997876530691234
 50
239.138482122851201
 51
311.3497374130620869
  0
ARC
  5
8D31
  8
0
 10
4155.508533944892406
 20
151.2546919468049111
 30
0.0
 40
0.0284405328727562
 50
144.0070952475512911
 51
241.975333671614294
  0
ARC
  5
8D32
  8
0
 10
4155.5516173124524357
 20
151.2009108097294927
 30
0.0
 40
0.0966334993067387
 50
51.9424252890776685
 51
133.1545738693100986
  0
ARC
  5
8D33
  8
0
 10
4155.514646687516688
 20
151.2691710362244919
 30
0.0
 40
0.0476957477653339
 50
195.1715824891599027
 51
241.2430074182207136
  0
ARC
  5
8D34
  8
0
 10
4155.5463080496965631
 20
151.3268653803255006
 30
0.0
 40
0.1135066829985698
 50
241.2430074182207136
 51
308.7212985339372722
  0
ARC
  5
8D35
  8
0
 10
4155.5873365995321365
 20
151.2697330702712009
 30
0.0
 40
0.0434277584956983
 50
313.6454971796675864
 51
351.3391927370701069
  0
ARC
  5
8D36
  8
0
 10
4155.6066100052139518
 20
151.2873781528446955
 30
0.0
 40
0.0338327062025688
 50
314.3707277899521273
 51
30.275838576675639
  0
ARC
  5
8D37
  8
0
 10
4155.5507151772826546
 20
151.2191146036001896
 30
0.0
 40
0.1205149823503475
 50
45.069834822916512
 51
138.9144476288180101
  0
ARC
  5
8D38
  8
0
 10
4155.4924797112662418
 20
151.2834255964046122
 30
0.0
 40
0.0358395659310882
 50
155.4521251642595985
 51
228.2467987508034071
  0
LINE
  5
8D39
  8
0
 10
4155.4605756712508082
 20
151.2991066683520103
 30
0.0
 11
4155.468613307497435
 21
151.2566885573527884
 31
0.0
  0
LINE
  5
8D3A
  8
0
 10
4155.6379958654188158
 20
151.3000106422296085
 30
0.0
 11
4155.6302691566979775
 21
151.2631935180527876
 31
0.0
  0
ARC
  5
8D3B
  8
0
 10
4155.5500539053391549
 20
151.2418991994437931
 30
0.0
 40
0.0237188866283004
 50
53.6383053060042485
 51
130.1068032154470018
  0
ARC
  5
8D3C
  8
0
 10
4155.5379949280677465
 20
151.2562162446631078
 30
0.0
 40
0.005
 50
130.1068032154470018
 51
225.7950731803259998
  0
ARC
  5
8D3D
  8
0
 10
4155.5611519708090782
 20
151.2569733382053982
 30
0.0
 40
0.005
 50
317.9500353411183937
 51
53.6383053060042485
  0
ARC
  5
8D3E
  8
0
 10
4155.5492088790742855
 20
151.2677458197601936
 30
0.0
 40
0.0210836500539991
 50
225.7950731803259998
 51
317.9500353411183937
  0
ARC
  5
8D3F
  8
0
 10
4155.7908937135798624
 20
151.370916886093994
 30
0.0
 40
0.0262823379935567
 50
317.460921423300988
 51
45.9648499754000071
  0
ARC
  5
8D40
  8
0
 10
4155.7443339006767928
 20
151.4280572683175876
 30
0.0
 40
0.0997876530691234
 50
239.138482122851201
 51
311.3497374130620869
  0
ARC
  5
8D41
  8
0
 10
4155.7065091755011963
 20
151.3675043358315975
 30
0.0
 40
0.0284405328727562
 50
144.0070952475512911
 51
241.975333671614294
  0
ARC
  5
8D42
  8
0
 10
4155.749592543061226
 20
151.3137231987562075
 30
0.0
 40
0.0966334993067387
 50
51.9424252890776685
 51
133.1545738693100986
  0
ARC
  5
8D43
  8
0
 10
4155.7126219181282067
 20
151.3819834252512919
 30
0.0
 40
0.0476957477653339
 50
195.1715824891599027
 51
241.2430074182207136
  0
ARC
  5
8D44
  8
0
 10
4155.7442832803062629
 20
151.4396777693521869
 30
0.0
 40
0.1135066829985698
 50
241.2430074182207136
 51
308.7212985339372722
  0
ARC
  5
8D45
  8
0
 10
4155.7853118301409268
 20
151.3825454592980009
 30
0.0
 40
0.0434277584956983
 50
313.6454971796675864
 51
351.3391927370701069
  0
ARC
  5
8D46
  8
0
 10
4155.8045852358227421
 20
151.4001905418714102
 30
0.0
 40
0.0338327062025688
 50
314.3707277899521273
 51
30.275838576675639
  0
ARC
  5
8D47
  8
0
 10
4155.7486904078941734
 20
151.3319269926269897
 30
0.0
 40
0.1205149823503475
 50
45.069834822916512
 51
138.9144476288180101
  0
ARC
  5
8D48
  8
0
 10
4155.6904549418759416
 20
151.3962379854312985
 30
0.0
 40
0.0358395659310882
 50
155.4521251642595985
 51
228.2467987508034071
  0
LINE
  5
8D49
  8
0
 10
4155.658550901862327
 20
151.4119190573786966
 30
0.0
 11
4155.6665885381080443
 21
151.3695009463795031
 31
0.0
  0
LINE
  5
8D4A
  8
0
 10
4155.8359710960303346
 20
151.4128230312562948
 30
0.0
 11
4155.8282443873067677
 21
151.3760059070795023
 31
0.0
  0
ARC
  5
8D4B
  8
0
 10
4155.7480291359479452
 20
151.3547115884705931
 30
0.0
 40
0.0237188866283004
 50
53.6383053060042485
 51
130.1068032154470018
  0
ARC
  5
8D4C
  8
0
 10
4155.7359701586774463
 20
151.3690286336897941
 30
0.0
 40
0.005
 50
130.1068032154470018
 51
225.7950731803259998
  0
ARC
  5
8D4D
  8
0
 10
4155.7591272014178685
 20
151.3697857272321983
 30
0.0
 40
0.005
 50
317.9500353411183937
 51
53.6383053060042485
  0
ARC
  5
8D4E
  8
0
 10
4155.7471841096830758
 20
151.3805582087869936
 30
0.0
 40
0.0210836500539991
 50
225.7950731803259998
 51
317.9500353411183937
  0
ARC
  5
8D4F
  8
0
 10
4155.5997266493159259
 20
151.5344476117707018
 30
0.0
 40
0.0262823379935567
 50
317.460921423300988
 51
45.9648499754000071
  0
ARC
  5
8D50
  8
0
 10
4155.5531668364146753
 20
151.5915879939942101
 30
0.0
 40
0.0997876530691234
 50
239.138482122851201
 51
311.3497374130620869
  0
ARC
  5
8D51
  8
0
 10
4155.5153421112372598
 20
151.5310350615083053
 30
0.0
 40
0.0284405328727562
 50
144.0070952475512911
 51
241.975333671614294
  0
ARC
  5
8D52
  8
0
 10
4155.5584254787972895
 20
151.4772539244328016
 30
0.0
 40
0.0966334993067387
 50
51.9424252890776685
 51
133.1545738693100986
  0
ARC
  5
8D53
  8
0
 10
4155.5214548538642703
 20
151.5455141509278008
 30
0.0
 40
0.0476957477653339
 50
195.1715824891599027
 51
241.2430074182207136
  0
ARC
  5
8D54
  8
0
 10
4155.5531162160441454
 20
151.6032084950288095
 30
0.0
 40
0.1135066829985698
 50
241.2430074182207136
 51
308.7212985339372722
  0
ARC
  5
8D55
  8
0
 10
4155.5941447658788093
 20
151.546076184974595
 30
0.0
 40
0.0434277584956983
 50
313.6454971796675864
 51
351.3391927370701069
  0
ARC
  5
8D56
  8
0
 10
4155.6134181715588056
 20
151.5637212675480043
 30
0.0
 40
0.0338327062025688
 50
314.3707277899521273
 51
30.275838576675639
  0
ARC
  5
8D57
  8
0
 10
4155.5575233436302369
 20
151.4954577183034985
 30
0.0
 40
0.1205149823503475
 50
45.069834822916512
 51
138.9144476288180101
  0
ARC
  5
8D58
  8
0
 10
4155.4992878776120051
 20
151.5597687111078926
 30
0.0
 40
0.0358395659310882
 50
155.4521251642595985
 51
228.2467987508034071
  0
LINE
  5
8D59
  8
0
 10
4155.4673838375983905
 20
151.5754497830552907
 30
0.0
 11
4155.4754214738441078
 21
151.5330316720560972
 31
0.0
  0
LINE
  5
8D5A
  8
0
 10
4155.6448040317645791
 20
151.5763537569328889
 30
0.0
 11
4155.6370773230446503
 21
151.5395366327560964
 31
0.0
  0
ARC
  5
8D5B
  8
0
 10
4155.5568620716840087
 20
151.518242314147102
 30
0.0
 40
0.0237188866283004
 50
53.6383053060042485
 51
130.1068032154470018
  0
ARC
  5
8D5C
  8
0
 10
4155.5448030944126003
 20
151.5325593593663882
 30
0.0
 40
0.005
 50
130.1068032154470018
 51
225.7950731803259998
  0
ARC
  5
8D5D
  8
0
 10
4155.567960137155751
 20
151.5333164529087924
 30
0.0
 40
0.005
 50
317.9500353411183937
 51
53.6383053060042485
  0
ARC
  5
8D5E
  8
0
 10
4155.5560170454191393
 20
151.5440889344635025
 30
0.0
 40
0.0210836500539991
 50
225.7950731803259998
 51
317.9500353411183937
  0
ARC
  5
8D5F
  8
0
 10
4155.2341967825077518
 20
151.5075274824687881
 30
0.0
 40
0.0262823379935567
 50
317.460921423300988
 51
45.9648499754000071
  0
ARC
  5
8D60
  8
0
 10
4155.1876369696074107
 20
151.5646678646924101
 30
0.0
 40
0.0997876530691234
 50
239.138482122851201
 51
311.3497374130620869
  0
ARC
  5
8D61
  8
0
 10
4155.1498122444299952
 20
151.5041149322065905
 30
0.0
 40
0.0284405328727562
 50
144.0070952475512911
 51
241.975333671614294
  0
ARC
  5
8D62
  8
0
 10
4155.1928956119900249
 20
151.4503337951310016
 30
0.0
 40
0.0966334993067387
 50
51.9424252890776685
 51
133.1545738693100986
  0
ARC
  5
8D63
  8
0
 10
4155.1559249870570056
 20
151.518594021626086
 30
0.0
 40
0.0476957477653339
 50
195.1715824891599027
 51
241.2430074182207136
  0
ARC
  5
8D64
  8
0
 10
4155.1875863492368808
 20
151.5762883657270095
 30
0.0
 40
0.1135066829985698
 50
241.2430074182207136
 51
308.7212985339372722
  0
ARC
  5
8D65
  8
0
 10
4155.2286148990688162
 20
151.519156055672795
 30
0.0
 40
0.0434277584956983
 50
313.6454971796675864
 51
351.3391927370701069
  0
ARC
  5
8D66
  8
0
 10
4155.2478883047488125
 20
151.5368011382462896
 30
0.0
 40
0.0338327062025688
 50
314.3707277899521273
 51
30.275838576675639
  0
ARC
  5
8D67
  8
0
 10
4155.1919934768211533
 20
151.4685375890016985
 30
0.0
 40
0.1205149823503475
 50
45.069834822916512
 51
138.9144476288180101
  0
ARC
  5
8D68
  8
0
 10
4155.133758010803831
 20
151.5328485818060926
 30
0.0
 40
0.0358395659310882
 50
155.4521251642595985
 51
228.2467987508034071
  0
LINE
  5
8D69
  8
0
 10
4155.1018539707902164
 20
151.5485296537536044
 30
0.0
 11
4155.1098916070359337
 21
151.5061115427542973
 31
0.0
  0
LINE
  5
8D6A
  8
0
 10
4155.2792741649573145
 20
151.5494336276310889
 30
0.0
 11
4155.2715474562346571
 21
151.5126165034542964
 31
0.0
  0
ARC
  5
8D6B
  8
0
 10
4155.1913322048740156
 20
151.4913221848453873
 30
0.0
 40
0.0237188866283004
 50
53.6383053060042485
 51
130.1068032154470018
  0
ARC
  5
8D6C
  8
0
 10
4155.1792732276062452
 20
151.5056392300645882
 30
0.0
 40
0.005
 50
130.1068032154470018
 51
225.7950731803259998
  0
ARC
  5
8D6D
  8
0
 10
4155.2024302703493959
 20
151.5063963236069924
 30
0.0
 40
0.005
 50
317.9500353411183937
 51
53.6383053060042485
  0
ARC
  5
8D6E
  8
0
 10
4155.1904871786118747
 20
151.5171688051617878
 30
0.0
 40
0.0210836500539991
 50
225.7950731803259998
 51
317.9500353411183937
  0
ARC
  5
8D6F
  8
0
 10
4155.36543352022818
 20
151.6663204850152056
 30
0.0
 40
0.0262823379935567
 50
317.460921423300988
 51
45.9648499754000071
  0
ARC
  5
8D70
  8
0
 10
4155.3188737073251104
 20
151.7234608672387992
 30
0.0
 40
0.0997876530691234
 50
239.138482122851201
 51
311.3497374130620869
  0
ARC
  5
8D71
  8
0
 10
4155.2810489821467854
 20
151.6629079347528091
 30
0.0
 40
0.0284405328727562
 50
144.0070952475512911
 51
241.975333671614294
  0
ARC
  5
8D72
  8
0
 10
4155.3241323497068151
 20
151.6091267976773906
 30
0.0
 40
0.0966334993067387
 50
51.9424252890776685
 51
133.1545738693100986
  0
ARC
  5
8D73
  8
0
 10
4155.2871617247737959
 20
151.6773870241723898
 30
0.0
 40
0.0476957477653339
 50
195.1715824891599027
 51
241.2430074182207136
  0
ARC
  5
8D74
  8
0
 10
4155.3188230869527615
 20
151.7350813682733985
 30
0.0
 40
0.1135066829985698
 50
241.2430074182207136
 51
308.7212985339372722
  0
ARC
  5
8D75
  8
0
 10
4155.3598516367892444
 20
151.6779490582192125
 30
0.0
 40
0.0434277584956983
 50
313.6454971796675864
 51
351.3391927370701069
  0
ARC
  5
8D76
  8
0
 10
4155.3791250424692407
 20
151.6955941407925934
 30
0.0
 40
0.0338327062025688
 50
314.3707277899521273
 51
30.275838576675639
  0
ARC
  5
8D77
  8
0
 10
4155.323230214538853
 20
151.6273305915480876
 30
0.0
 40
0.1205149823503475
 50
45.069834822916512
 51
138.9144476288180101
  0
ARC
  5
8D78
  8
0
 10
4155.2649947485233497
 20
151.6916415843525954
 30
0.0
 40
0.0358395659310882
 50
155.4521251642595985
 51
228.2467987508034071
  0
LINE
  5
8D79
  8
0
 10
4155.2330907085070066
 20
151.7073226562999082
 30
0.0
 11
4155.2411283447518144
 21
151.6649045453006863
 31
0.0
  0
LINE
  5
8D7A
  8
0
 10
4155.4105109026750142
 20
151.7082266301775917
 30
0.0
 11
4155.4027841939532664
 21
151.6714095060007139
 31
0.0
  0
ARC
  5
8D7B
  8
0
 10
4155.3225689425944438
 20
151.6501151873916911
 30
0.0
 40
0.0237188866283004
 50
53.6383053060042485
 51
130.1068032154470018
  0
ARC
  5
8D7C
  8
0
 10
4155.3105099653239449
 20
151.664432232611091
 30
0.0
 40
0.005
 50
130.1068032154470018
 51
225.7950731803259998
  0
ARC
  5
8D7D
  8
0
 10
4155.3336670080661861
 20
151.6651893261532962
 30
0.0
 40
0.005
 50
317.9500353411183937
 51
53.6383053060042485
  0
ARC
  5
8D7E
  8
0
 10
4155.3217239163277554
 20
151.6759618077082052
 30
0.0
 40
0.0210836500539991
 50
225.7950731803259998
 51
317.9500353411183937
  0
ARC
  5
8D7F
  8
0
 10
4155.0996457405162801
 20
151.765041892075601
 30
0.0
 40
0.0262823379935567
 50
317.460921423300988
 51
45.9648499754000071
  0
ARC
  5
8D80
  8
0
 10
4155.0530859276132105
 20
151.8221822742991947
 30
0.0
 40
0.0997876530691234
 50
239.138482122851201
 51
311.3497374130620869
  0
ARC
  5
8D81
  8
0
 10
4155.015261202437614
 20
151.7616293418132045
 30
0.0
 40
0.0284405328727562
 50
144.0070952475512911
 51
241.975333671614294
  0
ARC
  5
8D82
  8
0
 10
4155.0583445699967342
 20
151.7078482047377861
 30
0.0
 40
0.0966334993067387
 50
51.9424252890776685
 51
133.1545738693100986
  0
ARC
  5
8D83
  8
0
 10
4155.0213739450637149
 20
151.776108431232899
 30
0.0
 40
0.0476957477653339
 50
195.1715824891599027
 51
241.2430074182207136
  0
ARC
  5
8D84
  8
0
 10
4155.0530353072426806
 20
151.8338027753339077
 30
0.0
 40
0.1135066829985698
 50
241.2430074182207136
 51
308.7212985339372722
  0
ARC
  5
8D85
  8
0
 10
4155.0940638570773444
 20
151.7766704652796079
 30
0.0
 40
0.0434277584956983
 50
313.6454971796675864
 51
351.3391927370701069
  0
ARC
  5
8D86
  8
0
 10
4155.1133372627573408
 20
151.7943155478529889
 30
0.0
 40
0.0338327062025688
 50
314.3707277899521273
 51
30.275838576675639
  0
ARC
  5
8D87
  8
0
 10
4155.0574424348287721
 20
151.7260519986085114
 30
0.0
 40
0.1205149823503475
 50
45.069834822916512
 51
138.9144476288180101
  0
ARC
  5
8D88
  8
0
 10
4154.9992069688123593
 20
151.7903629914129908
 30
0.0
 40
0.0358395659310882
 50
155.4521251642595985
 51
228.2467987508034071
  0
LINE
  5
8D89
  8
0
 10
4154.9673029287969257
 20
151.8060440633603037
 30
0.0
 11
4154.975340565042643
 21
151.7636259523611102
 31
0.0
  0
LINE
  5
8D8A
  8
0
 10
4155.1447231229649333
 20
151.8069480372379019
 30
0.0
 11
4155.1369964142431854
 21
151.7701309130611094
 31
0.0
  0
ARC
  5
8D8B
  8
0
 10
4155.0567811628843629
 20
151.7488365944520865
 30
0.0
 40
0.0237188866283004
 50
53.6383053060042485
 51
130.1068032154470018
  0
ARC
  5
8D8C
  8
0
 10
4155.0447221856129545
 20
151.7631536396714012
 30
0.0
 40
0.005
 50
130.1068032154470018
 51
225.7950731803259998
  0
ARC
  5
8D8D
  8
0
 10
4155.0678792283561052
 20
151.7639107332138053
 30
0.0
 40
0.005
 50
317.9500353411183937
 51
53.6383053060042485
  0
ARC
  5
8D8E
  8
0
 10
4155.055936136616765
 20
151.7746832147686007
 30
0.0
 40
0.0210836500539991
 50
225.7950731803259998
 51
317.9500353411183937
  0
ARC
  5
8D8F
  8
0
 10
4154.7632820537073712
 20
151.641908324667412
 30
0.0
 40
0.0262823379935567
 50
317.460921423300988
 51
45.9648499754000071
  0
ARC
  5
8D90
  8
0
 10
4154.7167222408061207
 20
151.6990487068910056
 30
0.0
 40
0.0997876530691234
 50
239.138482122851201
 51
311.3497374130620869
  0
ARC
  5
8D91
  8
0
 10
4154.6788975156296146
 20
151.6384957744049871
 30
0.0
 40
0.0284405328727562
 50
144.0070952475512911
 51
241.975333671614294
  0
ARC
  5
8D92
  8
0
 10
4154.7219808831887349
 20
151.5847146373295971
 30
0.0
 40
0.0966334993067387
 50
51.9424252890776685
 51
133.1545738693100986
  0
ARC
  5
8D93
  8
0
 10
4154.6850102582557156
 20
151.6529748638245962
 30
0.0
 40
0.0476957477653339
 50
195.1715824891599027
 51
241.2430074182207136
  0
ARC
  5
8D94
  8
0
 10
4154.7166716204355907
 20
151.710669207925605
 30
0.0
 40
0.1135066829985698
 50
241.2430074182207136
 51
308.7212985339372722
  0
ARC
  5
8D95
  8
0
 10
4154.7577001702711641
 20
151.6535368978713905
 30
0.0
 40
0.0434277584956983
 50
313.6454971796675864
 51
351.3391927370701069
  0
ARC
  5
8D96
  8
0
 10
4154.77697357595207
 20
151.6711819804447998
 30
0.0
 40
0.0338327062025688
 50
314.3707277899521273
 51
30.275838576675639
  0
ARC
  5
8D97
  8
0
 10
4154.7210787480207728
 20
151.602918431200294
 30
0.0
 40
0.1205149823503475
 50
45.069834822916512
 51
138.9144476288180101
  0
ARC
  5
8D98
  8
0
 10
4154.6628432820034504
 20
151.6672294240046881
 30
0.0
 40
0.0358395659310882
 50
155.4521251642595985
 51
228.2467987508034071
  0
LINE
  5
8D99
  8
0
 10
4154.6309392419898359
 20
151.6829104959520862
 30
0.0
 11
4154.6389768782346437
 21
151.6404923849528927
 31
0.0
  0
LINE
  5
8D9A
  8
0
 10
4154.8083594361578434
 20
151.6838144698297128
 30
0.0
 11
4154.8006327274360956
 21
151.6469973456528919
 31
0.0
  0
ARC
  5
8D9B
  8
0
 10
4154.7204174760763635
 20
151.6257030270438975
 30
0.0
 40
0.0237188866283004
 50
53.6383053060042485
 51
130.1068032154470018
  0
ARC
  5
8D9C
  8
0
 10
4154.7083584988049552
 20
151.6400200722632121
 30
0.0
 40
0.005
 50
130.1068032154470018
 51
225.7950731803259998
  0
ARC
  5
8D9D
  8
0
 10
4154.7315155415481058
 20
151.6407771658055026
 30
0.0
 40
0.005
 50
317.9500353411183937
 51
53.6383053060042485
  0
ARC
  5
8D9E
  8
0
 10
4154.7195724498124036
 20
151.651549647360298
 30
0.0
 40
0.0210836500539991
 50
225.7950731803259998
 51
317.9500353411183937
  0
ARC
  5
8D9F
  8
0
 10
4154.8113533838823059
 20
151.8279445103079865
 30
0.0
 40
0.0262823379935567
 50
317.460921423300988
 51
45.9648499754000071
  0
ARC
  5
8DA0
  8
0
 10
4154.7647935709774174
 20
151.8850848925316939
 30
0.0
 40
0.0997876530691234
 50
239.138482122851201
 51
311.3497374130620869
  0
ARC
  5
8DA1
  8
0
 10
4154.7269688458000019
 20
151.8245319600457037
 30
0.0
 40
0.0284405328727562
 50
144.0070952475512911
 51
241.975333671614294
  0
ARC
  5
8DA2
  8
0
 10
4154.7700522133609411
 20
151.7707508229703137
 30
0.0
 40
0.0966334993067387
 50
51.9424252890776685
 51
133.1545738693100986
  0
ARC
  5
8DA3
  8
0
 10
4154.7330815884270123
 20
151.8390110494653129
 30
0.0
 40
0.0476957477653339
 50
195.1715824891599027
 51
241.2430074182207136
  0
ARC
  5
8DA4
  8
0
 10
4154.7647429506050685
 20
151.8967053935662932
 30
0.0
 40
0.1135066829985698
 50
241.2430074182207136
 51
308.7212985339372722
  0
ARC
  5
8DA5
  8
0
 10
4154.8057715004406418
 20
151.8395730835119934
 30
0.0
 40
0.0434277584956983
 50
313.6454971796675864
 51
351.3391927370701069
  0
ARC
  5
8DA6
  8
0
 10
4154.8250449061206382
 20
151.8572181660854881
 30
0.0
 40
0.0338327062025688
 50
314.3707277899521273
 51
30.275838576675639
  0
ARC
  5
8DA7
  8
0
 10
4154.769150078192979
 20
151.7889546168410106
 30
0.0
 40
0.1205149823503475
 50
45.069834822916512
 51
138.9144476288180101
  0
ARC
  5
8DA8
  8
0
 10
4154.7109146121747472
 20
151.8532656096454048
 30
0.0
 40
0.0358395659310882
 50
155.4521251642595985
 51
228.2467987508034071
  0
LINE
  5
8DA9
  8
0
 10
4154.6790105721611326
 20
151.8689466815928029
 30
0.0
 11
4154.6870482084050309
 21
151.8265285705936094
 31
0.0
  0
LINE
  5
8DAA
  8
0
 10
4154.8564307663282307
 20
151.8698506554704011
 30
0.0
 11
4154.8487040576046638
 21
151.8330335312936086
 31
0.0
  0
ARC
  5
8DAB
  8
0
 10
4154.7684888062458413
 20
151.8117392126846141
 30
0.0
 40
0.0237188866283004
 50
53.6383053060042485
 51
130.1068032154470018
  0
ARC
  5
8DAC
  8
0
 10
4154.7564298289771614
 20
151.8260562579039004
 30
0.0
 40
0.005
 50
130.1068032154470018
 51
225.7950731803259998
  0
ARC
  5
8DAD
  8
0
 10
4154.7795868717166741
 20
151.8268133514461908
 30
0.0
 40
0.005
 50
317.9500353411183937
 51
53.6383053060042485
  0
ARC
  5
8DAE
  8
0
 10
4154.7676437799818814
 20
151.8375858330009862
 30
0.0
 40
0.0210836500539991
 50
225.7950731803259998
 51
317.9500353411183937
  0
ARC
  5
8DAF
  8
0
 10
4154.6872684535792359
 20
150.4085098784968011
 30
0.0
 40
0.0262823379935567
 50
317.460921423300988
 51
45.9648499754000071
  0
ARC
  5
8DB0
  8
0
 10
4154.6407086406761664
 20
150.4656502607203947
 30
0.0
 40
0.0997876530691234
 50
239.138482122851201
 51
311.3497374130620869
  0
ARC
  5
8DB1
  8
0
 10
4154.6028839154978414
 20
150.4050973282344899
 30
0.0
 40
0.0284405328727562
 50
144.0070952475512911
 51
241.975333671614294
  0
ARC
  5
8DB2
  8
0
 10
4154.6459672830569616
 20
150.3513161911589862
 30
0.0
 40
0.0966334993067387
 50
51.9424252890776685
 51
133.1545738693100986
  0
ARC
  5
8DB3
  8
0
 10
4154.6089966581248518
 20
150.419576417654099
 30
0.0
 40
0.0476957477653339
 50
195.1715824891599027
 51
241.2430074182207136
  0
ARC
  5
8DB4
  8
0
 10
4154.6406580203038175
 20
150.4772707617549941
 30
0.0
 40
0.1135066829985698
 50
241.2430074182207136
 51
308.7212985339372722
  0
ARC
  5
8DB5
  8
0
 10
4154.6816865701403003
 20
150.420138451700808
 30
0.0
 40
0.0434277584956983
 50
313.6454971796675864
 51
351.3391927370701069
  0
ARC
  5
8DB6
  8
0
 10
4154.7009599758202967
 20
150.4377835342743026
 30
0.0
 40
0.0338327062025688
 50
314.3707277899521273
 51
30.275838576675639
  0
ARC
  5
8DB7
  8
0
 10
4154.645065147889909
 20
150.3695199850297115
 30
0.0
 40
0.1205149823503475
 50
45.069834822916512
 51
138.9144476288180101
  0
ARC
  5
8DB8
  8
0
 10
4154.5868296818744057
 20
150.4338309778341909
 30
0.0
 40
0.0358395659310882
 50
155.4521251642595985
 51
228.2467987508034071
  0
LINE
  5
8DB9
  8
0
 10
4154.5549256418598816
 20
150.4495120497815037
 30
0.0
 11
4154.5629632781019609
 21
150.4070939387823103
 31
0.0
  0
LINE
  5
8DBA
  8
0
 10
4154.7323458360278892
 20
150.4504160236591019
 30
0.0
 11
4154.7246191273043223
 21
150.4135988994823094
 31
0.0
  0
ARC
  5
8DBB
  8
0
 10
4154.6444038759445903
 20
150.3923045808734003
 30
0.0
 40
0.0237188866283004
 50
53.6383053060042485
 51
130.1068032154470018
  0
ARC
  5
8DBC
  8
0
 10
4154.6323448986750009
 20
150.4066216260926012
 30
0.0
 40
0.005
 50
130.1068032154470018
 51
225.7950731803259998
  0
ARC
  5
8DBD
  8
0
 10
4154.6555019414154231
 20
150.4073787196350054
 30
0.0
 40
0.005
 50
317.9500353411183937
 51
53.6383053060042485
  0
ARC
  5
8DBE
  8
0
 10
4154.6435588496797209
 20
150.418151201189886
 30
0.0
 40
0.0210836500539991
 50
225.7950731803259998
 51
317.9500353411183937
  0
ARC
  5
8DBF
  8
0
 10
4154.955933871506204
 20
150.4016283537233107
 30
0.0
 40
0.0262823379935567
 50
317.460921423300988
 51
45.9648499754000071
  0
ARC
  5
8DC0
  8
0
 10
4154.9093740586031345
 20
150.4587687359469044
 30
0.0
 40
0.0997876530691234
 50
239.138482122851201
 51
311.3497374130620869
  0
ARC
  5
8DC1
  8
0
 10
4154.8715493334248094
 20
150.3982158034608858
 30
0.0
 40
0.0284405328727562
 50
144.0070952475512911
 51
241.975333671614294
  0
ARC
  5
8DC2
  8
0
 10
4154.9146327009848392
 20
150.3444346663854958
 30
0.0
 40
0.0966334993067387
 50
51.9424252890776685
 51
133.1545738693100986
  0
ARC
  5
8DC3
  8
0
 10
4154.8776620760518199
 20
150.412694892880495
 30
0.0
 40
0.0476957477653339
 50
195.1715824891599027
 51
241.2430074182207136
  0
ARC
  5
8DC4
  8
0
 10
4154.9093234382307855
 20
150.4703892369815037
 30
0.0
 40
0.1135066829985698
 50
241.2430074182207136
 51
308.7212985339372722
  0
ARC
  5
8DC5
  8
0
 10
4154.9503519880672684
 20
150.4132569269272892
 30
0.0
 40
0.0434277584956983
 50
313.6454971796675864
 51
351.3391927370701069
  0
ARC
  5
8DC6
  8
0
 10
4154.9696253937472648
 20
150.4309020095006986
 30
0.0
 40
0.0338327062025688
 50
314.3707277899521273
 51
30.275838576675639
  0
ARC
  5
8DC7
  8
0
 10
4154.9137305658168771
 20
150.3626384602561927
 30
0.0
 40
0.1205149823503475
 50
45.069834822916512
 51
138.9144476288180101
  0
ARC
  5
8DC8
  8
0
 10
4154.8554950997995547
 20
150.4269494530605868
 30
0.0
 40
0.0358395659310882
 50
155.4521251642595985
 51
228.2467987508034071
  0
LINE
  5
8DC9
  8
0
 10
4154.8235910597868497
 20
150.4426305250080134
 30
0.0
 11
4154.8316286960298385
 21
150.4002124140087915
 31
0.0
  0
LINE
  5
8DCA
  8
0
 10
4155.0010112539539477
 20
150.4435344988856116
 30
0.0
 11
4154.9932845452312904
 21
150.4067173747087907
 31
0.0
  0
ARC
  5
8DCB
  8
0
 10
4154.9130692938751963
 20
150.3854230560997962
 30
0.0
 40
0.0237188866283004
 50
53.6383053060042485
 51
130.1068032154470018
  0
ARC
  5
8DCC
  8
0
 10
4154.901010316601969
 20
150.3997401013191961
 30
0.0
 40
0.005
 50
130.1068032154470018
 51
225.7950731803259998
  0
ARC
  5
8DCD
  8
0
 10
4154.9241673593423911
 20
150.4004971948614013
 30
0.0
 40
0.005
 50
317.9500353411183937
 51
53.6383053060042485
  0
ARC
  5
8DCE
  8
0
 10
4154.912224267606689
 20
150.4112696764161967
 30
0.0
 40
0.0210836500539991
 50
225.7950731803259998
 51
317.9500353411183937
  0
ARC
  5
8DCF
  8
0
 10
4154.9371784862323693
 20
150.5820213874619071
 30
0.0
 40
0.0262823379935567
 50
317.460921423300988
 51
45.9648499754000071
  0
ARC
  5
8DD0
  8
0
 10
4154.8906186733292998
 20
150.6391617696855008
 30
0.0
 40
0.0997876530691234
 50
239.138482122851201
 51
311.3497374130620869
  0
ARC
  5
8DD1
  8
0
 10
4154.8527939481537032
 20
150.5786088371995106
 30
0.0
 40
0.0284405328727562
 50
144.0070952475512911
 51
241.975333671614294
  0
ARC
  5
8DD2
  8
0
 10
4154.895877315710095
 20
150.5248277001240069
 30
0.0
 40
0.0966334993067387
 50
51.9424252890776685
 51
133.1545738693100986
  0
ARC
  5
8DD3
  8
0
 10
4154.8589066907770757
 20
150.5930879266190914
 30
0.0
 40
0.0476957477653339
 50
195.1715824891599027
 51
241.2430074182207136
  0
ARC
  5
8DD4
  8
0
 10
4154.8905680529578603
 20
150.6507822707201001
 30
0.0
 40
0.1135066829985698
 50
241.2430074182207136
 51
308.7212985339372722
  0
ARC
  5
8DD5
  8
0
 10
4154.9315966027934337
 20
150.5936499606658003
 30
0.0
 40
0.0434277584956983
 50
313.6454971796675864
 51
351.3391927370701069
  0
ARC
  5
8DD6
  8
0
 10
4154.9508700084752491
 20
150.611295043239295
 30
0.0
 40
0.0338327062025688
 50
314.3707277899521273
 51
30.275838576675639
  0
ARC
  5
8DD7
  8
0
 10
4154.8949751805430424
 20
150.5430314939947039
 30
0.0
 40
0.1205149823503475
 50
45.069834822916512
 51
138.9144476288180101
  0
ARC
  5
8DD8
  8
0
 10
4154.8367397145266295
 20
150.6073424867992117
 30
0.0
 40
0.0358395659310882
 50
155.4521251642595985
 51
228.2467987508034071
  0
LINE
  5
8DD9
  8
0
 10
4154.804835674511196
 20
150.6230235587466098
 30
0.0
 11
4154.8128733107587323
 21
150.5806054477473026
 31
0.0
  0
LINE
  5
8DDA
  8
0
 10
4154.9822558686810225
 20
150.6239275326240943
 30
0.0
 11
4154.9745291599592747
 21
150.5871104084473018
 31
0.0
  0
ARC
  5
8DDB
  8
0
 10
4154.8943139085977236
 20
150.5658160898383926
 30
0.0
 40
0.0237188866283004
 50
53.6383053060042485
 51
130.1068032154470018
  0
ARC
  5
8DDC
  8
0
 10
4154.8822549313281343
 20
150.5801331350577072
 30
0.0
 40
0.005
 50
130.1068032154470018
 51
225.7950731803259998
  0
ARC
  5
8DDD
  8
0
 10
4154.9054119740703754
 20
150.5808902285999977
 30
0.0
 40
0.005
 50
317.9500353411183937
 51
53.6383053060042485
  0
ARC
  5
8DDE
  8
0
 10
4154.8934688823337638
 20
150.5916627101547931
 30
0.0
 40
0.0210836500539991
 50
225.7950731803259998
 51
317.9500353411183937
  0
ARC
  5
8DDF
  8
0
 10
4155.1415358892118093
 20
150.712527136440201
 30
0.0
 40
0.0262823379935567
 50
317.460921423300988
 51
45.9648499754000071
  0
ARC
  5
8DE0
  8
0
 10
4155.0949760763078302
 20
150.7696675186639084
 30
0.0
 40
0.0997876530691234
 50
239.138482122851201
 51
311.3497374130620869
  0
ARC
  5
8DE1
  8
0
 10
4155.0571513511322337
 20
150.7091145861778898
 30
0.0
 40
0.0284405328727562
 50
144.0070952475512911
 51
241.975333671614294
  0
ARC
  5
8DE2
  8
0
 10
4155.1002347186931729
 20
150.6553334491024998
 30
0.0
 40
0.0966334993067387
 50
51.9424252890776685
 51
133.1545738693100986
  0
ARC
  5
8DE3
  8
0
 10
4155.0632640937601536
 20
150.723593675597499
 30
0.0
 40
0.0476957477653339
 50
195.1715824891599027
 51
241.2430074182207136
  0
ARC
  5
8DE4
  8
0
 10
4155.0949254559382098
 20
150.7812880196985077
 30
0.0
 40
0.1135066829985698
 50
241.2430074182207136
 51
308.7212985339372722
  0
ARC
  5
8DE5
  8
0
 10
4155.1359540057728736
 20
150.7241557096442079
 30
0.0
 40
0.0434277584956983
 50
313.6454971796675864
 51
351.3391927370701069
  0
ARC
  5
8DE6
  8
0
 10
4155.1552274114519605
 20
150.7418007922177026
 30
0.0
 40
0.0338327062025688
 50
314.3707277899521273
 51
30.275838576675639
  0
ARC
  5
8DE7
  8
0
 10
4155.0993325835243013
 20
150.6735372429731967
 30
0.0
 40
0.1205149823503475
 50
45.069834822916512
 51
138.9144476288180101
  0
ARC
  5
8DE8
  8
0
 10
4155.0410971175078885
 20
150.7378482357775908
 30
0.0
 40
0.0358395659310882
 50
155.4521251642595985
 51
228.2467987508034071
  0
LINE
  5
8DE9
  8
0
 10
4155.0091930774915454
 20
150.7535293077249889
 30
0.0
 11
4155.0172307137363532
 21
150.7111111967257102
 31
0.0
  0
LINE
  5
8DEA
  8
0
 10
4155.186613271659553
 20
150.7544332816025019
 30
0.0
 11
4155.1788865629368956
 21
150.7176161574257947
 31
0.0
  0
ARC
  5
8DEB
  8
0
 10
4155.0986713115780731
 20
150.6963218388168002
 30
0.0
 40
0.0237188866283004
 50
53.6383053060042485
 51
130.1068032154470018
  0
ARC
  5
8DEC
  8
0
 10
4155.0866123343066647
 20
150.7106388840360864
 30
0.0
 40
0.005
 50
130.1068032154470018
 51
225.7950731803259998
  0
ARC
  5
8DED
  8
0
 10
4155.1097693770470869
 20
150.7113959775784053
 30
0.0
 40
0.005
 50
317.9500353411183937
 51
53.6383053060042485
  0
ARC
  5
8DEE
  8
0
 10
4155.0978262853150227
 20
150.7221684591332007
 30
0.0
 40
0.0210836500539991
 50
225.7950731803259998
 51
317.9500353411183937
  0
ARC
  5
8DEF
  8
0
 10
4154.9380728957130486
 20
150.8277472164658946
 30
0.0
 40
0.0262823379935567
 50
317.460921423300988
 51
45.9648499754000071
  0
ARC
  5
8DF0
  8
0
 10
4154.8915130828081601
 20
150.8848875986894882
 30
0.0
 40
0.0997876530691234
 50
239.138482122851201
 51
311.3497374130620869
  0
ARC
  5
8DF1
  8
0
 10
4154.8536883576316541
 20
150.824334666203498
 30
0.0
 40
0.0284405328727562
 50
144.0070952475512911
 51
241.975333671614294
  0
ARC
  5
8DF2
  8
0
 10
4154.8967717251925933
 20
150.7705535291279944
 30
0.0
 40
0.0966334993067387
 50
51.9424252890776685
 51
133.1545738693100986
  0
ARC
  5
8DF3
  8
0
 10
4154.8598011002568455
 20
150.8388137556231925
 30
0.0
 40
0.0476957477653339
 50
195.1715824891599027
 51
241.2430074182207136
  0
ARC
  5
8DF4
  8
0
 10
4154.8914624624376302
 20
150.8965080997240875
 30
0.0
 40
0.1135066829985698
 50
241.2430074182207136
 51
308.7212985339372722
  0
ARC
  5
8DF5
  8
0
 10
4154.932491012272294
 20
150.8393757896699015
 30
0.0
 40
0.0434277584956983
 50
313.6454971796675864
 51
351.3391927370701069
  0
ARC
  5
8DF6
  8
0
 10
4154.9517644179541094
 20
150.8570208722433108
 30
0.0
 40
0.0338327062025688
 50
314.3707277899521273
 51
30.275838576675639
  0
ARC
  5
8DF7
  8
0
 10
4154.8958695900246312
 20
150.788757322998805
 30
0.0
 40
0.1205149823503475
 50
45.069834822916512
 51
138.9144476288180101
  0
ARC
  5
8DF8
  8
0
 10
4154.8376341240073089
 20
150.8530683158031991
 30
0.0
 40
0.0358395659310882
 50
155.4521251642595985
 51
228.2467987508034071
  0
LINE
  5
8DF9
  8
0
 10
4154.8057300839918753
 20
150.8687493877505972
 30
0.0
 11
4154.8137677202366831
 21
150.82633127675129
 31
0.0
  0
LINE
  5
8DFA
  8
0
 10
4154.9831502781598829
 20
150.8696533616281101
 30
0.0
 11
4154.975423569438135
 21
150.8328362374514029
 31
0.0
  0
ARC
  5
8DFB
  8
0
 10
4154.895208318076584
 20
150.8115419188424084
 30
0.0
 40
0.0237188866283004
 50
53.6383053060042485
 51
130.1068032154470018
  0
ARC
  5
8DFC
  8
0
 10
4154.8831493408069946
 20
150.8258589640616947
 30
0.0
 40
0.005
 50
130.1068032154470018
 51
225.7950731803259998
  0
ARC
  5
8DFD
  8
0
 10
4154.9063063835492358
 20
150.8266160576040136
 30
0.0
 40
0.005
 50
317.9500353411183937
 51
53.6383053060042485
  0
ARC
  5
8DFE
  8
0
 10
4154.8943632918117146
 20
150.837388539158809
 30
0.0
 40
0.0210836500539991
 50
225.7950731803259998
 51
317.9500353411183937
  0
ARC
  5
8DFF
  8
0
 10
4154.9567654046313692
 20
151.0206419973343941
 30
0.0
 40
0.0262823379935567
 50
317.460921423300988
 51
45.9648499754000071
  0
ARC
  5
8E00
  8
0
 10
4154.9102055917282996
 20
151.0777823795579877
 30
0.0
 40
0.0997876530691234
 50
239.138482122851201
 51
311.3497374130620869
  0
ARC
  5
8E01
  8
0
 10
4154.8723808665499746
 20
151.0172294470719976
 30
0.0
 40
0.0284405328727562
 50
144.0070952475512911
 51
241.975333671614294
  0
ARC
  5
8E02
  8
0
 10
4154.9154642341100043
 20
150.9634483099966076
 30
0.0
 40
0.0966334993067387
 50
51.9424252890776685
 51
133.1545738693100986
  0
ARC
  5
8E03
  8
0
 10
4154.878493609176985
 20
151.0317085364916068
 30
0.0
 40
0.0476957477653339
 50
195.1715824891599027
 51
241.2430074182207136
  0
ARC
  5
8E04
  8
0
 10
4154.9101549713568602
 20
151.0894028805925871
 30
0.0
 40
0.1135066829985698
 50
241.2430074182207136
 51
308.7212985339372722
  0
ARC
  5
8E05
  8
0
 10
4154.9511835211942525
 20
151.0322705705382873
 30
0.0
 40
0.0434277584956983
 50
313.6454971796675864
 51
351.3391927370701069
  0
ARC
  5
8E06
  8
0
 10
4154.9704569268706109
 20
151.0499156531118103
 30
0.0
 40
0.0338327062025688
 50
314.3707277899521273
 51
30.275838576675639
  0
ARC
  5
8E07
  8
0
 10
4154.9145620989420422
 20
150.9816521038673898
 30
0.0
 40
0.1205149823503475
 50
45.069834822916512
 51
138.9144476288180101
  0
ARC
  5
8E08
  8
0
 10
4154.8563266329256294
 20
151.0459630966716986
 30
0.0
 40
0.0358395659310882
 50
155.4521251642595985
 51
228.2467987508034071
  0
LINE
  5
8E09
  8
0
 10
4154.8244225929120148
 20
151.0616441686190967
 30
0.0
 11
4154.8324602291550036
 21
151.0192260576199033
 31
0.0
  0
LINE
  5
8E0A
  8
0
 10
4155.0018427870800224
 20
151.0625481424966949
 30
0.0
 11
4154.994116078357365
 21
151.0257310183199024
 31
0.0
  0
ARC
  5
8E0B
  8
0
 10
4154.913900826995814
 20
151.004436699710908
 30
0.0
 40
0.0237188866283004
 50
53.6383053060042485
 51
130.1068032154470018
  0
ARC
  5
8E0C
  8
0
 10
4154.9018418497271341
 20
151.0187537449301942
 30
0.0
 40
0.005
 50
130.1068032154470018
 51
225.7950731803259998
  0
ARC
  5
8E0D
  8
0
 10
4154.9249988924693753
 20
151.0195108384725131
 30
0.0
 40
0.005
 50
317.9500353411183937
 51
53.6383053060042485
  0
ARC
  5
8E0E
  8
0
 10
4154.9130558007318541
 20
151.0302833200273085
 30
0.0
 40
0.0210836500539991
 50
225.7950731803259998
 51
317.9500353411183937
  0
ARC
  5
8E0F
  8
0
 10
4154.6872761908380198
 20
151.0029741836463018
 30
0.0
 40
0.0262823379935567
 50
317.460921423300988
 51
45.9648499754000071
  0
ARC
  5
8E10
  8
0
 10
4154.6407163779349503
 20
151.0601145658700091
 30
0.0
 40
0.0997876530691234
 50
239.138482122851201
 51
311.3497374130620869
  0
ARC
  5
8E11
  8
0
 10
4154.6028916527602632
 20
150.9995616333839905
 30
0.0
 40
0.0284405328727562
 50
144.0070952475512911
 51
241.975333671614294
  0
ARC
  5
8E12
  8
0
 10
4154.6459750203175645
 20
150.9457804963086005
 30
0.0
 40
0.0966334993067387
 50
51.9424252890776685
 51
133.1545738693100986
  0
ARC
  5
8E13
  8
0
 10
4154.6090043953854547
 20
151.0140407228035997
 30
0.0
 40
0.0476957477653339
 50
195.1715824891599027
 51
241.2430074182207136
  0
ARC
  5
8E14
  8
0
 10
4154.6406657575616919
 20
151.0717350669046084
 30
0.0
 40
0.1135066829985698
 50
241.2430074182207136
 51
308.7212985339372722
  0
ARC
  5
8E15
  8
0
 10
4154.6816943074009032
 20
151.0146027568503087
 30
0.0
 40
0.0434277584956983
 50
313.6454971796675864
 51
351.3391927370701069
  0
ARC
  5
8E16
  8
0
 10
4154.7009677130790806
 20
151.0322478394238033
 30
0.0
 40
0.0338327062025688
 50
314.3707277899521273
 51
30.275838576675639
  0
ARC
  5
8E17
  8
0
 10
4154.6450728851496024
 20
150.9639842901792974
 30
0.0
 40
0.1205149823503475
 50
45.069834822916512
 51
138.9144476288180101
  0
ARC
  5
8E18
  8
0
 10
4154.586837419134099
 20
151.0282952829836915
 30
0.0
 40
0.0358395659310882
 50
155.4521251642595985
 51
228.2467987508034071
  0
LINE
  5
8E19
  8
0
 10
4154.554933379117756
 20
151.0439763549310896
 30
0.0
 11
4154.5629710153652923
 21
151.0015582439318962
 31
0.0
  0
LINE
  5
8E1A
  8
0
 10
4154.7323535732857636
 20
151.0448803288086026
 30
0.0
 11
4154.7246268645649252
 21
151.0080632046318101
 31
0.0
  0
ARC
  5
8E1B
  8
0
 10
4154.6444116132042836
 20
150.9867688860229009
 30
0.0
 40
0.0237188866283004
 50
53.6383053060042485
 51
130.1068032154470018
  0
ARC
  5
8E1C
  8
0
 10
4154.6323526359337848
 20
151.0010859312421871
 30
0.0
 40
0.005
 50
130.1068032154470018
 51
225.7950731803259998
  0
ARC
  5
8E1D
  8
0
 10
4154.6555096786760259
 20
151.001843024784506
 30
0.0
 40
0.005
 50
317.9500353411183937
 51
53.6383053060042485
  0
ARC
  5
8E1E
  8
0
 10
4154.6435665869403238
 20
151.0126155063393014
 30
0.0
 40
0.0210836500539991
 50
225.7950731803259998
 51
317.9500353411183937
  0
ARC
  5
8E1F
  8
0
 10
4154.8315346269682777
 20
150.0368822075319883
 30
0.0
 40
0.1927421565859276
 50
54.8700725613037221
 51
115.5524379854430066
  0
ARC
  5
8E20
  8
0
 10
4154.8091807734826943
 20
150.0836378631013019
 30
0.0
 40
0.1409175862223613
 50
115.5524379854430066
 51
145.3743352895280054
  0
ARC
  5
8E21
  8
0
 10
4154.7506732364518029
 20
150.133778034016899
 30
0.0
 40
0.0647802353497898
 50
152.4812873721471078
 51
226.4138231943809956
  0
ARC
  5
8E22
  8
0
 10
4154.8173951457320072
 20
150.2096992312378916
 30
0.0
 40
0.1658225298535404
 50
227.8009800110795879
 51
274.4597643447021937
  0
ARC
  5
8E23
  8
0
 10
4154.8265903783467365
 20
150.2351277688661924
 30
0.0
 40
0.1907848489371033
 50
271.1109274673535765
 51
304.0604701099641147
  0
ARC
  5
8E24
  8
0
 10
4154.9004231754734064
 20
150.138670361317196
 30
0.0
 40
0.0698897212901058
 50
298.19364354807891
 51
53.0401543885729723
  0
ARC
  5
8E25
  8
0
 10
4154.8322318839072977
 20
150.0608723810300944
 30
0.0
 40
0.0794943820092316
 50
57.0312957822762527
 51
136.4072510697932898
  0
ARC
  5
8E26
  8
0
 10
4154.7992106092169706
 20
150.1011589642467072
 30
0.0
 40
0.0285288708713396
 50
149.3891881710783025
 51
227.3472045268821091
  0
ARC
  5
8E27
  8
0
 10
4154.8268779412437652
 20
150.1426903564658062
 30
0.0
 40
0.0782092468540521
 50
233.0644762114719981
 51
319.045930839588209
  0
ARC
  5
8E28
  8
0
 10
4154.8613330614180086
 20
150.1038895507504094
 30
0.0
 40
0.0275863953504439
 50
333.1449391902286266
 51
59.1208344035123119
  0
ARC
  5
8E29
  8
0
 10
4154.8028308137400018
 20
150.1137258761779947
 30
0.0
 40
0.0456316546509115
 50
196.3905677119828113
 51
241.2364687976026119
  0
ARC
  5
8E2A
  8
0
 10
4154.8261238427694479
 20
150.1561596941934056
 30
0.0
 40
0.0940382049602132
 50
241.2364687976026119
 51
314.0115017368453891
  0
ARC
  5
8E2B
  8
0
 10
4154.8585284663913626
 20
150.1147618496204927
 30
0.0
 40
0.0421052808182292
 50
321.459456816740726
 51
349.2894509046698204
  0
ARC
  5
8E2C
  8
0
 10
4154.7837791667907368
 20
150.1277156259677952
 30
0.0
 40
0.0365123079731247
 50
151.0319501878479116
 51
227.3760049472545006
  0
ARC
  5
8E2D
  8
0
 10
4154.8297681865196864
 20
150.0796812587574891
 30
0.0
 40
0.1019434152692049
 50
41.691150235123132
 51
139.8603758370695971
  0
ARC
  5
8E2E
  8
0
 10
4154.8777950857547694
 20
150.1309211871534046
 30
0.0
 40
0.0326173716327942
 50
312.6649749599445727
 51
30.5195758843029488
  0
LINE
  5
8E2F
  8
0
 10
4154.7489926336629651
 20
150.138808224693804
 30
0.0
 11
4154.7590536093675837
 21
150.1008493749507977
 31
0.0
  0
LINE
  5
8E30
  8
0
 10
4154.8999002140817538
 20
150.1069366872887088
 30
0.0
 11
4154.9062754190317719
 21
150.1468197263500883
 31
0.0
  0
ARC
  5
8E31
  8
0
 10
4154.8305110389082984
 20
150.0880645470925003
 30
0.0
 40
0.0237188866283004
 50
53.6383053060042485
 51
130.1068032154470018
  0
ARC
  5
8E32
  8
0
 10
4154.8184520616377995
 20
150.1023815923117866
 30
0.0
 40
0.005
 50
130.1068032154470018
 51
225.7950731803259998
  0
ARC
  5
8E33
  8
0
 10
4154.8416091043782217
 20
150.1031386858541907
 30
0.0
 40
0.005
 50
317.9500353411183937
 51
53.6383053060042485
  0
ARC
  5
8E34
  8
0
 10
4154.8296660126407005
 20
150.1139111674089008
 30
0.0
 40
0.0210836500539991
 50
225.7950731803259998
 51
317.9500353411183937
  0
ARC
  5
8E35
  8
0
 10
4155.3448116551962812
 20
150.3939099140214921
 30
0.0
 40
0.1927421565859276
 50
54.8700725613037221
 51
115.5524379854430066
  0
ARC
  5
8E36
  8
0
 10
4155.3224578017106978
 20
150.4406655695908057
 30
0.0
 40
0.1409175862223613
 50
115.5524379854430066
 51
145.3743352895280054
  0
ARC
  5
8E37
  8
0
 10
4155.2639502646807159
 20
150.4908057405064028
 30
0.0
 40
0.0647802353497898
 50
152.4812873721471078
 51
226.4138231943809956
  0
ARC
  5
8E38
  8
0
 10
4155.3306721739609202
 20
150.5667269377273101
 30
0.0
 40
0.1658225298535404
 50
227.8009800110795879
 51
274.4597643447021937
  0
ARC
  5
8E39
  8
0
 10
4155.339867406572921
 20
150.5921554753556109
 30
0.0
 40
0.1907848489371033
 50
271.1109274673535765
 51
304.0604701099641147
  0
ARC
  5
8E3A
  8
0
 10
4155.4137002037023194
 20
150.4956980678066998
 30
0.0
 40
0.0698897212901058
 50
298.19364354807891
 51
53.0401543885729723
  0
ARC
  5
8E3B
  8
0
 10
4155.3455089121343917
 20
150.4179000875195982
 30
0.0
 40
0.0794943820092316
 50
57.0312957822762527
 51
136.4072510697932898
  0
ARC
  5
8E3C
  8
0
 10
4155.3124876374458836
 20
150.458186670736211
 30
0.0
 40
0.0285288708713396
 50
149.3891881710783025
 51
227.3472045268821091
  0
ARC
  5
8E3D
  8
0
 10
4155.3401549694726782
 20
150.49971806295531
 30
0.0
 40
0.0782092468540521
 50
233.0644762114719981
 51
319.045930839588209
  0
ARC
  5
8E3E
  8
0
 10
4155.3746100896460121
 20
150.4609172572399132
 30
0.0
 40
0.0275863953504439
 50
333.1449391902286266
 51
59.1208344035123119
  0
ARC
  5
8E3F
  8
0
 10
4155.3161078419652767
 20
150.4707535826674984
 30
0.0
 40
0.0456316546509115
 50
196.3905677119828113
 51
241.2364687976026119
  0
ARC
  5
8E40
  8
0
 10
4155.3394008709992704
 20
150.5131874006829094
 30
0.0
 40
0.0940382049602132
 50
241.2364687976026119
 51
314.0115017368453891
  0
ARC
  5
8E41
  8
0
 10
4155.3718054946193661
 20
150.4717895561101102
 30
0.0
 40
0.0421052808182292
 50
321.459456816740726
 51
349.2894509046698204
  0
ARC
  5
8E42
  8
0
 10
4155.2970561950187403
 20
150.4847433324572989
 30
0.0
 40
0.0365123079731247
 50
151.0319501878479116
 51
227.3760049472545006
  0
ARC
  5
8E43
  8
0
 10
4155.3430452147485994
 20
150.4367089652469929
 30
0.0
 40
0.1019434152692049
 50
41.691150235123132
 51
139.8603758370695971
  0
ARC
  5
8E44
  8
0
 10
4155.3910721139818634
 20
150.4879488936429937
 30
0.0
 40
0.0326173716327942
 50
312.6649749599445727
 51
30.5195758843029488
  0
LINE
  5
8E45
  8
0
 10
4155.2622696618918781
 20
150.4958359311833078
 30
0.0
 11
4155.2723306375974062
 21
150.4578770814403015
 31
0.0
  0
LINE
  5
8E46
  8
0
 10
4155.4131772423133953
 20
150.4639643937782125
 30
0.0
 11
4155.4195524472615944
 21
150.5038474328397058
 31
0.0
  0
ARC
  5
8E47
  8
0
 10
4155.3437880671353923
 20
150.4450922535820041
 30
0.0
 40
0.0237188866283004
 50
53.6383053060042485
 51
130.1068032154470018
  0
ARC
  5
8E48
  8
0
 10
4155.3317290898667125
 20
150.4594092988012903
 30
0.0
 40
0.005
 50
130.1068032154470018
 51
225.7950731803259998
  0
ARC
  5
8E49
  8
0
 10
4155.3548861326071346
 20
150.4601663923436092
 30
0.0
 40
0.005
 50
317.9500353411183937
 51
53.6383053060042485
  0
ARC
  5
8E4A
  8
0
 10
4155.342943040868704
 20
150.4709388738984046
 30
0.0
 40
0.0210836500539991
 50
225.7950731803259998
 51
317.9500353411183937
  0
ARC
  5
8E4B
  8
0
 10
4155.3452002079457088
 20
150.899846702685295
 30
0.0
 40
0.1927421565859276
 50
54.8700725613037221
 51
115.5524379854430066
  0
ARC
  5
8E4C
  8
0
 10
4155.3228463544619444
 20
150.9466023582546086
 30
0.0
 40
0.1409175862223613
 50
115.5524379854430066
 51
145.3743352895280054
  0
ARC
  5
8E4D
  8
0
 10
4155.264338817432872
 20
150.9967425291702909
 30
0.0
 40
0.0647802353497898
 50
152.4812873721471078
 51
226.4138231943809956
  0
ARC
  5
8E4E
  8
0
 10
4155.3310607267112573
 20
151.072663726391113
 30
0.0
 40
0.1658225298535404
 50
227.8009800110795879
 51
274.4597643447021937
  0
ARC
  5
8E4F
  8
0
 10
4155.3402559593250771
 20
151.098092264019499
 30
0.0
 40
0.1907848489371033
 50
271.1109274673535765
 51
304.0604701099641147
  0
ARC
  5
8E50
  8
0
 10
4155.414088756451747
 20
151.0016348564705027
 30
0.0
 40
0.0698897212901058
 50
298.19364354807891
 51
53.0401543885729723
  0
ARC
  5
8E51
  8
0
 10
4155.3458974648856383
 20
150.923836876183401
 30
0.0
 40
0.0794943820092316
 50
57.0312957822762527
 51
136.4072510697932898
  0
ARC
  5
8E52
  8
0
 10
4155.3128761901980397
 20
150.9641234594000139
 30
0.0
 40
0.0285288708713396
 50
149.3891881710783025
 51
227.3472045268821091
  0
ARC
  5
8E53
  8
0
 10
4155.3405435222248343
 20
151.0056548516191981
 30
0.0
 40
0.0782092468540521
 50
233.0644762114719981
 51
319.045930839588209
  0
ARC
  5
8E54
  8
0
 10
4155.3749986423972587
 20
150.9668540459038013
 30
0.0
 40
0.0275863953504439
 50
333.1449391902286266
 51
59.1208344035123119
  0
ARC
  5
8E55
  8
0
 10
4155.3164963947183423
 20
150.9766903713313866
 30
0.0
 40
0.0456316546509115
 50
196.3905677119828113
 51
241.2364687976026119
  0
ARC
  5
8E56
  8
0
 10
4155.3397894237496075
 20
151.0191241893467122
 30
0.0
 40
0.0940382049602132
 50
241.2364687976026119
 51
314.0115017368453891
  0
ARC
  5
8E57
  8
0
 10
4155.3721940473706127
 20
150.9777263447739131
 30
0.0
 40
0.0421052808182292
 50
321.459456816740726
 51
349.2894509046698204
  0
ARC
  5
8E58
  8
0
 10
4155.2974447477699869
 20
150.9906801211211871
 30
0.0
 40
0.0365123079731247
 50
151.0319501878479116
 51
227.3760049472545006
  0
ARC
  5
8E59
  8
0
 10
4155.3434337675025745
 20
150.9426457539109094
 30
0.0
 40
0.1019434152692049
 50
41.691150235123132
 51
139.8603758370695971
  0
ARC
  5
8E5A
  8
0
 10
4155.3914606667340195
 20
150.9938856823067965
 30
0.0
 40
0.0326173716327942
 50
312.6649749599445727
 51
30.5195758843029488
  0
LINE
  5
8E5B
  8
0
 10
4155.2626582146440342
 20
151.0017727198471107
 30
0.0
 11
4155.2727191903468338
 21
150.9638138701041044
 31
0.0
  0
LINE
  5
8E5C
  8
0
 10
4155.4135657950637324
 20
150.9699011824421007
 30
0.0
 11
4155.419941000011022
 21
151.0097842215035087
 31
0.0
  0
ARC
  5
8E5D
  8
0
 10
4155.3441766198866389
 20
150.9510290422458922
 30
0.0
 40
0.0237188866283004
 50
53.6383053060042485
 51
130.1068032154470018
  0
ARC
  5
8E5E
  8
0
 10
4155.3321176426161401
 20
150.9653460874650932
 30
0.0
 40
0.005
 50
130.1068032154470018
 51
225.7950731803259998
  0
ARC
  5
8E5F
  8
0
 10
4155.3552746853565623
 20
150.9661031810074121
 30
0.0
 40
0.005
 50
317.9500353411183937
 51
53.6383053060042485
  0
ARC
  5
8E60
  8
0
 10
4155.3433315936217696
 20
150.9768756625622927
 30
0.0
 40
0.0210836500539991
 50
225.7950731803259998
 51
317.9500353411183937
  0
ARC
  5
8E61
  8
0
 10
4154.8313417290701182
 20
151.256500129801708
 30
0.0
 40
0.1927421565859276
 50
54.8700725613037221
 51
115.5524379854430066
  0
ARC
  5
8E62
  8
0
 10
4154.8089878755836253
 20
151.3032557853709079
 30
0.0
 40
0.1409175862223613
 50
115.5524379854430066
 51
145.3743352895280054
  0
ARC
  5
8E63
  8
0
 10
4154.7504803385563719
 20
151.3533959562863913
 30
0.0
 40
0.0647802353497898
 50
152.4812873721471078
 51
226.4138231943809956
  0
ARC
  5
8E64
  8
0
 10
4154.8172022478338477
 20
151.4293171535072986
 30
0.0
 40
0.1658225298535404
 50
227.8009800110795879
 51
274.4597643447021937
  0
ARC
  5
8E65
  8
0
 10
4154.826397480446758
 20
151.4547456911357131
 30
0.0
 40
0.1907848489371033
 50
271.1109274673535765
 51
304.0604701099641147
  0
ARC
  5
8E66
  8
0
 10
4154.9002302775752469
 20
151.3582882835866883
 30
0.0
 40
0.0698897212901058
 50
298.19364354807891
 51
53.0401543885729723
  0
ARC
  5
8E67
  8
0
 10
4154.8320389860073192
 20
151.2804903032995867
 30
0.0
 40
0.0794943820092316
 50
57.0312957822762527
 51
136.4072510697932898
  0
ARC
  5
8E68
  8
0
 10
4154.7990177113188111
 20
151.3207768865161995
 30
0.0
 40
0.0285288708713396
 50
149.3891881710783025
 51
227.3472045268821091
  0
ARC
  5
8E69
  8
0
 10
4154.8266850433456057
 20
151.3623082787352985
 30
0.0
 40
0.0782092468540521
 50
233.0644762114719981
 51
319.045930839588209
  0
ARC
  5
8E6A
  8
0
 10
4154.8611401635189395
 20
151.3235074730199869
 30
0.0
 40
0.0275863953504439
 50
333.1449391902286266
 51
59.1208344035123119
  0
ARC
  5
8E6B
  8
0
 10
4154.8026379158400232
 20
151.3333437984476006
 30
0.0
 40
0.0456316546509115
 50
196.3905677119828113
 51
241.2364687976026119
  0
ARC
  5
8E6C
  8
0
 10
4154.8259309448685599
 20
151.3757776164628979
 30
0.0
 40
0.0940382049602132
 50
241.2364687976026119
 51
314.0115017368453891
  0
ARC
  5
8E6D
  8
0
 10
4154.858335568491384
 20
151.3343797718900987
 30
0.0
 40
0.0421052808182292
 50
321.459456816740726
 51
349.2894509046698204
  0
ARC
  5
8E6E
  8
0
 10
4154.7835862688925772
 20
151.3473335482374011
 30
0.0
 40
0.0365123079731247
 50
151.0319501878479116
 51
227.3760049472545006
  0
ARC
  5
8E6F
  8
0
 10
4154.8295752886242553
 20
151.2992991810270098
 30
0.0
 40
0.1019434152692049
 50
41.691150235123132
 51
139.8603758370695971
  0
ARC
  5
8E70
  8
0
 10
4154.8776021878557003
 20
151.3505391094230106
 30
0.0
 40
0.0326173716327942
 50
312.6649749599445727
 51
30.5195758843029488
  0
LINE
  5
8E71
  8
0
 10
4154.748799735763896
 20
151.3584261469632963
 30
0.0
 11
4154.7588607114721526
 21
151.32046729722029
 31
0.0
  0
LINE
  5
8E72
  8
0
 10
4154.8997073161863227
 20
151.3265546095582863
 30
0.0
 11
4154.9060825211354313
 21
151.3664376486196943
 31
0.0
  0
ARC
  5
8E73
  8
0
 10
4154.8303181410083198
 20
151.3076824693619926
 30
0.0
 40
0.0237188866283004
 50
53.6383053060042485
 51
130.1068032154470018
  0
ARC
  5
8E74
  8
0
 10
4154.8182591637387304
 20
151.3219995145813073
 30
0.0
 40
0.005
 50
130.1068032154470018
 51
225.7950731803259998
  0
ARC
  5
8E75
  8
0
 10
4154.8414162064800621
 20
151.3227566081235977
 30
0.0
 40
0.005
 50
317.9500353411183937
 51
53.6383053060042485
  0
ARC
  5
8E76
  8
0
 10
4154.8294731147443599
 20
151.3335290896783931
 30
0.0
 40
0.0210836500539991
 50
225.7950731803259998
 51
317.9500353411183937
  0
ARC
  5
8E77
  8
0
 10
4155.0865475258488004
 20
143.9246783896668944
 30
0.0
 40
0.0788
 50
269.9832711377287069
 51
356.9228278187248975
  0
LINE
  5
8E78
  8
0
 10
4156.7298668976891349
 20
151.096444636015292
 30
0.0
 11
4156.7298668976891349
 21
151.5786127904748071
 31
0.0
  0
LINE
  5
8E79
  8
0
 10
4154.878618845850724
 20
143.5623629935724921
 30
0.0
 11
4154.8532795309183712
 21
143.5475033950673946
 31
0.0
  0
ARC
  5
8E7A
  8
0
 10
4154.8561123428908104
 20
143.5426727453883018
 30
0.0
 40
0.0056
 50
120.3884099774298022
 51
239.9376004851040989
  0
LINE
  5
8E7B
  8
0
 10
4154.8533070628100177
 20
143.5378260554182077
 30
0.0
 11
4154.8605603785890708
 21
143.5336278124102876
 31
0.0
  0
LINE
  5
8E7C
  8
0
 10
4154.8184810505508722
 20
143.4915484843724869
 30
0.0
 11
4154.8605603785890708
 21
143.5336278124102876
 31
0.0
  0
LINE
  5
8E7D
  8
0
 10
4154.0536188458518154
 20
143.7882617986782918
 30
0.0
 11
4154.259382550852024
 21
143.7962912474631025
 31
0.0
  0
LINE
  5
8E7E
  8
0
 10
4154.6728551538162719
 20
143.812426051652011
 30
0.0
 11
4154.878618845850724
 21
143.8204554999308868
 31
0.0
  0
LINE
  5
8E7F
  8
0
 10
4154.0791416843012485
 20
143.7735021245441942
 30
0.0
 11
4154.3233028106533311
 21
143.7836583445233885
 31
0.0
  0
LINE
  5
8E80
  8
0
 10
4154.5971898551406412
 20
143.7950510552093135
 30
0.0
 11
4154.85309600740311
 21
143.8056958257967892
 31
0.0
  0
LINE
  5
8E81
  8
0
 10
4154.8530960100069933
 20
143.7960002992724924
 30
0.0
 11
4154.6149329488489457
 21
143.7860935771832942
 31
0.0
  0
LINE
  5
8E82
  8
0
 10
4154.3242627366707893
 20
143.7740027474901012
 30
0.0
 11
4154.0791416816973651
 21
143.7638065980198974
 31
0.0
  0
LINE
  5
8E83
  8
0
 10
4154.0536188458518154
 20
143.749046943692889
 30
0.0
 11
4154.259382550852024
 21
143.7570763924775861
 31
0.0
  0
LINE
  5
8E84
  8
0
 10
4154.6728551538162719
 20
143.7732111966666082
 30
0.0
 11
4154.878618845850724
 21
143.7812406449455125
 31
0.0
  0
LINE
  5
8E85
  8
0
 10
4154.878618845850724
 20
143.7558182621831975
 30
0.0
 11
4154.6728551538162719
 21
143.7477888139044069
 31
0.0
  0
LINE
  5
8E86
  8
0
 10
4154.259382550852024
 20
143.7316540097154132
 30
0.0
 11
4154.0536188458518154
 21
143.7236245609306877
 31
0.0
  0
LINE
  5
8E87
  8
0
 10
4154.0790742145891272
 20
143.7089068127739893
 30
0.0
 11
4154.326748153556764
 21
143.719207357149287
 31
0.0
  0
LINE
  5
8E88
  8
0
 10
4154.6018838369736841
 20
143.7306500116656878
 30
0.0
 11
4154.8531634771152312
 21
143.741100514026499
 31
0.0
  0
LINE
  5
8E89
  8
0
 10
4154.8531634604469218
 20
143.7314045185368059
 30
0.0
 11
4154.613833389870706
 21
143.7214509879846105
 31
0.0
  0
LINE
  5
8E8A
  8
0
 10
4154.3186517091289716
 20
143.7091746372917953
 30
0.0
 11
4154.0790742312556176
 21
143.6992108172842109
 31
0.0
  0
LINE
  5
8E8B
  8
0
 10
4154.0536188458518154
 20
143.684492942730401
 30
0.0
 11
4154.259382550852024
 21
143.692522391515098
 31
0.0
  0
LINE
  5
8E8C
  8
0
 10
4154.6728551538162719
 20
143.7086571957040064
 30
0.0
 11
4154.878618845850724
 21
143.7166866439829107
 31
0.0
  0
LINE
  5
8E8D
  8
0
 10
4154.878618845850724
 20
143.6911856998929125
 30
0.0
 11
4154.6728551538162719
 21
143.6831562516140082
 31
0.0
  0
LINE
  5
8E8E
  8
0
 10
4154.259382550852024
 20
143.667021447424986
 30
0.0
 11
4154.0536188458518154
 21
143.658991998640289
 31
0.0
  0
LINE
  5
8E8F
  8
0
 10
4154.078925290224106
 20
143.6443663814162903
 30
0.0
 11
4154.3289817220365876
 21
143.6547620116444932
 31
0.0
  0
LINE
  5
8E90
  8
0
 10
4154.603351703242879
 20
143.6661684323856889
 30
0.0
 11
4154.8533124014802524
 21
143.6765600826689138
 31
0.0
  0
LINE
  5
8E91
  8
0
 10
4154.8533123521656307
 20
143.6668631056195125
 30
0.0
 11
4154.6128293697311165
 21
143.656865472437886
 31
0.0
  0
LINE
  5
8E92
  8
0
 10
4154.3261742837448764
 20
143.6449483198381927
 30
0.0
 11
4154.0789253395378182
 21
143.634669404366889
 31
0.0
  0
LINE
  5
8E93
  8
0
 10
4154.0536188458518154
 20
143.6200434152738978
 30
0.0
 11
4154.259382550852024
 21
143.6280728640585949
 31
0.0
  0
LINE
  5
8E94
  8
0
 10
4154.6728551538162719
 20
143.6442076682475886
 30
0.0
 11
4154.878618845850724
 21
143.6522371165264929
 31
0.0
  0
LINE
  5
8E95
  8
0
 10
4154.878618845850724
 20
143.626618964860711
 30
0.0
 11
4154.6728551538162719
 21
143.618589516581892
 31
0.0
  0
LINE
  5
8E96
  8
0
 10
4154.259382550852024
 20
143.6024547123928983
 30
0.0
 11
4154.0536188458518154
 21
143.5944252636082012
 31
0.0
  0
LINE
  5
8E97
  8
0
 10
4154.078931795200333
 20
143.5797952556468999
 30
0.0
 11
4154.3258421411110248
 21
143.5900602656712124
 31
0.0
  0
LINE
  5
8E98
  8
0
 10
4154.6085216177889379
 20
143.6018123356423928
 30
0.0
 11
4154.8533058965049349
 21
143.611988956899495
 31
0.0
  0
LINE
  5
8E99
  8
0
 10
4154.8533083813799749
 20
143.6022906207925018
 30
0.0
 11
4154.6111451655542623
 21
143.5922230317833055
 31
0.0
  0
LINE
  5
8E9A
  8
0
 10
4154.3254968186338374
 20
143.5803476107035976
 30
0.0
 11
4154.0789293103216551
 21
143.5700969195397931
 31
0.0
  0
LINE
  5
8E9B
  8
0
 10
4154.0536188458518154
 20
143.5554856450793864
 30
0.0
 11
4154.259382550852024
 21
143.5635150938641971
 31
0.0
  0
LINE
  5
8E9C
  8
0
 10
4154.6728551538162719
 20
143.5796498980533045
 30
0.0
 11
4154.878618845850724
 21
143.5876793463320098
 31
0.0
  0
LINE
  5
8E9D
  8
0
 10
4154.878618845850724
 20
143.5623629935724921
 30
0.0
 11
4154.6728551538162719
 21
143.5546807540256111
 31
0.0
  0
LINE
  5
8E9E
  8
0
 10
4154.259382550852024
 20
143.539243649691997
 30
0.0
 11
4154.0730193915769632
 21
143.5322857339484131
 31
0.0
  0
LINE
  5
8E9F
  8
0
 10
4154.8532795309183712
 20
143.5475033950673946
 30
0.0
 11
4154.6214799676072289
 21
143.5376751250464054
 31
0.0
  0
LINE
  5
8EA0
  8
0
 10
4154.3152410679113018
 20
143.5246906372667866
 30
0.0
 11
4154.0901579806068185
 21
143.5151471449169094
 31
0.0
  0
LINE
  5
8EA1
  8
0
 10
4154.8533070628100177
 20
143.5378260554182077
 30
0.0
 11
4154.6728551538162719
 21
143.5304777371931948
 31
0.0
  0
LINE
  5
8EA2
  8
0
 10
4154.259382550852024
 20
143.5136404076197891
 30
0.0
 11
4154.0982272446217394
 21
143.5070778809030969
 31
0.0
  0
LINE
  5
8EA3
  8
0
 10
4154.0536188458518154
 20
143.8137033507615001
 30
0.0
 11
4154.259382550852024
 21
143.8193260659469956
 31
0.0
  0
LINE
  5
8EA4
  8
0
 10
4154.6728551538162719
 20
143.8306246508140021
 30
0.0
 11
4154.878618845850724
 21
143.8362473656453915
 31
0.0
  0
LINE
  5
8EA5
  8
0
 10
4154.079033218387849
 20
143.8283956259498098
 30
0.0
 11
4154.259382550852024
 21
143.832488251267506
 31
0.0
  0
LINE
  5
8EA6
  8
0
 10
4154.6728551538162719
 20
143.8418710885638063
 30
0.0
 11
4154.849444512197806
 21
143.8458783896668933
 31
0.0
  0
LINE
  5
8EA7
  8
0
 10
4154.0790333004679269
 20
143.8380918762105125
 30
0.0
 11
4154.259382550852024
 21
143.8457207647905136
 31
0.0
  0
ARC
  5
8EA8
  8
0
 10
4154.5638272264350235
 20
143.7979589391514992
 30
0.0
 40
0.2665923900821872
 50
278.8936015505749992
 51
294.1402256340495001
  0
ARC
  5
8EA9
  8
0
 10
4154.6055062250088667
 20
143.5316078215118125
 30
0.0
 40
0.003
 50
98.8936015505750419
 51
269.6403700761787263
  0
ARC
  5
8EAA
  8
0
 10
4154.611704643183657
 20
144.5191189088253907
 30
0.0
 40
0.9905305402645525
 50
269.6403700761266009
 51
273.539411860541918
  0
ARC
  5
8EAB
  8
0
 10
4154.7812366395573918
 20
143.0712566196231137
 30
0.0
 40
0.5579604345693389
 50
101.2006702480023961
 51
108.8094385799299033
  0
ARC
  5
8EAC
  8
0
 10
4154.6023053880735461
 20
143.5965800354159114
 30
0.0
 40
0.003
 50
108.8094385799299033
 51
261.872403132773627
  0
ARC
  5
8EAD
  8
0
 10
4154.5041876058930939
 20
142.9095409648564896
 30
0.0
 40
0.6910099305161632
 50
75.8720292018522002
 51
81.872403132773627
  0
ARC
  5
8EAE
  8
0
 10
4154.9397043258868507
 20
142.4407015386173043
 30
0.0
 40
1.2707880210654261
 50
102.121599999904106
 51
105.5527779910817969
  0
ARC
  5
8EAF
  8
0
 10
4154.5997775084269961
 20
143.6620680786566027
 30
0.0
 40
0.003
 50
105.5527779910812995
 51
261.0521858776971271
  0
ARC
  5
8EB0
  8
0
 10
4154.4656853343067269
 20
142.8104237579364053
 30
0.0
 40
0.8591361610411796
 50
76.0463224447167647
 51
81.0521858776970561
  0
ARC
  5
8EB1
  8
0
 10
4154.7131827144012277
 20
143.4252789219758881
 30
0.0
 40
0.3250214493452492
 50
97.127434484167452
 51
110.3370193083160018
  0
ARC
  5
8EB2
  8
0
 10
4154.6012668783687332
 20
143.7272270292461087
 30
0.0
 40
0.003
 50
110.3370193083160018
 51
257.8558548686851282
  0
ARC
  5
8EB3
  8
0
 10
4148.4977820126769075
 20
115.3636538963662019
 30
0.0
 40
29.00983868169358
 50
77.7099129902663606
 51
77.8558548686317238
  0
ARC
  5
8EB4
  8
0
 10
4154.844673338569919
 20
142.8907430871697102
 30
0.0
 40
0.9375611850057723
 50
100.5597483671843975
 51
105.3290985602703955
  0
ARC
  5
8EB5
  8
0
 10
4154.4820137495489689
 20
143.0518005735382872
 30
0.0
 40
0.7462263254166281
 50
75.182444111830236
 51
81.1245206171180087
  0
ARC
  5
8EB6
  8
0
 10
4154.5976100507377851
 20
143.7920556524460096
 30
0.0
 40
0.003
 50
105.3290985602703955
 51
261.1245206171179802
  0
ARC
  5
8EB7
  8
0
 10
4154.6919908930103702
 20
144.0469165351312881
 30
0.0
 40
0.2171367212980304
 50
247.7983535529095036
 51
264.9441013007054835
  0
ARC
  5
8EB8
  8
0
 10
4154.7364313383368426
 20
144.6937855622394977
 30
0.0
 40
0.854283443417125
 50
262.9952843383679806
 51
265.7320747610493754
  0
ARC
  5
8EB9
  8
0
 10
4154.2285030164748605
 20
144.0467496423515001
 30
0.0
 40
0.2295104109796631
 50
277.7323244165440883
 51
298.9294094646218127
  0
ARC
  5
8EBA
  8
0
 10
4154.2252519426447179
 20
144.0865365948972112
 30
0.0
 40
0.2563307615516446
 50
277.6516946645614894
 51
290.1393309626072892
  0
ARC
  5
8EBB
  8
0
 10
4154.5204292310236269
 20
144.9491123181082912
 30
0.0
 40
1.182007525421189
 50
257.2410217081479118
 51
260.7884827379971853
  0
ARC
  5
8EBC
  8
0
 10
4154.1648126432619392
 20
144.2523799102224018
 30
0.0
 40
0.5042509713543823
 50
280.8095661615182053
 51
289.3303270062531283
  0
ARC
  5
8EBD
  8
0
 10
4154.3307336851767104
 20
143.779386523235388
 30
0.0
 40
0.003
 50
289.3303270062531283
 51
80.7884827380501775
  0
ARC
  5
8EBE
  8
0
 10
4154.3461435576991789
 20
144.012708349835691
 30
0.0
 40
0.2941411470872295
 50
252.8446299888221915
 51
266.7850205940596879
  0
ARC
  5
8EBF
  8
0
 10
4154.3294791288026317
 20
143.7160348624765902
 30
0.0
 40
0.003
 50
289.3509535766253862
 51
86.7850205940597164
  0
ARC
  5
8EC0
  8
0
 10
4154.1058202360727591
 20
144.3528882360629098
 30
0.0
 40
0.677985570027739
 50
283.0909763159926911
 51
289.3509535766253862
  0
ARC
  5
8EC1
  8
0
 10
4154.3895635922053771
 20
144.2023905706051039
 30
0.0
 40
0.55096932907596
 50
256.3331267536991049
 51
264.39658252126452
  0
ARC
  5
8EC2
  8
0
 10
4154.1350045462131675
 20
144.2609672224957933
 30
0.0
 40
0.6450001216893009
 50
281.1182242318487283
 51
288.1952250319898212
  0
ARC
  5
8EC3
  8
0
 10
4154.3354727742944306
 20
143.6510683408932039
 30
0.0
 40
0.003
 50
288.1952250319898212
 51
84.3965825212644631
  0
ARC
  5
8EC4
  8
0
 10
4154.363610312640958
 20
143.9769518338061971
 30
0.0
 40
0.3887306526049954
 50
254.4473747544749074
 51
265.6386793976005833
  0
ARC
  5
8EC5
  8
0
 10
4154.1712399695861677
 20
144.0479760519332046
 30
0.0
 40
0.4924139869314498
 50
280.3115745444299023
 51
289.4020507163428988
  0
ARC
  5
8EC6
  8
0
 10
4154.3338207957549457
 20
143.5863555091000023
 30
0.0
 40
0.003
 50
289.4020507163428988
 51
85.6386793976004697
  0
ARC
  5
8EC7
  8
0
 10
4154.3283357071104547
 20
143.9308848997040116
 30
0.0
 40
0.3976649424691958
 50
260.0147230841499777
 51
269.6726206735172013
  0
ARC
  5
8EC8
  8
0
 10
4154.0531837547096075
 20
144.702674495006903
 30
0.0
 40
1.206780843608072
 50
279.8382211803175892
 51
283.1011789277013122
  0
ARC
  5
8EC9
  8
0
 10
4154.3260463813257957
 20
143.5302264976814115
 30
0.0
 40
0.003
 50
283.1011789277013122
 51
89.672620673517244
  0
ARC
  5
8ECA
  8
0
 10
4154.4216420219690917
 20
149.7064132657851871
 30
0.0
 40
0.0262823379935567
 50
134.0351500246000001
 51
222.539078576699012
  0
ARC
  5
8ECB
  8
0
 10
4154.4682018348703423
 20
149.7635536480088092
 30
0.0
 40
0.0997876530691234
 50
228.6502625869379131
 51
300.861517877148799
  0
ARC
  5
8ECC
  8
0
 10
4154.5060265600459388
 20
149.7030007155227906
 30
0.0
 40
0.0284405328727562
 50
298.024666328385706
 51
35.9929047524486734
  0
ARC
  5
8ECD
  8
0
 10
4154.4629431924859091
 20
149.6492195784474006
 30
0.0
 40
0.0966334993067387
 50
46.8454261306898587
 51
128.0575747109222959
  0
ARC
  5
8ECE
  8
0
 10
4154.4999138174189284
 20
149.7174798049425135
 30
0.0
 40
0.0476957477653339
 50
298.7569925817794001
 51
344.828417510840211
  0
ARC
  5
8ECF
  8
0
 10
4154.4682524552417817
 20
149.7751741490434085
 30
0.0
 40
0.1135066829985698
 50
231.2787014660626994
 51
298.7569925817794001
  0
ARC
  5
8ED0
  8
0
 10
4154.4272239054043894
 20
149.718041838989194
 30
0.0
 40
0.0434277584956983
 50
188.6608072629298931
 51
226.3545028203324136
  0
ARC
  5
8ED1
  8
0
 10
4154.407950499726212
 20
149.7356869215626034
 30
0.0
 40
0.0338327062025688
 50
149.7241614233244036
 51
225.6292722100479011
  0
ARC
  5
8ED2
  8
0
 10
4154.4638453276538712
 20
149.6674233723180976
 30
0.0
 40
0.1205149823503475
 50
41.0855523711819686
 51
134.9301651770834951
  0
ARC
  5
8ED3
  8
0
 10
4154.5220807936711935
 20
149.7317343651224917
 30
0.0
 40
0.0358395659310882
 50
311.7532012491965929
 51
24.5478748357403411
  0
LINE
  5
8ED4
  8
0
 10
4154.5539848336857176
 20
149.7474154370698898
 30
0.0
 11
4154.5459471974409098
 21
149.7049973260706963
 31
0.0
  0
LINE
  5
8ED5
  8
0
 10
4154.3765646395186195
 20
149.748319410947488
 30
0.0
 11
4154.3842913482421864
 21
149.7115022867706955
 31
0.0
  0
ARC
  5
8ED6
  8
0
 10
4154.4645065996010089
 20
149.690207968161701
 30
0.0
 40
0.0237188866283004
 50
49.8931967845518969
 51
126.3616946939957018
  0
ARC
  5
8ED7
  8
0
 10
4154.4765655768705983
 20
149.7045250133809873
 30
0.0
 40
0.005
 50
314.2049268196739717
 51
49.8931967845518969
  0
ARC
  5
8ED8
  8
0
 10
4154.4653516258658783
 20
149.7160545884781016
 30
0.0
 40
0.0210836500539991
 50
222.0499646588816063
 51
314.2049268196739717
  0
ARC
  5
8ED9
  8
0
 10
4154.4534085341310856
 20
149.7052821069233062
 30
0.0
 40
0.005
 50
126.3616946939957018
 51
222.0499646588816063
  0
ARC
  5
8EDA
  8
0
 10
4154.4216420219690917
 20
150.2728489748571974
 30
0.0
 40
0.0262823379935567
 50
134.0351500246000001
 51
222.539078576699012
  0
ARC
  5
8EDB
  8
0
 10
4154.4682018348703423
 20
150.329989357080791
 30
0.0
 40
0.0997876530691234
 50
228.6502625869379131
 51
300.861517877148799
  0
ARC
  5
8EDC
  8
0
 10
4154.5060265600459388
 20
150.2694364245948009
 30
0.0
 40
0.0284405328727562
 50
298.024666328385706
 51
35.9929047524486734
  0
ARC
  5
8EDD
  8
0
 10
4154.4629431924859091
 20
150.2156552875194109
 30
0.0
 40
0.0966334993067387
 50
46.8454261306898587
 51
128.0575747109222959
  0
ARC
  5
8EDE
  8
0
 10
4154.4999138174189284
 20
150.2839155140144953
 30
0.0
 40
0.0476957477653339
 50
298.7569925817794001
 51
344.828417510840211
  0
ARC
  5
8EDF
  8
0
 10
4154.4682524552417817
 20
150.3416098581153904
 30
0.0
 40
0.1135066829985698
 50
231.2787014660626994
 51
298.7569925817794001
  0
ARC
  5
8EE0
  8
0
 10
4154.4272239054043894
 20
150.2844775480612043
 30
0.0
 40
0.0434277584956983
 50
188.6608072629298931
 51
226.3545028203324136
  0
ARC
  5
8EE1
  8
0
 10
4154.407950499726212
 20
150.3021226306346136
 30
0.0
 40
0.0338327062025688
 50
149.7241614233244036
 51
225.6292722100479011
  0
ARC
  5
8EE2
  8
0
 10
4154.4638453276538712
 20
150.2338590813901078
 30
0.0
 40
0.1205149823503475
 50
41.0855523711819686
 51
134.9301651770834951
  0
ARC
  5
8EE3
  8
0
 10
4154.5220807936711935
 20
150.2981700741945019
 30
0.0
 40
0.0358395659310882
 50
311.7532012491965929
 51
24.5478748357403411
  0
LINE
  5
8EE4
  8
0
 10
4154.5539848336857176
 20
150.3138511461419
 30
0.0
 11
4154.5459471974409098
 21
150.2714330351427066
 31
0.0
  0
LINE
  5
8EE5
  8
0
 10
4154.3765646395186195
 20
150.3147551200194982
 30
0.0
 11
4154.3842913482421864
 21
150.2779379958427057
 31
0.0
  0
ARC
  5
8EE6
  8
0
 10
4154.4645065996010089
 20
150.2566436772337113
 30
0.0
 40
0.0237188866283004
 50
49.8931967845518969
 51
126.3616946939957018
  0
ARC
  5
8EE7
  8
0
 10
4154.4765655768705983
 20
150.2709607224529975
 30
0.0
 40
0.005
 50
314.2049268196739717
 51
49.8931967845518969
  0
ARC
  5
8EE8
  8
0
 10
4154.4653516258658783
 20
150.2824902975501971
 30
0.0
 40
0.0210836500539991
 50
222.0499646588816063
 51
314.2049268196739717
  0
ARC
  5
8EE9
  8
0
 10
4154.4534085341310856
 20
150.2717178159954017
 30
0.0
 40
0.005
 50
126.3616946939957018
 51
222.0499646588816063
  0
ARC
  5
8EEA
  8
0
 10
4154.4216420219690917
 20
151.1509252848819926
 30
0.0
 40
0.0262823379935567
 50
134.0351500246000001
 51
222.539078576699012
  0
ARC
  5
8EEB
  8
0
 10
4154.4682018348703423
 20
151.208065667105501
 30
0.0
 40
0.0997876530691234
 50
228.6502625869379131
 51
300.861517877148799
  0
ARC
  5
8EEC
  8
0
 10
4154.5060265600459388
 20
151.1475127346195109
 30
0.0
 40
0.0284405328727562
 50
298.024666328385706
 51
35.9929047524486734
  0
ARC
  5
8EED
  8
0
 10
4154.4629431924859091
 20
151.0937315975440924
 30
0.0
 40
0.0966334993067387
 50
46.8454261306898587
 51
128.0575747109222959
  0
ARC
  5
8EEE
  8
0
 10
4154.4999138174189284
 20
151.1619918240392053
 30
0.0
 40
0.0476957477653339
 50
298.7569925817794001
 51
344.828417510840211
  0
ARC
  5
8EEF
  8
0
 10
4154.4682524552417817
 20
151.2196861681401003
 30
0.0
 40
0.1135066829985698
 50
231.2787014660626994
 51
298.7569925817794001
  0
ARC
  5
8EF0
  8
0
 10
4154.4272239054043894
 20
151.1625538580858858
 30
0.0
 40
0.0434277584956983
 50
188.6608072629298931
 51
226.3545028203324136
  0
ARC
  5
8EF1
  8
0
 10
4154.407950499726212
 20
151.1801989406594089
 30
0.0
 40
0.0338327062025688
 50
149.7241614233244036
 51
225.6292722100479011
  0
ARC
  5
8EF2
  8
0
 10
4154.4638453276538712
 20
151.1119353914147894
 30
0.0
 40
0.1205149823503475
 50
41.0855523711819686
 51
134.9301651770834951
  0
ARC
  5
8EF3
  8
0
 10
4154.5220807936711935
 20
151.1762463842192972
 30
0.0
 40
0.0358395659310882
 50
311.7532012491965929
 51
24.5478748357403411
  0
LINE
  5
8EF4
  8
0
 10
4154.5539848336857176
 20
151.1919274561666953
 30
0.0
 11
4154.5459471974409098
 21
151.1495093451673881
 31
0.0
  0
LINE
  5
8EF5
  8
0
 10
4154.3765646395186195
 20
151.1928314300442082
 30
0.0
 11
4154.3842913482421864
 21
151.156014305867501
 31
0.0
  0
ARC
  5
8EF6
  8
0
 10
4154.4645065996010089
 20
151.1347199872585065
 30
0.0
 40
0.0237188866283004
 50
49.8931967845518969
 51
126.3616946939957018
  0
ARC
  5
8EF7
  8
0
 10
4154.4765655768705983
 20
151.1490370324779065
 30
0.0
 40
0.005
 50
314.2049268196739717
 51
49.8931967845518969
  0
ARC
  5
8EF8
  8
0
 10
4154.4653516258658783
 20
151.160566607574907
 30
0.0
 40
0.0210836500539991
 50
222.0499646588816063
 51
314.2049268196739717
  0
ARC
  5
8EF9
  8
0
 10
4154.4534085341310856
 20
151.1497941260201117
 30
0.0
 40
0.005
 50
126.3616946939957018
 51
222.0499646588816063
  0
ARC
  5
8EFA
  8
0
 10
4154.4216420219690917
 20
151.8469643747494047
 30
0.0
 40
0.0262823379935567
 50
134.0351500246000001
 51
222.539078576699012
  0
ARC
  5
8EFB
  8
0
 10
4154.4682018348703423
 20
151.9041047569729983
 30
0.0
 40
0.0997876530691234
 50
228.6502625869379131
 51
300.861517877148799
  0
ARC
  5
8EFC
  8
0
 10
4154.5060265600459388
 20
151.8435518244870082
 30
0.0
 40
0.0284405328727562
 50
298.024666328385706
 51
35.9929047524486734
  0
ARC
  5
8EFD
  8
0
 10
4154.4629431924859091
 20
151.7897706874115897
 30
0.0
 40
0.0966334993067387
 50
46.8454261306898587
 51
128.0575747109222959
  0
ARC
  5
8EFE
  8
0
 10
4154.4999138174189284
 20
151.8580309139067026
 30
0.0
 40
0.0476957477653339
 50
298.7569925817794001
 51
344.828417510840211
  0
ARC
  5
8EFF
  8
0
 10
4154.4682524552417817
 20
151.9157252580075976
 30
0.0
 40
0.1135066829985698
 50
231.2787014660626994
 51
298.7569925817794001
  0
ARC
  5
8F00
  8
0
 10
4154.4272239054043894
 20
151.8585929479532979
 30
0.0
 40
0.0434277584956983
 50
188.6608072629298931
 51
226.3545028203324136
  0
ARC
  5
8F01
  8
0
 10
4154.407950499726212
 20
151.8762380305267925
 30
0.0
 40
0.0338327062025688
 50
149.7241614233244036
 51
225.6292722100479011
  0
ARC
  5
8F02
  8
0
 10
4154.4638453276538712
 20
151.8079744812822867
 30
0.0
 40
0.1205149823503475
 50
41.0855523711819686
 51
134.9301651770834951
  0
ARC
  5
8F03
  8
0
 10
4154.5220807936711935
 20
151.8722854740867092
 30
0.0
 40
0.0358395659310882
 50
311.7532012491965929
 51
24.5478748357403411
  0
LINE
  5
8F04
  8
0
 10
4154.5539848336857176
 20
151.8879665460341073
 30
0.0
 11
4154.5459471974409098
 21
151.8455484350349138
 31
0.0
  0
LINE
  5
8F05
  8
0
 10
4154.3765646395186195
 20
151.8888705199117055
 30
0.0
 11
4154.3842913482421864
 21
151.852053395734913
 31
0.0
  0
ARC
  5
8F06
  8
0
 10
4154.4645065996010089
 20
151.8307590771258901
 30
0.0
 40
0.0237188866283004
 50
49.8931967845518969
 51
126.3616946939957018
  0
ARC
  5
8F07
  8
0
 10
4154.4765655768705983
 20
151.8450761223452048
 30
0.0
 40
0.005
 50
314.2049268196739717
 51
49.8931967845518969
  0
ARC
  5
8F08
  8
0
 10
4154.4653516258658783
 20
151.8566056974422906
 30
0.0
 40
0.0210836500539991
 50
222.0499646588816063
 51
314.2049268196739717
  0
ARC
  5
8F09
  8
0
 10
4154.4534085341310856
 20
151.8458332158874953
 30
0.0
 40
0.005
 50
126.3616946939957018
 51
222.0499646588816063
  0
ARC
  5
8F0A
  8
0
 10
4154.4632154363707741
 20
150.7074834289198009
 30
0.0
 40
0.0679228858656763
 50
87.5514561736677734
 51
128.6839006178651914
  0
ARC
  5
8F0B
  8
0
 10
4154.43925598133319
 20
150.7344381843641941
 30
0.0
 40
0.031960531232513
 50
125.3555865084179999
 51
226.1744550311954924
  0
ARC
  5
8F0C
  8
0
 10
4154.4643103324096955
 20
150.7650455298540919
 30
0.0
 40
0.0714596077969561
 50
228.6760498364297121
 51
271.4493500911070782
  0
ARC
  5
8F0D
  8
0
 10
4154.4690222682947933
 20
150.7074834289198009
 30
0.0
 40
0.0679228858656763
 50
51.3160993821347517
 51
92.4485438263322408
  0
ARC
  5
8F0E
  8
0
 10
4154.4929817233332869
 20
150.7344381843641941
 30
0.0
 40
0.031960531232513
 50
313.8255449688044791
 51
54.6444134915820001
  0
ARC
  5
8F0F
  8
0
 10
4154.4679273722549624
 20
150.7650455298540919
 30
0.0
 40
0.0714596077969561
 50
268.5506499088929218
 51
311.3239501635703164
  0
ENDSEC
  0
EOF
