  0
SECTION
  2
HEADER
  9
$ACADVER
  1
AC1009
  9
$INSBASE
 10
128.4617714273456102
 20
-90.4227187196139255
 30
0.0
  9
$EXTMIN
 10
127.3200438833456047
 20
-91.5644462636139309
 30
0.0
  9
$EXTMAX
 10
129.6034989713456014
 20
-89.2809911756139343
 30
0.0
  9
$LIMMIN
 10
0.0
 20
0.0
  9
$LIMMAX
 10
11.6929133858000007
 20
8.2677165353999982
  9
$ORTHOMODE
 70
     1
  9
$REGENMODE
 70
     1
  9
$FILLMODE
 70
     1
  9
$QTEXTMODE
 70
     0
  9
$MIRRTEXT
 70
     0
  9
$DRAGMODE
 70
     2
  9
$LTSCALE
 40
0.6431102362
  9
$OSMODE
 70
     7
  9
$ATTMODE
 70
     1
  9
$TEXTSIZE
 40
0.2
  9
$TRACEWID
 40
0.05
  9
$TEXTSTYLE
  7
STANDARD
  9
$CLAYER
  8
0
  9
$CELTYPE
  6
BYLAYER
  9
$CECOLOR
 62
   256
  9
$DIMSCALE
 40
1.0
  9
$DIMASZ
 40
0.1875
  9
$DIMEXO
 40
0.0625
  9
$DIMDLI
 40
0.4443307087
  9
$DIMRND
 40
0.0
  9
$DIMDLE
 40
0.0
  9
$DIMEXE
 40
0.125
  9
$DIMTP
 40
0.01
  9
$DIMTM
 40
0.01
  9
$DIMTXT
 40
1.0
  9
$DIMCEN
 40
0.1052362205
  9
$DIMTSZ
 40
0.0
  9
$DIMTOL
 70
     1
  9
$DIMLIM
 70
     0
  9
$DIMTIH
 70
     1
  9
$DIMTOH
 70
     1
  9
$DIMSE1
 70
     0
  9
$DIMSE2
 70
     0
  9
$DIMTAD
 70
     0
  9
$DIMZIN
 70
     0
  9
$DIMBLK
  1

  9
$DIMASO
 70
     1
  9
$DIMSHO
 70
     1
  9
$DIMPOST
  1
\X
  9
$DIMAPOST
  1

  9
$DIMALT
 70
     1
  9
$DIMALTD
 70
     2
  9
$DIMALTF
 40
25.3999999999999986
  9
$DIMLFAC
 40
1.0
  9
$DIMTOFL
 70
     0
  9
$DIMTVP
 40
0.0
  9
$DIMTIX
 70
     0
  9
$DIMSOXD
 70
     0
  9
$DIMSAH
 70
     0
  9
$DIMBLK1
  1

  9
$DIMBLK2
  1

  9
$DIMSTYLE
  2
STANDARD
  9
$DIMCLRD
 70
     0
  9
$DIMCLRE
 70
     0
  9
$DIMCLRT
 70
     0
  9
$DIMTFAC
 40
1.0
  9
$DIMGAP
 40
0.09
  9
$LUNITS
 70
     2
  9
$LUPREC
 70
     4
  9
$SKETCHINC
 40
0.1
  9
$FILLETRAD
 40
0.0
  9
$AUNITS
 70
     0
  9
$AUPREC
 70
     0
  9
$MENU
  1
.
  9
$ELEVATION
 40
0.0
  9
$PELEVATION
 40
0.0
  9
$THICKNESS
 40
0.0
  9
$LIMCHECK
 70
     0
  9
$BLIPMODE
 70
     0
  9
$CHAMFERA
 40
0.0
  9
$CHAMFERB
 40
0.0
  9
$SKPOLY
 70
     0
  9
$TDCREATE
 40
2458172.4620254631154239
  9
$TDUPDATE
 40
2459590.6297222222201526
  9
$TDINDWG
 40
0.1336633449
  9
$TDUSRTIMER
 40
0.1336633449
  9
$USRTIMER
 70
     1
  9
$ANGBASE
 50
0.0
  9
$ANGDIR
 70
     0
  9
$PDMODE
 70
     0
  9
$PDSIZE
 40
0.3125
  9
$PLINEWID
 40
0.0
  9
$COORDS
 70
     1
  9
$SPLFRAME
 70
     0
  9
$SPLINETYPE
 70
     6
  9
$SPLINESEGS
 70
     8
  9
$ATTDIA
 70
     1
  9
$ATTREQ
 70
     1
  9
$HANDLING
 70
     1
  9
$HANDSEED
  5
77EA
  9
$SURFTAB1
 70
     6
  9
$SURFTAB2
 70
     6
  9
$SURFTYPE
 70
     6
  9
$SURFU
 70
     6
  9
$SURFV
 70
     6
  9
$UCSNAME
  2

  9
$UCSORG
 10
0.0
 20
0.0
 30
0.0
  9
$UCSXDIR
 10
1.0
 20
0.0
 30
0.0
  9
$UCSYDIR
 10
0.0
 20
1.0
 30
0.0
  9
$PUCSNAME
  2

  9
$PUCSORG
 10
0.0
 20
0.0
 30
0.0
  9
$PUCSXDIR
 10
1.0
 20
0.0
 30
0.0
  9
$PUCSYDIR
 10
0.0
 20
1.0
 30
0.0
  9
$USERI1
 70
     0
  9
$USERI2
 70
     0
  9
$USERI3
 70
     0
  9
$USERI4
 70
     0
  9
$USERI5
 70
     0
  9
$USERR1
 40
0.0
  9
$USERR2
 40
0.0
  9
$USERR3
 40
0.0
  9
$USERR4
 40
0.0
  9
$USERR5
 40
0.0
  9
$WORLDVIEW
 70
     1
  9
$SHADEDGE
 70
     3
  9
$SHADEDIF
 70
    70
  9
$TILEMODE
 70
     1
  9
$MAXACTVP
 70
    64
  9
$PLIMCHECK
 70
     0
  9
$PEXTMIN
 10
1.0000000000000000E+20
 20
1.0000000000000000E+20
 30
1.0000000000000000E+20
  9
$PEXTMAX
 10
-1.0000000000000000E+20
 20
-1.0000000000000000E+20
 30
-1.0000000000000000E+20
  9
$PLIMMIN
 10
0.0
 20
0.0
  9
$PLIMMAX
 10
12.0
 20
9.0
  9
$UNITMODE
 70
     0
  9
$VISRETAIN
 70
     1
  9
$PLINEGEN
 70
     0
  9
$PSLTSCALE
 70
     1
  0
ENDSEC
  0
SECTION
  2
TABLES
  0
TABLE
  2
VPORT
 70
     1
  0
VPORT
  2
*ACTIVE
 70
     0
 10
0.0
 20
0.0
 11
1.0
 21
1.0
 12
3.853212910501568
 22
-95.7364816808452019
 13
0.0
 23
0.0
 14
1.0
 24
1.0
 15
0.0
 25
0.0
 16
0.0
 26
0.0
 36
30.6214257250603907
 17
124.6111586000725993
 27
5.3122741703778242
 37
0.0
 40
2.3092201496250531
 41
2.2831541218637992
 42
50.0
 43
0.0
 44
0.0
 50
0.0
 51
0.0
 71
     0
 72
   100
 73
     1
 74
     1
 75
     0
 76
     0
 77
     0
 78
     0
  0
ENDTAB
  0
TABLE
  2
LTYPE
 70
     2
  0
LTYPE
  2
CONTINUOUS
 70
     0
  3
Solid line
 72
    65
 73
     0
 40
0.0
  0
LTYPE
  2
PHANTOM2
 70
     0
  3
___ _ _ ___ _ _ ___ _ _ ___ _ _
 72
    65
 73
     6
 40
1.25
 49
0.625
 49
-0.125
 49
0.125
 49
-0.125
 49
0.125
 49
-0.125
  0
ENDTAB
  0
TABLE
  2
LAYER
 70
     2
  0
LAYER
  2
0
 70
     0
 62
   255
  6
CONTINUOUS
  0
LAYER
  2
DEFPOINTS
 70
     0
 62
     7
  6
CONTINUOUS
  0
ENDTAB
  0
TABLE
  2
STYLE
 70
     1
  0
STYLE
  2
STANDARD
 70
     0
 40
0.0
 41
0.8
 50
0.0
 71
     0
 42
0.2
  3
txt
  4

  0
ENDTAB
  0
TABLE
  2
VIEW
 70
     0
  0
ENDTAB
  0
TABLE
  2
UCS
 70
     0
  0
ENDTAB
  0
TABLE
  2
APPID
 70
     9
  0
APPID
  2
ACAD
 70
     0
  0
APPID
  2
ACAD_MLEADERVER
 70
     0
  0
APPID
  2
ACAD_EXEMPT_FROM_CAD_STANDARDS
 70
     0
  0
APPID
  2
ACAD_DSTYLE_DIMJAG
 70
     0
  0
APPID
  2
ACAD_DSTYLE_DIMTALN
 70
     0
  0
APPID
  2
ACAD_NAV_VCDISPLAY
 70
     0
  0
APPID
  2
ACAECLAYERSTANDARD
 70
     0
  0
APPID
  2
ACCMTRANSPARENCY
 70
     0
  0
APPID
  2
ACDBATTR
 70
     0
  0
ENDTAB
  0
TABLE
  2
DIMSTYLE
 70
     1
  0
DIMSTYLE
  2
STANDARD
 70
     0
  3

  4

  5

  6

  7

 40
1.0
 41
0.1875
 42
0.0625
 43
0.38
 44
0.125
 45
0.0
 46
0.0
 47
0.01
 48
0.01
140
0.15625
141
0.09
142
0.0
143
25.3999999999999986
144
1.0
145
0.0
146
1.0
147
0.09
 71
     1
 72
     0
 73
     1
 74
     1
 75
     0
 76
     0
 77
     0
 78
     4
170
     0
171
     2
172
     0
173
     0
174
     0
175
     0
176
     0
177
     0
178
     0
  0
ENDTAB
  0
ENDSEC
  0
SECTION
  2
BLOCKS
  0
BLOCK
  8
0
  2
$MODEL_SPACE
 70
     0
 10
0.0
 20
0.0
 30
0.0
  3
$MODEL_SPACE
  1

  0
ENDBLK
  5
21
  8
0
  0
BLOCK
 67
     1
  8
0
  2
$PAPER_SPACE
 70
     0
 10
0.0
 20
0.0
 30
0.0
  3
$PAPER_SPACE
  1

  0
ENDBLK
  5
1D
 67
     1
  8
0
  0
ENDSEC
  0
SECTION
  2
ENTITIES
  0
ATTDEF
  5
681B
  8
DEFPOINTS
 10
128.4621885786991129
 20
-90.4186988287080453
 30
0.0
 40
0.001
  1
K-16381BR
  3

  2
MODELNUMBER
 70
     0
1001
ACDBATTR
1070
     0
1070
     1
  0
ATTDEF
  5
681C
  8
DEFPOINTS
 10
128.4621885786991129
 20
-90.4203654953747105
 30
0.0
 40
0.001
  1

  3

  2
TRADENAME
 70
     0
1001
ACDBATTR
1070
     0
1070
     1
  0
ATTDEF
  5
681D
  8
DEFPOINTS
 10
128.4621885786991129
 20
-90.4220321620413756
 30
0.0
 40
0.001
  1
SUPPLY ELBOW
  3

  2
PRODUCT
 70
     0
1001
ACDBATTR
1070
     0
1070
     1
  0
CIRCLE
  5
748E
  8
0
 10
128.4617714273456102
 20
-90.4227187196139255
 30
0.0
 40
1.1417275440000021
  0
CIRCLE
  5
748F
  8
0
 10
128.4617714273456102
 20
-90.4227187196139255
 30
0.0
 40
0.8208708811999949
  0
LINE
  5
7490
  8
0
 10
128.094436137313096
 20
-91.1568072750935556
 30
0.0
 11
128.0483856005456005
 21
-91.1800415543139309
 31
0.0
  0
LINE
  5
7491
  8
0
 10
128.0483856005456005
 20
-91.1800415543139309
 30
0.0
 11
128.0483856005456005
 21
-91.1884671146139141
 31
0.0
  0
LINE
  5
7492
  8
0
 10
128.0483856005456005
 20
-91.1884671146139141
 30
0.0
 11
128.0946686681456015
 21
-91.2118111788139316
 31
0.0
  0
LINE
  5
7493
  8
0
 10
128.0954975583456132
 20
-91.2113957284139047
 30
0.0
 11
128.0483856005456005
 21
-91.2351596645139153
 31
0.0
  0
LINE
  5
7494
  8
0
 10
128.0483856005456005
 20
-91.2351596645139153
 30
0.0
 11
128.0483856005456005
 21
-91.2435848614139218
 31
0.0
  0
LINE
  5
7495
  8
0
 10
128.0483856005456005
 20
-91.2435848614139218
 30
0.0
 11
128.094686635445612
 21
-91.2669216229139266
 31
0.0
  0
LINE
  5
7496
  8
0
 10
128.0955191996455937
 20
-91.2665048445139462
 30
0.0
 11
128.0483856005456005
 21
-91.2902925830139083
 31
0.0
  0
LINE
  5
7497
  8
0
 10
128.0483856005456005
 20
-91.2902925830139083
 30
0.0
 11
128.0483856005456005
 21
-91.2986900993139301
 31
0.0
  0
LINE
  5
7498
  8
0
 10
128.0483856005456005
 20
-91.2986900993139301
 30
0.0
 11
128.0946845615455914
 21
-91.322039944113925
 31
0.0
  0
LINE
  5
7499
  8
0
 10
128.0955162371456026
 20
-91.3216236139139141
 30
0.0
 11
128.0729525296455904
 21
-91.3331124204139257
 31
0.0
  0
LINE
  5
749A
  8
0
 10
128.0729525296455904
 20
-91.3331124204139257
 30
0.0
 11
128.1074407186455915
 21
-91.3676006094139268
 31
0.0
  0
LINE
  5
749B
  8
0
 10
128.1074407186455915
 20
-91.3676006094139268
 30
0.0
 11
128.8161021359456129
 21
-91.3676006094139268
 31
0.0
  0
LINE
  5
749C
  8
0
 10
128.8161021359456129
 20
-91.3676006094139268
 30
0.0
 11
128.8322126882455905
 21
-91.3514900571139492
 31
0.0
  0
ARC
  5
749D
  8
0
 10
128.7455386336463903
 20
-90.3575976327973365
 30
0.0
 40
0.9976645442505301
 50
270.571671176650284
 51
274.9839656394379972
  0
LINE
  5
749E
  8
0
 10
128.8689535888456135
 20
-91.3147491565139262
 30
0.0
 11
128.8385493799455901
 21
-91.3447675593139365
 31
0.0
  0
ARC
  5
749F
  8
0
 10
130.0870890875621058
 20
-93.8615645328902986
 30
0.0
 40
2.8094694174698538
 50
116.3852190964960016
 51
116.6251183594960992
  0
ARC
  5
74A0
  8
0
 10
128.7422219395566003
 20
-90.6610570893978149
 30
0.0
 40
0.6942822714447754
 50
271.0952396653158871
 51
277.0988516768705949
  0
LINE
  5
74A1
  8
0
 10
128.828858358915511
 20
-91.3495988334041868
 30
0.0
 11
128.8322126882455905
 21
-91.3514900571139492
 31
0.0
  0
LINE
  5
74A2
  8
0
 10
128.8689535888456135
 20
-91.3147491565139262
 30
0.0
 11
128.8288572635455864
 21
-91.2944807771139182
 31
0.0
  0
LINE
  5
74A3
  8
0
 10
128.8751572541455914
 20
-91.2711439165139211
 30
0.0
 11
128.8280205700455952
 21
-91.2948996264139083
 31
0.0
  0
LINE
  5
74A4
  8
0
 10
128.8751572541455914
 20
-91.2711439165139211
 30
0.0
 11
128.8751572541455914
 21
-91.2627187196139147
 31
0.0
  0
LINE
  5
74A5
  8
0
 10
128.8751572541455914
 20
-91.2627187196139147
 30
0.0
 11
128.8288552107397038
 21
-91.2393625061378231
 31
0.0
  0
LINE
  5
74A6
  8
0
 10
128.8751572541455914
 20
-91.2160258062139206
 30
0.0
 11
128.8280177271456068
 21
-91.2397817042139252
 31
0.0
  0
LINE
  5
74A7
  8
0
 10
128.8751572541455914
 20
-91.2160258062139206
 30
0.0
 11
128.8751572541455914
 21
-91.2076006094139871
 31
0.0
  0
LINE
  5
74A8
  8
0
 10
128.8751572541455914
 20
-91.2076006094139871
 30
0.0
 11
128.8288658065287962
 21
-91.1842600360324269
 31
0.0
  0
LINE
  5
74A9
  8
0
 10
128.8280348672456057
 20
-91.1846832125139315
 30
0.0
 11
128.8751572541455914
 21
-91.160907696013922
 31
0.0
  0
LINE
  5
74AA
  8
0
 10
128.8751572541455914
 20
-91.160907696013922
 30
0.0
 11
128.8751572541455914
 21
-91.1524824992139315
 31
0.0
  0
LINE
  5
74AB
  8
0
 10
128.8751572541455914
 20
-91.1524824992139315
 30
0.0
 11
128.8559989867993067
 21
-91.1427227848500792
 31
0.0
  0
ARC
  5
74AC
  8
0
 10
128.5711768027130972
 20
-99.3340537860350139
 30
0.0
 40
8.0265389548089701
 50
90.7808991476330789
 51
93.3974244434486565
  0
ARC
  5
74AD
  8
0
 10
128.2288452340335994
 20
-78.4663413208376284
 30
0.0
 40
12.8440314550351999
 50
271.0391723574963976
 51
272.6001979743094239
  0
ARC
  5
74AE
  8
0
 10
128.801296390794505
 20
-91.1605502991681362
 30
0.0
 40
0.1369814713311437
 50
274.2857922319205954
 51
281.2501790736516227
  0
ARC
  5
74AF
  8
0
 10
128.214665863087987
 20
-92.9585270831394581
 30
0.0
 40
1.676500961264342
 50
89.8844349208078057
 51
95.692121393985758
  0
ARC
  5
74B0
  8
0
 10
129.5376247539443
 20
-144.0538758442231995
 30
0.0
 40
52.7883419679081101
 50
91.1677980554472356
 51
91.4324013514888776
  0
ARC
  5
74B1
  8
0
 10
127.488700047807697
 20
-43.193122750446669
 30
0.0
 40
48.0932205811517832
 50
271.1593461035789119
 51
271.4677249352865829
  0
ARC
  5
74B2
  8
0
 10
128.6381510600263027
 20
-87.411845016454464
 30
0.0
 40
3.8595992142907272
 50
271.2233307026755256
 51
273.3193596924448912
  0
ARC
  5
74B3
  8
0
 10
128.8550251409498912
 20
-91.1834730716805666
 30
0.0
 40
0.0817629176222624
 50
274.631383842386299
 51
284.2542670307822164
  0
ARC
  5
74B4
  8
0
 10
128.6688418212083036
 20
-89.5539504079530673
 30
0.0
 40
1.693329303025098
 50
270.9288560622633781
 51
275.3938667812897734
  0
ARC
  5
74B5
  8
0
 10
127.5104988075198946
 20
-50.0630370142917585
 30
0.0
 40
41.2010876618199475
 50
271.3230118844535923
 51
271.6492365394013859
  0
ARC
  5
74B6
  8
0
 10
129.0890640781219076
 20
-119.5730640043347961
 30
0.0
 40
28.3268690336997793
 50
91.2688794122254308
 51
91.8217235641450031
  0
ARC
  5
74B7
  8
0
 10
128.2068662738273872
 20
-92.2699589031911245
 30
0.0
 40
1.0096129054269209
 50
91.0388904937237129
 51
96.3318541637593739
  0
ARC
  5
74B8
  8
0
 10
128.2363758607000932
 20
-93.4163467197491002
 30
0.0
 40
2.189273237364044
 50
90.9053319901901347
 51
94.9259859655090281
  0
ARC
  5
74B9
  8
0
 10
128.1273156814260972
 20
-86.5148255067243355
 30
0.0
 40
4.7131096248462354
 50
270.9053319901901205
 51
271.9641814093748735
  0
ARC
  5
74BA
  8
0
 10
128.1425332069582907
 20
-91.9483811348350457
 30
0.0
 40
0.7740862243888591
 50
90.7902758198369639
 51
96.9858482042142498
  0
ARC
  5
74BB
  8
0
 10
128.1615016018980953
 20
-91.6852108689227094
 30
0.0
 40
0.4783938283157396
 50
91.3749679219621953
 51
97.9290498395004931
  0
ARC
  5
74BC
  8
0
 10
128.3742851213337133
 20
-96.3220999618459359
 30
0.0
 40
5.1200589812408506
 50
91.817896962344804
 51
92.5104052198207967
  0
ARC
  5
74BD
  8
0
 10
128.8306991785659932
 20
-90.9175008647868736
 30
0.0
 40
0.2391503481123235
 50
269.6947787667559169
 51
280.7136151806868725
  0
ARC
  5
74BE
  8
0
 10
128.7922235152535109
 20
-90.5055992300647034
 30
0.0
 40
0.6605355331784566
 50
271.5747076886278819
 51
277.2128249396349133
  0
ARC
  5
74BF
  8
0
 10
128.7376600425986908
 20
-90.4420272065787287
 30
0.0
 40
0.7481347151961274
 50
271.2192325545627796
 51
276.9382867415640135
  0
ARC
  5
74C0
  8
0
 10
128.8628236653393913
 20
-91.171620835803111
 30
0.0
 40
0.0380350039033223
 50
271.9477839176178122
 51
288.9213191439270076
  0
ARC
  5
74C1
  8
0
 10
128.755154209094286
 20
-89.7299781167281481
 30
0.0
 40
1.483662324881815
 50
271.8029054162734042
 51
274.2116732581146721
  0
ARC
  5
74C2
  8
0
 10
128.4876188708103086
 20
-82.474788288184854
 30
0.0
 40
8.7437652584389962
 50
271.4895775356179115
 51
272.0594084710539846
  0
ARC
  5
74C3
  8
0
 10
128.1849652067037084
 20
-71.4047249936514845
 30
0.0
 40
19.8179606763282905
 50
271.4022538793066133
 51
271.532319451920614
  0
ARC
  5
74C4
  8
0
 10
128.378489346898391
 20
-97.6215205437965778
 30
0.0
 40
6.2958263534600363
 50
90.4090185484477757
 51
92.7816601035736142
  0
ARC
  5
74C5
  8
0
 10
128.1592920147637926
 20
-66.9166326694955131
 30
0.0
 40
24.4098439183939213
 50
270.4090185484478184
 51
271.4157104688461004
  0
ARC
  5
74C6
  8
0
 10
128.6766648135221089
 20
-87.8525465375995793
 30
0.0
 40
3.4675383123381351
 50
271.4162720597657881
 51
273.1789092884408774
  0
ENDSEC
  0
EOF
