  0
SECTION
  2
HEADER
  9
$ACADVER
  1
AC1009
  9
$INSBASE
 10
3476.3357376921399009
 20
185.717505007452786
 30
0.0
  9
$EXTMIN
 10
3475.0424306055401757
 20
182.9615994956027976
 30
0.0
  9
$EXTMAX
 10
3477.6290447787409903
 20
187.0108120940527954
 30
0.0
  9
$LIMMIN
 10
0.0
 20
0.0
  9
$LIMMAX
 10
11.6929133858000007
 20
8.2677165353999982
  9
$ORTHOMODE
 70
     0
  9
$REGENMODE
 70
     1
  9
$FILLMODE
 70
     1
  9
$QTEXTMODE
 70
     0
  9
$MIRRTEXT
 70
     0
  9
$DRAGMODE
 70
     2
  9
$LTSCALE
 40
0.6431102362
  9
$OSMODE
 70
     7
  9
$ATTMODE
 70
     1
  9
$TEXTSIZE
 40
0.2
  9
$TRACEWID
 40
0.05
  9
$TEXTSTYLE
  7
STANDARD
  9
$CLAYER
  8
0
  9
$CELTYPE
  6
BYLAYER
  9
$CECOLOR
 62
   256
  9
$DIMSCALE
 40
1.0
  9
$DIMASZ
 40
0.1875
  9
$DIMEXO
 40
0.0625
  9
$DIMDLI
 40
0.4443307087
  9
$DIMRND
 40
0.0
  9
$DIMDLE
 40
0.0
  9
$DIMEXE
 40
0.125
  9
$DIMTP
 40
0.01
  9
$DIMTM
 40
0.01
  9
$DIMTXT
 40
2.0
  9
$DIMCEN
 40
0.1052362205
  9
$DIMTSZ
 40
0.0
  9
$DIMTOL
 70
     1
  9
$DIMLIM
 70
     0
  9
$DIMTIH
 70
     1
  9
$DIMTOH
 70
     1
  9
$DIMSE1
 70
     0
  9
$DIMSE2
 70
     0
  9
$DIMTAD
 70
     0
  9
$DIMZIN
 70
     0
  9
$DIMBLK
  1

  9
$DIMASO
 70
     1
  9
$DIMSHO
 70
     1
  9
$DIMPOST
  1
\X
  9
$DIMAPOST
  1

  9
$DIMALT
 70
     1
  9
$DIMALTD
 70
     2
  9
$DIMALTF
 40
25.3999999999999986
  9
$DIMLFAC
 40
1.0
  9
$DIMTOFL
 70
     0
  9
$DIMTVP
 40
0.0
  9
$DIMTIX
 70
     0
  9
$DIMSOXD
 70
     0
  9
$DIMSAH
 70
     0
  9
$DIMBLK1
  1

  9
$DIMBLK2
  1

  9
$DIMSTYLE
  2
STANDARD
  9
$DIMCLRD
 70
     0
  9
$DIMCLRE
 70
     0
  9
$DIMCLRT
 70
     0
  9
$DIMTFAC
 40
1.0
  9
$DIMGAP
 40
0.09
  9
$LUNITS
 70
     2
  9
$LUPREC
 70
     4
  9
$SKETCHINC
 40
0.1
  9
$FILLETRAD
 40
0.0
  9
$AUNITS
 70
     0
  9
$AUPREC
 70
     0
  9
$MENU
  1
.
  9
$ELEVATION
 40
0.0
  9
$PELEVATION
 40
0.0
  9
$THICKNESS
 40
0.0
  9
$LIMCHECK
 70
     0
  9
$BLIPMODE
 70
     0
  9
$CHAMFERA
 40
0.0
  9
$CHAMFERB
 40
0.0
  9
$SKPOLY
 70
     0
  9
$TDCREATE
 40
2458060.468368056230247
  9
$TDUPDATE
 40
2459590.6279282411560416
  9
$TDINDWG
 40
0.7067778935
  9
$TDUSRTIMER
 40
0.7067778935
  9
$USRTIMER
 70
     1
  9
$ANGBASE
 50
0.0
  9
$ANGDIR
 70
     0
  9
$PDMODE
 70
     0
  9
$PDSIZE
 40
0.3125
  9
$PLINEWID
 40
0.0
  9
$COORDS
 70
     1
  9
$SPLFRAME
 70
     0
  9
$SPLINETYPE
 70
     6
  9
$SPLINESEGS
 70
     8
  9
$ATTDIA
 70
     1
  9
$ATTREQ
 70
     1
  9
$HANDLING
 70
     1
  9
$HANDSEED
  5
9A76
  9
$SURFTAB1
 70
     6
  9
$SURFTAB2
 70
     6
  9
$SURFTYPE
 70
     6
  9
$SURFU
 70
     6
  9
$SURFV
 70
     6
  9
$UCSNAME
  2

  9
$UCSORG
 10
0.0
 20
0.0
 30
0.0
  9
$UCSXDIR
 10
1.0
 20
0.0
 30
0.0
  9
$UCSYDIR
 10
0.0
 20
1.0
 30
0.0
  9
$PUCSNAME
  2

  9
$PUCSORG
 10
0.0
 20
0.0
 30
0.0
  9
$PUCSXDIR
 10
1.0
 20
0.0
 30
0.0
  9
$PUCSYDIR
 10
0.0
 20
1.0
 30
0.0
  9
$USERI1
 70
     0
  9
$USERI2
 70
     0
  9
$USERI3
 70
     0
  9
$USERI4
 70
     0
  9
$USERI5
 70
     0
  9
$USERR1
 40
0.0
  9
$USERR2
 40
0.0
  9
$USERR3
 40
0.0
  9
$USERR4
 40
0.0
  9
$USERR5
 40
0.0
  9
$WORLDVIEW
 70
     1
  9
$SHADEDGE
 70
     3
  9
$SHADEDIF
 70
    70
  9
$TILEMODE
 70
     1
  9
$MAXACTVP
 70
    64
  9
$PLIMCHECK
 70
     0
  9
$PEXTMIN
 10
1.0000000000000000E+20
 20
1.0000000000000000E+20
 30
1.0000000000000000E+20
  9
$PEXTMAX
 10
-1.0000000000000000E+20
 20
-1.0000000000000000E+20
 30
-1.0000000000000000E+20
  9
$PLIMMIN
 10
0.0
 20
0.0
  9
$PLIMMAX
 10
12.0
 20
9.0
  9
$UNITMODE
 70
     0
  9
$VISRETAIN
 70
     1
  9
$PLINEGEN
 70
     0
  9
$PSLTSCALE
 70
     1
  0
ENDSEC
  0
SECTION
  2
TABLES
  0
TABLE
  2
VPORT
 70
     1
  0
VPORT
  2
*ACTIVE
 70
     0
 10
0.0
 20
0.0
 11
1.0
 21
1.0
 12
0.0000443327649009
 22
-0.0000002598596609
 13
0.0
 23
0.0
 14
1.0
 24
1.0
 15
0.0
 25
0.0
 16
0.0
 26
0.0
 36
19.9395994356827586
 17
3476.335693359375
 27
184.9862060546875
 37
0.0
 40
4.0792854471107667
 41
2.2831541218637992
 42
50.0
 43
0.0
 44
0.0
 50
0.0
 51
0.0
 71
     0
 72
   100
 73
     1
 74
     1
 75
     0
 76
     0
 77
     0
 78
     0
  0
ENDTAB
  0
TABLE
  2
LTYPE
 70
     2
  0
LTYPE
  2
CONTINUOUS
 70
     0
  3
Solid line
 72
    65
 73
     0
 40
0.0
  0
LTYPE
  2
PHANTOM2
 70
     0
  3
___ _ _ ___ _ _ ___ _ _ ___ _ _
 72
    65
 73
     6
 40
1.25
 49
0.625
 49
-0.125
 49
0.125
 49
-0.125
 49
0.125
 49
-0.125
  0
ENDTAB
  0
TABLE
  2
LAYER
 70
     2
  0
LAYER
  2
0
 70
     0
 62
   255
  6
CONTINUOUS
  0
LAYER
  2
DEFPOINTS
 70
     0
 62
     7
  6
CONTINUOUS
  0
ENDTAB
  0
TABLE
  2
STYLE
 70
     1
  0
STYLE
  2
STANDARD
 70
     0
 40
0.0
 41
0.8
 50
0.0
 71
     0
 42
0.2
  3
txt
  4

  0
ENDTAB
  0
TABLE
  2
VIEW
 70
     0
  0
ENDTAB
  0
TABLE
  2
UCS
 70
     0
  0
ENDTAB
  0
TABLE
  2
APPID
 70
     9
  0
APPID
  2
ACAD
 70
     0
  0
APPID
  2
ACAD_MLEADERVER
 70
     0
  0
APPID
  2
ACAD_EXEMPT_FROM_CAD_STANDARDS
 70
     0
  0
APPID
  2
ACAD_NAV_VCDISPLAY
 70
     0
  0
APPID
  2
ACAECLAYERSTANDARD
 70
     0
  0
APPID
  2
ACCMTRANSPARENCY
 70
     0
  0
APPID
  2
ACAD_DSTYLE_DIMJAG
 70
     0
  0
APPID
  2
ACAD_DSTYLE_DIMTALN
 70
     0
  0
APPID
  2
ACDBATTR
 70
     0
  0
ENDTAB
  0
TABLE
  2
DIMSTYLE
 70
     1
  0
DIMSTYLE
  2
STANDARD
 70
     0
  3

  4

  5

  6

  7

 40
1.0
 41
0.1875
 42
0.0625
 43
0.38
 44
0.125
 45
0.0
 46
0.0
 47
0.01
 48
0.01
140
0.15625
141
0.09
142
0.0
143
25.3999999999999986
144
1.0
145
0.0
146
1.0
147
0.09
 71
     1
 72
     0
 73
     1
 74
     1
 75
     0
 76
     0
 77
     0
 78
     4
170
     0
171
     2
172
     0
173
     0
174
     0
175
     0
176
     0
177
     0
178
     0
  0
ENDTAB
  0
ENDSEC
  0
SECTION
  2
BLOCKS
  0
BLOCK
  8
0
  2
$MODEL_SPACE
 70
     0
 10
0.0
 20
0.0
 30
0.0
  3
$MODEL_SPACE
  1

  0
ENDBLK
  5
21
  8
0
  0
BLOCK
 67
     1
  8
0
  2
$PAPER_SPACE
 70
     0
 10
0.0
 20
0.0
 30
0.0
  3
$PAPER_SPACE
  1

  0
ENDBLK
  5
1D
 67
     1
  8
0
  0
BLOCK
  8
0
  2
_FILLED
 70
     0
 10
0.0
 20
0.0
 30
0.0
  3
_FILLED
  1

  0
SOLID
  5
6F59
  8
0
  6
BYBLOCK
 62
     0
 10
0.0
 20
0.0
 30
0.0
 11
-1.0
 21
0.1666666667
 31
0.0
 12
-1.0
 22
-0.1666666667
 32
0.0
 13
-1.0
 23
-0.1666666667
 33
0.0
  0
ENDBLK
  5
6F5A
  8
0
  6
BYBLOCK
 62
     0
  0
ENDSEC
  0
SECTION
  2
ENTITIES
  0
ATTDEF
  5
3930
  8
DEFPOINTS
 10
3476.3359430225928008
 20
185.7162097154983087
 30
0.0
 40
0.001
  1
K-16346BR
  3

  2
MODELNUMBER
 70
     0
1001
ACDBATTR
1070
     0
1070
     1
  0
ATTDEF
  5
3931
  8
DEFPOINTS
 10
3476.3359430225928008
 20
185.7145430488315867
 30
0.0
 40
0.001
  1
MASTERSHOWER
  3

  2
TRADENAME
 70
     0
1001
ACDBATTR
1070
     0
1070
     1
  0
ATTDEF
  5
3932
  8
DEFPOINTS
 10
3476.3359430225928008
 20
185.7128763821648931
 30
0.0
 40
0.001
  1
SHOWER ARM
  3

  2
PRODUCT
 70
     0
1001
ACDBATTR
1070
     0
1070
     1
  0
LINE
  5
96D2
  8
0
 10
3476.709753440140048
 20
185.717505007452786
 30
0.0
 11
3476.709753440140048
 21
183.5127805980027915
 31
0.0
  0
LINE
  5
96D3
  8
0
 10
3476.7983361173401136
 20
183.5049065822028069
 30
0.0
 11
3476.7983361173401136
 21
183.3553002830028049
 31
0.0
  0
ARC
  5
96D4
  8
0
 10
3476.3357376921399009
 20
185.717505007452786
 30
0.0
 40
0.8914907153999998
 50
294.8055302908854856
 51
245.194469709114486
  0
ARC
  5
96D5
  8
0
 10
3476.3357376921399009
 20
185.717505007452786
 30
0.0
 40
1.1240836049999989
 50
289.4345275127327
 51
250.5654724872673
  0
ARC
  5
96D6
  8
0
 10
3476.3357376921399009
 20
185.717505007452786
 30
0.0
 40
1.2933070866
 50
286.8096664109505127
 51
253.190333589049601
  0
LINE
  5
96D7
  8
0
 10
3476.6312321827817868
 20
186.2490010704028123
 30
0.0
 11
3476.0402432014989245
 21
186.2490010704028123
 31
0.0
  0
LINE
  5
96D8
  8
0
 10
3476.6482796685590984
 20
186.2391585506595959
 30
0.0
 11
3476.9437739008099015
 21
185.7273475270893073
 31
0.0
  0
ARC
  5
96D9
  8
0
 10
3476.6312321738928404
 20
186.2293164632397122
 30
0.0
 40
0.0196846071630757
 50
29.9992734886270505
 51
89.9999741278549834
  0
LINE
  5
96DA
  8
0
 10
3476.9437739008571953
 20
185.7076624876877986
 30
0.0
 11
3476.709753440140048
 21
185.3023271598027861
 31
0.0
  0
LINE
  5
96DB
  8
0
 10
3476.7904621015400153
 20
183.5127805980027915
 30
0.0
 11
3475.8810132827397865
 21
183.5127805980027915
 31
0.0
  0
ARC
  5
96DC
  8
0
 10
3476.7904621012989992
 20
183.5049065819613929
 30
0.0
 40
0.0078740160414004
 50
0.0000017565536861
 51
89.9999982434169965
  0
LINE
  5
96DD
  8
0
 10
3476.7983361173401136
 20
183.3553002830028049
 30
0.0
 11
3475.8731392669410525
 21
183.3553002830028049
 31
0.0
  0
ARC
  5
96DE
  8
0
 10
3476.3357376921399009
 20
185.717505007452786
 30
0.0
 40
0.4724409449000007
 50
322.341537984693673
 51
217.6584620153062133
  0
LINE
  5
96DF
  8
0
 10
3475.9234893329407896
 20
182.9615994956027976
 30
0.0
 11
3476.7150924206362106
 21
182.9615994956027976
 31
0.0
  0
LINE
  5
96E0
  8
0
 10
3476.7478500206470926
 20
183.2184515555562996
 30
0.0
 11
3476.7119107261401041
 21
183.2371900468027945
 31
0.0
  0
LINE
  5
96E1
  8
0
 10
3476.7491235189409053
 20
183.1937068285027976
 30
0.0
 11
3476.7491370180400736
 21
183.2175042785792982
 31
0.0
  0
LINE
  5
96E2
  8
0
 10
3476.7039602606928383
 20
183.1699562607749101
 30
0.0
 11
3476.7485503805392
 21
183.193110347079994
 31
0.0
  0
ARC
  5
96E3
  8
0
 10
3476.7469834301018636
 20
183.2159262669541135
 30
0.0
 40
0.0026698430097316
 50
36.2315791624311174
 51
71.0595759333589427
  0
ARC
  5
96E4
  8
0
 10
3476.9389341999531098
 20
183.0107507044745887
 30
0.0
 40
0.2636304950985489
 50
136.0534546634551134
 51
136.2332354861802912
  0
ARC
  5
96E5
  8
0
 10
3476.2899468553418956
 20
176.854937599678891
 30
0.0
 40
6.3164013362624107
 50
91.0405697088483663
 51
93.082454188365702
  0
ARC
  5
96E6
  8
0
 10
3480.488701612047862
 20
37.0888089026029206
 30
0.0
 40
146.1451580061882964
 50
91.5637717042160375
 51
91.6913260838993978
  0
ARC
  5
96E7
  8
0
 10
3476.1659172406889411
 20
194.3092530445063915
 30
0.0
 40
11.1347418134487892
 50
271.7217188236992911
 51
272.6905230185022901
  0
ARC
  5
96E8
  8
0
 10
3476.6862545261501509
 20
183.4753847754091964
 30
0.0
 40
0.2886086901460297
 50
270.4647860578950258
 51
282.5818873563147235
  0
ARC
  5
96E9
  8
0
 10
3476.3468880224349959
 20
176.1932511764478022
 30
0.0
 40
7.0039571735020729
 50
91.4073141844246067
 51
93.2529789229884329
  0
ARC
  5
96EA
  8
0
 10
3344.9309512067770811
 20
4833.0671427311990556
 30
0.0
 40
4651.7238762226143081
 50
271.6167599318876
 51
271.6207673441602992
  0
ARC
  5
96EB
  8
0
 10
3476.2302599774980081
 20
193.04804933285169
 30
0.0
 40
9.8474603870099973
 50
271.5701905000460101
 51
272.6641270752842274
  0
ARC
  5
96EC
  8
0
 10
3476.6586153646658204
 20
183.9354178649631137
 30
0.0
 40
0.7247806206754678
 50
272.3219966658373892
 51
276.7394461431517243
  0
ARC
  5
96ED
  8
0
 10
3476.7433236471551936
 20
183.225632573856501
 30
0.0
 40
0.009993220960478
 50
271.9954488327414879
 51
305.5724157389803963
  0
LINE
  5
96EE
  8
0
 10
3476.7119107261401041
 20
183.2371900468027945
 30
0.0
 11
3475.9223069481940911
 21
183.2371900468027945
 31
0.0
  0
LINE
  5
96EF
  8
0
 10
3475.9236253636340734
 20
183.1827507136588906
 30
0.0
 11
3475.9674546734140677
 21
183.2056030024681093
 31
0.0
  0
LINE
  5
96F0
  8
0
 10
3475.9223518653411702
 20
183.1580059866053887
 30
0.0
 11
3475.9223383662401829
 21
183.181803436681804
 31
0.0
  0
LINE
  5
96F1
  8
0
 10
3475.9223115139820948
 20
183.2291410576949886
 30
0.0
 11
3475.9223069481940911
 21
183.2371900468027945
 31
0.0
  0
LINE
  5
96F2
  8
0
 10
3475.9675151235878729
 20
183.1342554188775011
 30
0.0
 11
3475.9229250037419661
 21
183.1574095051826134
 31
0.0
  0
ARC
  5
96F3
  8
0
 10
3475.9244919541788477
 20
183.1802254250567046
 30
0.0
 40
0.0026698430097316
 50
108.9404240666410004
 51
143.7684208375688115
  0
ARC
  5
96F4
  8
0
 10
3475.7325411843280563
 20
182.9750498625772082
 30
0.0
 40
0.2636304950985489
 50
43.7667645138197088
 51
43.9465453365448369
  0
ARC
  5
96F5
  8
0
 10
3475.9544783710957745
 20
183.0391514436877003
 30
0.0
 40
0.1231199201763574
 50
91.9472466161255255
 51
105.1256498981780965
  0
ARC
  5
96F6
  8
0
 10
3475.9529683621249205
 20
183.0714949699869862
 30
0.0
 40
0.1144821142033674
 50
91.7608383860448953
 51
105.5186885040145057
  0
LINE
  5
96F7
  8
0
 10
3476.7478500206470926
 20
183.1470724536775094
 30
0.0
 11
3476.7039602606928383
 21
183.1699562607749101
 31
0.0
  0
LINE
  5
96F8
  8
0
 10
3476.7491235189409053
 20
183.1223277266240075
 30
0.0
 11
3476.7491370180400736
 21
183.1461251767003944
 31
0.0
  0
LINE
  5
96F9
  8
0
 10
3476.7045338544398874
 20
183.0988750060240022
 30
0.0
 11
3476.7485503805392
 21
183.1217312452012038
 31
0.0
  0
ARC
  5
96FA
  8
0
 10
3476.7469834301018636
 20
183.144547165075295
 30
0.0
 40
0.0026698430097316
 50
36.2315791624311174
 51
71.0595759333589427
  0
ARC
  5
96FB
  8
0
 10
3476.9389341999531098
 20
182.9393716025957985
 30
0.0
 40
0.2636304950985489
 50
136.0534546634551134
 51
136.2332354861802912
  0
ARC
  5
96FC
  8
0
 10
3476.2899468553418956
 20
176.7835584977999872
 30
0.0
 40
6.3164013362624107
 50
91.0405697088483663
 51
93.082454188365702
  0
ARC
  5
96FD
  8
0
 10
3480.488701612047862
 20
37.0174298007241021
 30
0.0
 40
146.1451580061882964
 50
91.5637717042160375
 51
91.6913260838993978
  0
ARC
  5
96FE
  8
0
 10
3476.1659172406889411
 20
194.2378739426276013
 30
0.0
 40
11.1347418134487892
 50
271.7217188236992911
 51
272.6905230185022901
  0
ARC
  5
96FF
  8
0
 10
3476.6862545261501509
 20
183.4040056735304063
 30
0.0
 40
0.2886086901460297
 50
270.4647860578950258
 51
282.5818873563147235
  0
ARC
  5
9700
  8
0
 10
3476.3468880224349959
 20
176.1218720745690121
 30
0.0
 40
7.0039571735020729
 50
91.4073141844246067
 51
93.2529789229884329
  0
ARC
  5
9701
  8
0
 10
3344.9309512067770811
 20
4832.9957636293202086
 30
0.0
 40
4651.7238762226143081
 50
271.6167599318876
 51
271.6207673441602992
  0
ARC
  5
9702
  8
0
 10
3476.2302599774980081
 20
192.9766702309728998
 30
0.0
 40
9.8474603870099973
 50
271.5701905000460101
 51
272.6641270752842274
  0
ARC
  5
9703
  8
0
 10
3476.6586153646658204
 20
183.8640387630842952
 30
0.0
 40
0.7247806206754678
 50
272.3219966658373892
 51
276.7394461431517243
  0
ARC
  5
9704
  8
0
 10
3476.7433236471551936
 20
183.1542534719777109
 30
0.0
 40
0.009993220960478
 50
271.9954488327414879
 51
305.5724157389803963
  0
LINE
  5
9705
  8
0
 10
3475.9236253636340734
 20
183.1113716117801005
 30
0.0
 11
3475.9675151235878729
 21
183.1342554188775011
 31
0.0
  0
LINE
  5
9706
  8
0
 10
3475.9223518653411702
 20
183.0866268847265133
 30
0.0
 11
3475.9223383662401829
 21
183.1104243348030138
 31
0.0
  0
LINE
  5
9707
  8
0
 10
3475.967516296453141
 20
183.0628757079707896
 30
0.0
 11
3475.9229250037419661
 21
183.0860304033037949
 31
0.0
  0
ARC
  5
9708
  8
0
 10
3475.9244919541788477
 20
183.108846323177886
 30
0.0
 40
0.0026698430097316
 50
108.9404240666410004
 51
143.7684208375688115
  0
ARC
  5
9709
  8
0
 10
3475.7325411843280563
 20
182.9036707606983896
 30
0.0
 40
0.2636304950985489
 50
43.7667645138197088
 51
43.9465453365448369
  0
ARC
  5
970A
  8
0
 10
3475.9544783710957745
 20
182.9677723418089101
 30
0.0
 40
0.1231199201763574
 50
91.9472466161255255
 51
105.1256498981780965
  0
ARC
  5
970B
  8
0
 10
3475.9529683621249205
 20
183.0001158681081961
 30
0.0
 40
0.1144821142033674
 50
91.7608383860448953
 51
105.5186885040145057
  0
LINE
  5
970C
  8
0
 10
3476.7484236143941416
 20
183.0759911989264879
 30
0.0
 11
3476.7045338544398874
 21
183.0988750060240022
 31
0.0
  0
LINE
  5
970D
  8
0
 10
3476.7496971126870449
 20
183.0512464718730996
 30
0.0
 11
3476.7497106117871226
 21
183.0750439219494865
 31
0.0
  0
LINE
  5
970E
  8
0
 10
3476.7051074481878459
 20
183.0277937512730944
 30
0.0
 11
3476.7491239742857942
 21
183.0506499904502959
 31
0.0
  0
ARC
  5
970F
  8
0
 10
3476.7475570238498221
 20
183.0734659103243871
 30
0.0
 40
0.0026698430097316
 50
36.2315791624311174
 51
71.0595759333589427
  0
ARC
  5
9710
  8
0
 10
3476.9395077937010683
 20
182.8682903478448907
 30
0.0
 40
0.2636304950985489
 50
136.0534546634551134
 51
136.2332354861802912
  0
ARC
  5
9711
  8
0
 10
3476.2905204490889446
 20
176.7124772430491078
 30
0.0
 40
6.3164013362624107
 50
91.0405697088483663
 51
93.082454188365702
  0
ARC
  5
9712
  8
0
 10
3480.489275205794911
 20
36.9463485459731729
 30
0.0
 40
146.1451580061882964
 50
91.5637717042160375
 51
91.6913260838993978
  0
ARC
  5
9713
  8
0
 10
3476.1664908344368996
 20
194.1667926878766082
 30
0.0
 40
11.1347418134487892
 50
271.7217188236992911
 51
272.6905230185022901
  0
ARC
  5
9714
  8
0
 10
3476.6868281198971999
 20
183.3329244187794131
 30
0.0
 40
0.2886086901460297
 50
270.4647860578950258
 51
282.5818873563147235
  0
ARC
  5
9715
  8
0
 10
3476.347461616182045
 20
176.0507908198179905
 30
0.0
 40
7.0039571735020729
 50
91.4073141844246067
 51
93.2529789229884329
  0
ARC
  5
9716
  8
0
 10
3344.9315248005241301
 20
4832.9246823745688744
 30
0.0
 40
4651.7238762226143081
 50
271.6167599318876
 51
271.6207673441602992
  0
ARC
  5
9717
  8
0
 10
3476.2308335712450571
 20
192.9055889762219067
 30
0.0
 40
9.8474603870099973
 50
271.5701905000460101
 51
272.6641270752842274
  0
ARC
  5
9718
  8
0
 10
3476.6591889584128694
 20
183.7929575083333873
 30
0.0
 40
0.7247806206754678
 50
272.3219966658373892
 51
276.7394461431517243
  0
ARC
  5
9719
  8
0
 10
3476.7438972409017879
 20
183.083172217226803
 30
0.0
 40
0.009993220960478
 50
271.9954488327414879
 51
305.5724157389803963
  0
LINE
  5
971A
  8
0
 10
3475.9241989573811225
 20
183.0402903570291073
 30
0.0
 11
3475.968088717334922
 21
183.0631741641265933
 31
0.0
  0
LINE
  5
971B
  8
0
 10
3475.922925459086855
 20
183.0155456299756054
 30
0.0
 11
3475.9229119599867772
 21
183.039343080052106
 31
0.0
  0
LINE
  5
971C
  8
0
 10
3475.9680898902010995
 20
182.9917944532197964
 30
0.0
 11
3475.9234985974890151
 21
183.014949148552887
 31
0.0
  0
ARC
  5
971D
  8
0
 10
3475.9250655479258967
 20
183.0377650684268929
 30
0.0
 40
0.0026698430097316
 50
108.9404240666410004
 51
143.7684208375688115
  0
ARC
  5
971E
  8
0
 10
3475.7331147780751053
 20
182.8325895059475101
 30
0.0
 40
0.2636304950985489
 50
43.7667645138197088
 51
43.9465453365448369
  0
ARC
  5
971F
  8
0
 10
3475.9550519648428235
 20
182.8966910870578886
 30
0.0
 40
0.1231199201763574
 50
91.9472466161255255
 51
105.1256498981780965
  0
ARC
  5
9720
  8
0
 10
3475.953541955872879
 20
182.9290346133572029
 30
0.0
 40
0.1144821142033674
 50
91.7608383860448953
 51
105.5186885040145057
  0
LINE
  5
9721
  8
0
 10
3476.7489972081421001
 20
183.0049099441756084
 30
0.0
 11
3476.7051074481878459
 21
183.0277937512730944
 31
0.0
  0
LINE
  5
9722
  8
0
 10
3476.7502707064350034
 20
182.9801652171221065
 30
0.0
 11
3476.7502842055350811
 21
183.0039626671986071
 31
0.0
  0
LINE
  5
9723
  8
0
 10
3476.7150924206362106
 20
182.9615994956027976
 30
0.0
 11
3476.7496975680328433
 21
182.9795687356993881
 31
0.0
  0
ARC
  5
9724
  8
0
 10
3476.7481306175968712
 20
183.0023846555735076
 30
0.0
 40
0.0026698430097316
 50
36.2315791624311174
 51
71.0595759333589427
  0
ARC
  5
9725
  8
0
 10
3476.9400813874481173
 20
182.7972090930940112
 30
0.0
 40
0.2636304950985489
 50
136.0534546634551134
 51
136.2332354861802912
  0
ARC
  5
9726
  8
0
 10
3480.4898487995428695
 20
36.8752672912222579
 30
0.0
 40
146.1451580061882964
 50
91.5637717042160375
 51
91.6257131213570659
  0
ARC
  5
9727
  8
0
 10
3476.1670644281839486
 20
194.0957114331257003
 30
0.0
 40
11.1347418134487892
 50
271.7217188236992911
 51
272.6905230185022901
  0
ARC
  5
9728
  8
0
 10
3476.6874017136451585
 20
183.2618431640285053
 30
0.0
 40
0.2886086901460297
 50
270.4647860578950258
 51
282.5818873563147235
  0
ARC
  5
9729
  8
0
 10
3476.348035209929094
 20
175.979709565067111
 30
0.0
 40
7.0039571735020729
 50
91.4073141844246067
 51
93.2529789229884329
  0
ARC
  5
972A
  8
0
 10
3344.9320983942711791
 20
4832.8536011198193592
 30
0.0
 40
4651.7238762226143081
 50
271.6167599318876
 51
271.6207673441602992
  0
ARC
  5
972B
  8
0
 10
3476.2314071649930156
 20
192.8345077214709988
 30
0.0
 40
9.8474603870099973
 50
271.5701905000460101
 51
272.6641270752842274
  0
ARC
  5
972C
  8
0
 10
3476.6597625521608279
 20
183.7218762535823942
 30
0.0
 40
0.7247806206754678
 50
272.3219966658373892
 51
276.7394461431517243
  0
ARC
  5
972D
  8
0
 10
3476.7444708346488369
 20
183.0120909624758099
 30
0.0
 40
0.009993220960478
 50
271.9954488327414879
 51
305.5724157389803963
  0
LINE
  5
972E
  8
0
 10
3475.9247725511281715
 20
182.9692091022781995
 30
0.0
 11
3475.968662311081971
 21
182.9920929093756001
 31
0.0
  0
LINE
  5
972F
  8
0
 10
3475.9234893329407896
 20
182.9615994956027976
 30
0.0
 11
3475.9234855537351905
 21
182.9682618253011981
 31
0.0
  0
ARC
  5
9730
  8
0
 10
3475.9256391416729457
 20
182.9666838136760134
 30
0.0
 40
0.0026698430097316
 50
108.9404240666410004
 51
143.7684208375688115
  0
ARC
  5
9731
  8
0
 10
3475.9541155496190186
 20
182.8579533586062951
 30
0.0
 40
0.1144821142033674
 50
91.7608383860448953
 51
105.5186885040145057
  0
LINE
  5
9732
  8
0
 10
3475.968662311081971
 20
182.9920929093756001
 30
0.0
 11
3476.7051074481878459
 21
183.0277937512730944
 31
0.0
  0
LINE
  5
9733
  8
0
 10
3475.968088717334922
 20
183.0631741641265933
 30
0.0
 11
3476.7045338544398874
 21
183.0988750060240022
 31
0.0
  0
LINE
  5
9734
  8
0
 10
3475.9675151235878729
 20
183.1342554188775011
 30
0.0
 11
3476.7039602606928383
 21
183.1699562607749101
 31
0.0
  0
LINE
  5
9735
  8
0
 10
3475.9674546734140677
 20
183.2056030024681093
 30
0.0
 11
3475.9223115139820948
 21
183.2291410576949886
 31
0.0
  0
LINE
  5
9736
  8
0
 10
3475.9674546734140677
 20
183.2056030024681093
 30
0.0
 11
3476.6526991147011358
 21
183.2371900468027945
 31
0.0
  0
LINE
  5
9737
  8
0
 10
3476.6900684008410281
 20
183.2371900468027945
 30
0.0
 11
3476.6900684008410281
 21
183.3553002830028049
 31
0.0
  0
LINE
  5
9738
  8
0
 10
3475.9617219441402085
 20
185.717505007452786
 30
0.0
 11
3475.9617219441402085
 21
183.5127805980027915
 31
0.0
  0
LINE
  5
9739
  8
0
 10
3475.8731392669410525
 20
183.5049065822028069
 30
0.0
 11
3475.8731392669410525
 21
183.3553002830028049
 31
0.0
  0
LINE
  5
973A
  8
0
 10
3476.0231957157211582
 20
186.2391585506595959
 30
0.0
 11
3475.7277014834689908
 21
185.7273475270893073
 31
0.0
  0
ARC
  5
973B
  8
0
 10
3476.0402425509319073
 20
186.2293176054336072
 30
0.0
 40
0.0196834649799757
 50
89.9981062908393454
 51
150.0026460927010135
  0
LINE
  5
973C
  8
0
 10
3475.7277014834230613
 20
185.7076624876877986
 30
0.0
 11
3475.9617219441402085
 21
185.3023271598027861
 31
0.0
  0
ARC
  5
973D
  8
0
 10
3475.8810132829821669
 20
183.5049065819613929
 30
0.0
 40
0.0078740160414004
 50
90.0000017565830035
 51
179.9999982434447077
  0
LINE
  5
973E
  8
0
 10
3475.9814069834410475
 20
183.2371900468027945
 30
0.0
 11
3475.9814069834410475
 21
183.3553002830028049
 31
0.0
  0
ARC
  5
973F
  8
0
 10
3476.926726156643781
 20
185.7175050073479952
 30
0.0
 40
0.0196850393963747
 50
330.0000001275089971
 51
30.0000001450474585
  0
ARC
  5
9740
  8
0
 10
3475.7447492276360208
 20
185.7175050073479952
 30
0.0
 40
0.0196850393963747
 50
149.999999854952506
 51
209.9999998724910029
  0
ARC
  5
9741
  8
0
 10
3476.3357376921399009
 20
185.7175050074027922
 30
0.0
 40
0.3740157480000015
 50
0.0000000076602006
 51
179.9999999923398093
  0
ENDSEC
  0
EOF
