  0
SECTION
  2
HEADER
  9
$ACADVER
  1
AC1009
  9
$INSBASE
 10
297.5957999378052818
 20
38.0819234896862824
 30
0.0
  9
$EXTMIN
 10
293.9452172876983127
 20
38.0819234896862824
 30
0.0
  9
$EXTMAX
 10
298.5800519063054139
 20
42.6258825063088409
 30
0.0
  9
$LIMMIN
 10
0.0
 20
0.0
  9
$LIMMAX
 10
11.6929133858000007
 20
8.2677165353999982
  9
$ORTHOMODE
 70
     0
  9
$REGENMODE
 70
     1
  9
$FILLMODE
 70
     1
  9
$QTEXTMODE
 70
     0
  9
$MIRRTEXT
 70
     0
  9
$DRAGMODE
 70
     2
  9
$LTSCALE
 40
0.6431102362
  9
$OSMODE
 70
     7
  9
$ATTMODE
 70
     1
  9
$TEXTSIZE
 40
0.2
  9
$TRACEWID
 40
0.05
  9
$TEXTSTYLE
  7
STANDARD
  9
$CLAYER
  8
0
  9
$CELTYPE
  6
BYLAYER
  9
$CECOLOR
 62
   256
  9
$DIMSCALE
 40
1.0
  9
$DIMASZ
 40
0.1875
  9
$DIMEXO
 40
0.0625
  9
$DIMDLI
 40
0.4443307087
  9
$DIMRND
 40
0.0
  9
$DIMDLE
 40
0.0
  9
$DIMEXE
 40
0.125
  9
$DIMTP
 40
0.01
  9
$DIMTM
 40
0.01
  9
$DIMTXT
 40
1.0
  9
$DIMCEN
 40
0.1052362205
  9
$DIMTSZ
 40
0.0
  9
$DIMTOL
 70
     1
  9
$DIMLIM
 70
     0
  9
$DIMTIH
 70
     0
  9
$DIMTOH
 70
     1
  9
$DIMSE1
 70
     0
  9
$DIMSE2
 70
     0
  9
$DIMTAD
 70
     0
  9
$DIMZIN
 70
     0
  9
$DIMBLK
  1

  9
$DIMASO
 70
     1
  9
$DIMSHO
 70
     1
  9
$DIMPOST
  1
\X
  9
$DIMAPOST
  1

  9
$DIMALT
 70
     1
  9
$DIMALTD
 70
     2
  9
$DIMALTF
 40
25.3999999999999986
  9
$DIMLFAC
 40
1.0
  9
$DIMTOFL
 70
     0
  9
$DIMTVP
 40
0.0
  9
$DIMTIX
 70
     0
  9
$DIMSOXD
 70
     0
  9
$DIMSAH
 70
     0
  9
$DIMBLK1
  1

  9
$DIMBLK2
  1

  9
$DIMSTYLE
  2
STANDARD
  9
$DIMCLRD
 70
     0
  9
$DIMCLRE
 70
     0
  9
$DIMCLRT
 70
     0
  9
$DIMTFAC
 40
1.0
  9
$DIMGAP
 40
0.09
  9
$LUNITS
 70
     2
  9
$LUPREC
 70
     4
  9
$SKETCHINC
 40
0.1
  9
$FILLETRAD
 40
0.0
  9
$AUNITS
 70
     0
  9
$AUPREC
 70
     0
  9
$MENU
  1
.
  9
$ELEVATION
 40
0.0
  9
$PELEVATION
 40
0.0
  9
$THICKNESS
 40
0.0
  9
$LIMCHECK
 70
     0
  9
$BLIPMODE
 70
     0
  9
$CHAMFERA
 40
0.0
  9
$CHAMFERB
 40
0.0
  9
$SKPOLY
 70
     0
  9
$TDCREATE
 40
2458172.5207638889551163
  9
$TDUPDATE
 40
2459590.6271643522195518
  9
$TDINDWG
 40
0.359976331
  9
$TDUSRTIMER
 40
0.359976331
  9
$USRTIMER
 70
     1
  9
$ANGBASE
 50
0.0
  9
$ANGDIR
 70
     0
  9
$PDMODE
 70
     0
  9
$PDSIZE
 40
0.3125
  9
$PLINEWID
 40
0.0
  9
$COORDS
 70
     1
  9
$SPLFRAME
 70
     0
  9
$SPLINETYPE
 70
     6
  9
$SPLINESEGS
 70
     8
  9
$ATTDIA
 70
     1
  9
$ATTREQ
 70
     1
  9
$HANDLING
 70
     1
  9
$HANDSEED
  5
5239
  9
$SURFTAB1
 70
     6
  9
$SURFTAB2
 70
     6
  9
$SURFTYPE
 70
     6
  9
$SURFU
 70
     6
  9
$SURFV
 70
     6
  9
$UCSNAME
  2

  9
$UCSORG
 10
0.0
 20
0.0
 30
0.0
  9
$UCSXDIR
 10
1.0
 20
0.0
 30
0.0
  9
$UCSYDIR
 10
0.0
 20
1.0
 30
0.0
  9
$PUCSNAME
  2

  9
$PUCSORG
 10
0.0
 20
0.0
 30
0.0
  9
$PUCSXDIR
 10
1.0
 20
0.0
 30
0.0
  9
$PUCSYDIR
 10
0.0
 20
1.0
 30
0.0
  9
$USERI1
 70
     0
  9
$USERI2
 70
     0
  9
$USERI3
 70
     0
  9
$USERI4
 70
     0
  9
$USERI5
 70
     0
  9
$USERR1
 40
0.0
  9
$USERR2
 40
0.0
  9
$USERR3
 40
0.0
  9
$USERR4
 40
0.0
  9
$USERR5
 40
0.0
  9
$WORLDVIEW
 70
     1
  9
$SHADEDGE
 70
     3
  9
$SHADEDIF
 70
    70
  9
$TILEMODE
 70
     1
  9
$MAXACTVP
 70
    64
  9
$PLIMCHECK
 70
     0
  9
$PEXTMIN
 10
1.0000000000000000E+20
 20
1.0000000000000000E+20
 30
1.0000000000000000E+20
  9
$PEXTMAX
 10
-1.0000000000000000E+20
 20
-1.0000000000000000E+20
 30
-1.0000000000000000E+20
  9
$PLIMMIN
 10
0.0
 20
0.0
  9
$PLIMMAX
 10
12.0
 20
9.0
  9
$UNITMODE
 70
     0
  9
$VISRETAIN
 70
     1
  9
$PLINEGEN
 70
     0
  9
$PSLTSCALE
 70
     1
  0
ENDSEC
  0
SECTION
  2
TABLES
  0
TABLE
  2
VPORT
 70
     1
  0
VPORT
  2
*ACTIVE
 70
     0
 10
0.0
 20
0.0
 11
1.0
 21
1.0
 12
30.8086002807506283
 22
14.2230891374980999
 13
0.0
 23
0.0
 14
1.0
 24
1.0
 15
0.0
 25
0.0
 16
0.0
 26
0.0
 36
0.0353741150031495
 17
265.4566317621529947
 27
26.1310335101165094
 37
0.0
 40
4.5801402805342812
 41
2.2831541218637992
 42
50.0
 43
0.0
 44
0.0
 50
0.0
 51
0.0
 71
     0
 72
   100
 73
     1
 74
     1
 75
     0
 76
     0
 77
     0
 78
     0
  0
ENDTAB
  0
TABLE
  2
LTYPE
 70
     2
  0
LTYPE
  2
CONTINUOUS
 70
     0
  3
Solid line
 72
    65
 73
     0
 40
0.0
  0
LTYPE
  2
PHANTOM2
 70
     0
  3
___ _ _ ___ _ _ ___ _ _ ___ _ _
 72
    65
 73
     6
 40
1.25
 49
0.625
 49
-0.125
 49
0.125
 49
-0.125
 49
0.125
 49
-0.125
  0
ENDTAB
  0
TABLE
  2
LAYER
 70
     2
  0
LAYER
  2
0
 70
     0
 62
   255
  6
CONTINUOUS
  0
LAYER
  2
DEFPOINTS
 70
     0
 62
     7
  6
CONTINUOUS
  0
ENDTAB
  0
TABLE
  2
STYLE
 70
     1
  0
STYLE
  2
STANDARD
 70
     0
 40
0.0
 41
0.8
 50
0.0
 71
     0
 42
0.2
  3
txt
  4

  0
ENDTAB
  0
TABLE
  2
VIEW
 70
     0
  0
ENDTAB
  0
TABLE
  2
UCS
 70
     0
  0
ENDTAB
  0
TABLE
  2
APPID
 70
    10
  0
APPID
  2
ACAD
 70
     0
  0
APPID
  2
ACAD_MLEADERVER
 70
     0
  0
APPID
  2
ACAD_EXEMPT_FROM_CAD_STANDARDS
 70
     0
  0
APPID
  2
ACAD_DSTYLE_DIMJAG
 70
     0
  0
APPID
  2
ACAD_DSTYLE_DIMTALN
 70
     0
  0
APPID
  2
ACAD_NAV_VCDISPLAY
 70
     0
  0
APPID
  2
ACAECLAYERSTANDARD
 70
     0
  0
APPID
  2
ACCMTRANSPARENCY
 70
     0
  0
APPID
  2
DCO15
 70
     0
  0
APPID
  2
ACDBATTR
 70
     0
  0
ENDTAB
  0
TABLE
  2
DIMSTYLE
 70
     1
  0
DIMSTYLE
  2
STANDARD
 70
     0
  3

  4

  5

  6

  7

 40
1.0
 41
0.1875
 42
0.0625
 43
0.38
 44
0.125
 45
0.0
 46
0.0
 47
0.01
 48
0.01
140
0.15625
141
0.09
142
0.0
143
25.3999999999999986
144
1.0
145
0.0
146
1.0
147
0.09
 71
     1
 72
     0
 73
     1
 74
     1
 75
     0
 76
     0
 77
     0
 78
     4
170
     0
171
     2
172
     0
173
     0
174
     0
175
     0
176
     0
177
     0
178
     0
  0
ENDTAB
  0
ENDSEC
  0
SECTION
  2
BLOCKS
  0
BLOCK
  8
0
  2
$MODEL_SPACE
 70
     0
 10
0.0
 20
0.0
 30
0.0
  3
$MODEL_SPACE
  1

  0
ENDBLK
  5
21
  8
0
  0
BLOCK
 67
     1
  8
0
  2
$PAPER_SPACE
 70
     0
 10
0.0
 20
0.0
 30
0.0
  3
$PAPER_SPACE
  1

  0
ENDBLK
  5
1D
 67
     1
  8
0
  0
ENDSEC
  0
SECTION
  2
ENTITIES
  0
ATTDEF
  5
829
  8
DEFPOINTS
 10
297.5958030711244078
 20
38.0852602532384523
 30
0.0
 40
0.001
  1
K-16312BR-4ND
  3

  2
MODELNUMBER
 70
     0
1001
ACDBATTR
1070
     0
1070
     1
  0
ATTDEF
  5
82A
  8
DEFPOINTS
 10
297.5958030711244078
 20
38.0835935865717801
 30
0.0
 40
0.001
  1
JULY
  3

  2
TRADENAME
 70
     0
1001
ACDBATTR
1070
     0
1070
     1
  0
ATTDEF
  5
82B
  8
DEFPOINTS
 10
297.5958030711244078
 20
38.081926919905122
 30
0.0
 40
0.001
  1
BATHROOM SINK FAUCET
  3

  2
PRODUCT
 70
     0
1001
ACDBATTR
1070
     0
1070
     1
  0
LINE
  5
50DF
  8
0
 10
298.1868052166743155
 20
42.5746114422272086
 30
0.0
 11
294.9695317412542863
 21
42.5746114422272086
 31
0.0
  0
LINE
  5
50E0
  8
0
 10
293.9812386381012743
 20
41.1568938158900579
 30
0.0
 11
296.5440315503602164
 21
41.1568938158900579
 31
0.0
  0
LINE
  5
50E1
  8
0
 10
296.9873079550342823
 20
41.1921597101862815
 30
0.0
 11
298.2119966785763268
 21
41.1921597101862815
 31
0.0
  0
LINE
  5
50E2
  8
0
 10
297.6502985235129017
 20
42.6258825063088409
 30
0.0
 11
295.4193513802949838
 21
42.6258825063088409
 31
0.0
  0
LINE
  5
50E3
  8
0
 10
298.2257211976054236
 20
41.1136801024658212
 30
0.0
 11
298.2257211976054236
 21
38.2000337258862928
 31
0.0
  0
LINE
  5
50E4
  8
0
 10
296.9658772220647052
 20
39.7335075335087922
 30
0.0
 11
296.9658772220647052
 21
38.2000337258862928
 31
0.0
  0
LINE
  5
50E5
  8
0
 10
294.9390307909106923
 20
40.3653814350923028
 30
0.0
 11
296.3165624801292211
 21
40.3653814350923028
 31
0.0
  0
LINE
  5
50E6
  8
0
 10
294.9323147364319198
 20
40.3660037892382206
 30
0.0
 11
294.8500634150054225
 21
40.0981618543862766
 31
0.0
  0
LINE
  5
50E7
  8
0
 10
294.8500634150054225
 20
40.0981618543862766
 30
0.0
 11
294.7975579185052766
 21
40.0861085361862806
 31
0.0
  0
LINE
  5
50E8
  8
0
 10
294.7975579185052766
 20
40.0861085361862806
 30
0.0
 11
293.98839577523961
 21
40.3345933587206318
 31
0.0
  0
ARC
  5
50E9
  8
0
 10
294.642907436160101
 20
40.7688366816697112
 30
0.0
 40
0.6922030221069928
 50
180.4079757309629883
 51
199.588277716753197
  0
ARC
  5
50EA
  8
0
 10
301.6469426831822034
 20
41.0550447487548666
 30
0.0
 40
7.7017253954839093
 50
179.534081901967312
 51
182.1663832926903126
  0
ARC
  5
50EB
  8
0
 10
293.9843974057794185
 20
41.1180944278723928
 30
0.0
 40
0.0389277577544423
 50
94.6543461465241904
 51
180.6203101810266958
  0
ARC
  5
50EC
  8
0
 10
294.5598434294431058
 20
35.961144353138252
 30
0.0
 40
5.2278672500599566
 50
89.7685986040516042
 51
96.354344520728759
  0
LINE
  5
50ED
  8
0
 10
294.5809572444754849
 20
41.1889689667862697
 30
0.0
 11
296.5604673881659892
 21
41.1889689667862768
 31
0.0
  0
ARC
  5
50EE
  8
0
 10
293.4643947922169218
 20
35.5062900159238808
 30
0.0
 40
5.0579432043568664
 50
77.2832041075505316
 51
84.026526119531681
  0
ARC
  5
50EF
  8
0
 10
292.8760654167858775
 20
32.8992303694887624
 30
0.0
 40
7.7305620425126964
 50
75.8116945578409371
 51
77.2832041075505316
  0
ARC
  5
50F0
  8
0
 10
295.035148602594802
 20
41.4391732950145908
 30
0.0
 40
1.0780851506992959
 50
255.8116945578408945
 51
264.8849429661354975
  0
LINE
  5
50F1
  8
0
 10
294.0532501071210731
 20
40.3043814482214202
 30
0.0
 11
294.7269250362210755
 21
40.0975032640214266
 31
0.0
  0
ARC
  5
50F2
  8
0
 10
294.7317148813103245
 20
40.1125076351955272
 30
0.0
 40
0.0157503577835355
 50
252.2953581565137995
 51
320.9014761576033834
  0
LINE
  5
50F3
  8
0
 10
294.8500634150054225
 20
40.0981618543862766
 30
0.0
 11
294.5774642476052918
 21
40.1821586142862799
 31
0.0
  0
LINE
  5
50F4
  8
0
 10
294.5774642476052918
 20
40.1821586142862799
 30
0.0
 11
294.6134753750054074
 21
40.2994246940862766
 31
0.0
  0
ARC
  5
50F5
  8
0
 10
294.6176640196247831
 20
40.9420187910439708
 30
0.0
 40
0.7609228015328787
 50
238.8860662705237985
 51
266.9716375427919957
  0
LINE
  5
50F6
  8
0
 10
295.300155539140178
 20
42.3699841644378594
 30
0.0
 11
296.6069123156859746
 21
42.3699841644378594
 31
0.0
  0
LINE
  5
50F7
  8
0
 10
298.2295549057054131
 20
41.2118447494869997
 30
0.0
 11
298.2295549057054131
 21
41.9210384549646591
 31
0.0
  0
LINE
  5
50F8
  8
0
 10
298.2295549057054131
 20
42.2739907702612712
 30
0.0
 11
298.2295549057054131
 21
42.5340220854862281
 31
0.0
  0
LINE
  5
50F9
  8
0
 10
296.9658772220647052
 20
41.1527896313862769
 30
0.0
 11
298.1879278769579855
 21
41.1527896313862769
 31
0.0
  0
ARC
  5
50FA
  8
0
 10
298.1862901556175984
 20
41.1133915578414175
 30
0.0
 40
0.0394320977153799
 50
0.4192659706587173
 51
87.6196671215403171
  0
ARC
  5
50FB
  8
0
 10
298.2095510311328894
 20
41.2120142445567623
 30
0.0
 40
0.0200045926348489
 50
277.0222224825157014
 51
359.5145380582209782
  0
ARC
  5
50FC
  8
0
 10
298.833853706039406
 20
42.0975146126129687
 30
0.0
 40
0.629540208647226
 50
163.7203690079143996
 51
196.2796309920854014
  0
ARC
  5
50FD
  8
0
 10
298.0718282563054231
 20
42.0976715211862924
 30
0.0
 40
0.1892224408999929
 50
319.7574395477759026
 51
40.2189649177269217
  0
ARC
  5
50FE
  8
0
 10
298.1852555077323927
 20
42.5301720714997771
 30
0.0
 40
0.044466383577417
 50
4.9670352851344406
 51
88.0027661553966283
  0
ARC
  5
50FF
  8
0
 10
297.591628625618398
 20
39.1792821093352188
 30
0.0
 40
3.447099716187179
 50
80.0574807897707643
 51
89.0247744108222463
  0
ARC
  5
5100
  8
0
 10
298.1292645047054179
 20
41.1606636471862828
 30
0.0
 40
0.007874015699997
 50
270.0000032085656017
 51
0.0000000000193378
  0
LINE
  5
5101
  8
0
 10
298.137138520405415
 20
41.1606636471862828
 30
0.0
 11
298.137138520405415
 21
41.1921597101862815
 31
0.0
  0
LINE
  5
5102
  8
0
 10
296.9697497279053096
 20
41.2118447494869997
 30
0.0
 11
296.9697497279053096
 21
41.9547607363954924
 31
0.0
  0
ARC
  5
5103
  8
0
 10
296.9897536024777196
 20
41.2120142445567623
 30
0.0
 40
0.0200045926348489
 50
180.4854619417789081
 51
262.9777775174844123
  0
ARC
  5
5104
  8
0
 10
297.0623353709053163
 20
41.1606636471862828
 30
0.0
 40
0.007874015699997
 50
179.9999999999807017
 51
269.999996791434512
  0
LINE
  5
5105
  8
0
 10
297.0544613552053193
 20
41.1606636471862828
 30
0.0
 11
297.0544613552053761
 21
41.1921597101862815
 31
0.0
  0
ARC
  5
5106
  8
0
 10
296.5220490194000718
 20
40.3624304275296382
 30
0.0
 40
0.8274309203402673
 50
78.3201418759515633
 51
87.3387481591495316
  0
ARC
  5
5107
  8
0
 10
297.0219525730954047
 20
43.8545389867175999
 30
0.0
 40
2.7023312202663878
 50
262.9345309702865165
 51
268.8109852917698959
  0
ARC
  5
5108
  8
0
 10
296.508362750044796
 20
15.8090965944370794
 30
0.0
 40
25.3478223175722697
 50
88.9657860340117423
 51
89.9193748335754464
  0
ARC
  5
5109
  8
0
 10
295.3097264514557878
 20
43.1976151205715411
 30
0.0
 40
0.8276862943853091
 50
250.5647136322897097
 51
269.3374481285492266
  0
ARC
  5
510A
  8
0
 10
295.0891701377219078
 20
42.5600802980288435
 30
0.0
 40
0.1531473266045464
 50
191.9316020052123974
 51
249.0134013452488944
  0
ARC
  5
510B
  8
0
 10
294.9779093280080247
 20
42.5361655612329486
 30
0.0
 40
0.0393480587226576
 50
102.2929278569392011
 51
191.3555889271592889
  0
ARC
  5
510C
  8
0
 10
295.4472426496394064
 20
40.3823313413647682
 30
0.0
 40
2.243724526903319
 50
90.712250170987005
 51
102.2929278569392011
  0
ARC
  5
510D
  8
0
 10
296.2978163270287837
 20
41.9818019121034212
 30
0.0
 40
0.6724773010274566
 50
357.695441797338276
 51
19.8730029992860686
  0
ARC
  5
510E
  8
0
 10
296.6896806734756069
 20
42.0885329971906827
 30
0.0
 40
0.2696736102428537
 50
26.8663575240267107
 51
75.3060655423350056
  0
ARC
  5
510F
  8
0
 10
296.596298228851424
 20
41.7270245538772073
 30
0.0
 40
0.6430472141698709
 50
75.428158664801586
 51
89.0542374132671171
  0
LINE
  5
5110
  8
0
 10
296.6115479693053203
 20
38.0819234896862824
 30
0.0
 11
298.5800519063054139
 21
38.0819234896862824
 31
0.0
  0
LINE
  5
5111
  8
0
 10
298.5800519063054139
 20
38.1610911451393306
 30
0.0
 11
298.5800519063054139
 21
38.0819234896862824
 31
0.0
  0
LINE
  5
5112
  8
0
 10
298.5423361941030862
 20
38.2000337258862928
 30
0.0
 11
296.6492636815074775
 21
38.2000337258862928
 31
0.0
  0
ARC
  5
5113
  8
0
 10
298.5406191043991839
 20
38.1606356941496827
 30
0.0
 40
0.0394354320601446
 50
0.6617399198942127
 51
87.5044496440266641
  0
LINE
  5
5114
  8
0
 10
296.6115479693053203
 20
38.1610911451393306
 30
0.0
 11
296.6115479693053203
 21
38.0819234896862824
 31
0.0
  0
ARC
  5
5115
  8
0
 10
296.6509807712113798
 20
38.1606356941496827
 30
0.0
 40
0.0394354320601446
 50
92.4955503559733501
 51
179.3382600801058118
  0
LINE
  5
5116
  8
0
 10
294.0013347168825817
 20
40.5356522991363235
 30
0.0
 11
293.9517047247430241
 21
40.3740379585513409
 31
0.0
  0
LINE
  5
5117
  8
0
 10
293.9517047247430241
 20
40.3740379585513409
 30
0.0
 11
293.98839577523961
 21
40.3345933587206318
 31
0.0
  0
ARC
  5
5118
  8
0
 10
294.0577070150171153
 20
40.3194880611045789
 30
0.0
 40
0.0157503577835355
 50
184.9562276557024063
 51
253.5623456568000904
  0
LINE
  5
5119
  8
0
 10
293.9517047247430241
 20
40.3740379585513409
 30
0.0
 11
294.2244635927063996
 21
40.2905612451026869
 31
0.0
  0
LINE
  5
511A
  8
0
 10
294.2604747200053907
 20
40.4078273247862825
 30
0.0
 11
294.6134753750054074
 21
40.2994246940862766
 31
0.0
  0
LINE
  5
511B
  8
0
 10
294.2244635927063996
 20
40.2905612451026869
 30
0.0
 11
294.2604747201065152
 21
40.4078273249026978
 31
0.0
  0
ARC
  5
511C
  8
0
 10
294.2111241022113859
 20
39.6181684742064633
 30
0.0
 40
0.791199458907602
 50
59.4338170296920083
 51
86.4238868140566865
  0
ARC
  5
511E
  8
0
 10
296.3298651010882168
 20
39.6418927718483403
 30
0.0
 40
0.7236109490374745
 50
64.8867920133462945
 51
91.0533657293689771
  0
ARC
  5
511F
  8
0
 10
296.2563277027630875
 20
39.63779657066965
 30
0.0
 40
0.7612967079494326
 50
31.0608591511308809
 51
60.000396282706312
  0
ARC
  5
5120
  8
0
 10
296.4952199308867762
 20
39.8111741492627402
 30
0.0
 40
0.4678855501930718
 50
9.4495830315095795
 51
27.9657728317392795
  0
ARC
  5
5121
  8
0
 10
295.756866966084317
 20
39.7396387175032686
 30
0.0
 40
1.2090258022403879
 50
359.7094417080675726
 51
7.0482041744630228
  0
ENDSEC
  0
EOF
